  0
SECTION
  2
HEADER
  9
$ACADVER
  1
AC1014
  9
$ACADMAINTVER
 70
     9
  9
$DWGCODEPAGE
  3
ANSI_1252
  9
$INSBASE
 10
0.0
 20
0.0
 30
0.0
  9
$EXTMIN
 10
-25.17836457394263
 20
14.40014318504286
 30
0.0
  9
$EXTMAX
 10
-15.52630326766704
 20
16.7967025533939
 30
0.0
  9
$LIMMIN
 10
0.0
 20
0.0
  9
$LIMMAX
 10
0.0
 20
0.0
  9
$ORTHOMODE
 70
     1
  9
$REGENMODE
 70
     1
  9
$FILLMODE
 70
     1
  9
$QTEXTMODE
 70
     0
  9
$MIRRTEXT
 70
     1
  9
$DRAGMODE
 70
     0
  9
$LTSCALE
 40
1.0
  9
$OSMODE
 70
    37
  9
$ATTMODE
 70
     1
  9
$TEXTSIZE
 40
0.0
  9
$TRACEWID
 40
0.05
  9
$TEXTSTYLE
  7
STANDARD
  9
$CLAYER
  8
0
  9
$CELTYPE
  6
CONTINUOUS
  9
$CECOLOR
 62
   256
  9
$CELTSCALE
 40
1.0
  9
$DELOBJ
 70
     1
  9
$DISPSILH
 70
     0
  9
$DIMSCALE
 40
1.0
  9
$DIMASZ
 40
0.18
  9
$DIMEXO
 40
0.0625
  9
$DIMDLI
 40
0.38
  9
$DIMRND
 40
0.0
  9
$DIMDLE
 40
0.0
  9
$DIMEXE
 40
0.18
  9
$DIMTP
 40
0.0
  9
$DIMTM
 40
0.0
  9
$DIMTXT
 40
0.18
  9
$DIMCEN
 40
0.09
  9
$DIMTSZ
 40
0.0
  9
$DIMTOL
 70
     0
  9
$DIMLIM
 70
     0
  9
$DIMTIH
 70
     1
  9
$DIMTOH
 70
     1
  9
$DIMSE1
 70
     0
  9
$DIMSE2
 70
     0
  9
$DIMTAD
 70
     0
  9
$DIMZIN
 70
     0
  9
$DIMBLK
  1

  9
$DIMASO
 70
     1
  9
$DIMSHO
 70
     1
  9
$DIMPOST
  1

  9
$DIMAPOST
  1

  9
$DIMALT
 70
     0
  9
$DIMALTD
 70
     2
  9
$DIMALTF
 40
25.4
  9
$DIMLFAC
 40
1.0
  9
$DIMTOFL
 70
     0
  9
$DIMTVP
 40
0.0
  9
$DIMTIX
 70
     0
  9
$DIMSOXD
 70
     0
  9
$DIMSAH
 70
     0
  9
$DIMBLK1
  1

  9
$DIMBLK2
  1

  9
$DIMSTYLE
  2
STANDARD
  9
$DIMCLRD
 70
     0
  9
$DIMCLRE
 70
     0
  9
$DIMCLRT
 70
     0
  9
$DIMTFAC
 40
1.0
  9
$DIMGAP
 40
0.09
  9
$DIMJUST
 70
     0
  9
$DIMSD1
 70
     0
  9
$DIMSD2
 70
     0
  9
$DIMTOLJ
 70
     1
  9
$DIMTZIN
 70
     0
  9
$DIMALTZ
 70
     0
  9
$DIMALTTZ
 70
     0
  9
$DIMFIT
 70
     3
  9
$DIMUPT
 70
     0
  9
$DIMUNIT
 70
     2
  9
$DIMDEC
 70
     4
  9
$DIMTDEC
 70
     4
  9
$DIMALTU
 70
     2
  9
$DIMALTTD
 70
     2
  9
$DIMTXSTY
  7
STANDARD
  9
$DIMAUNIT
 70
     0
  9
$LUNITS
 70
     2
  9
$LUPREC
 70
     4
  9
$SKETCHINC
 40
0.1
  9
$FILLETRAD
 40
0.0
  9
$AUNITS
 70
     0
  9
$AUPREC
 70
     0
  9
$MENU
  1
acad
  9
$ELEVATION
 40
0.0
  9
$PELEVATION
 40
0.0
  9
$THICKNESS
 40
0.0
  9
$LIMCHECK
 70
     0
  9
$BLIPMODE
 70
     0
  9
$CHAMFERA
 40
0.0
  9
$CHAMFERB
 40
0.0
  9
$CHAMFERC
 40
0.0
  9
$CHAMFERD
 40
0.0
  9
$SKPOLY
 70
     0
  9
$TDCREATE
 40
2444971.791666666
  9
$TDUPDATE
 40
2452297.076733217
  9
$TDINDWG
 40
0.0641923380
  9
$TDUSRTIMER
 40
0.0641923380
  9
$USRTIMER
 70
     1
  9
$ANGBASE
 50
0.0
  9
$ANGDIR
 70
     0
  9
$PDMODE
 70
     0
  9
$PDSIZE
 40
0.0
  9
$PLINEWID
 40
0.0
  9
$COORDS
 70
     2
  9
$SPLFRAME
 70
     0
  9
$SPLINETYPE
 70
     6
  9
$SPLINESEGS
 70
     8
  9
$ATTDIA
 70
     0
  9
$ATTREQ
 70
     1
  9
$HANDLING
 70
 22529
  9
$HANDSEED
  5
4EF
  9
$SURFTAB1
 70
     6
  9
$SURFTAB2
 70
     6
  9
$SURFTYPE
 70
     6
  9
$SURFU
 70
     6
  9
$SURFV
 70
     6
  9
$UCSNAME
  2

  9
$UCSORG
 10
0.0
 20
0.0
 30
0.0
  9
$UCSXDIR
 10
1.0
 20
0.0
 30
0.0
  9
$UCSYDIR
 10
0.0
 20
1.0
 30
0.0
  9
$PUCSNAME
  2

  9
$PUCSORG
 10
0.0
 20
0.0
 30
0.0
  9
$PUCSXDIR
 10
1.0
 20
0.0
 30
0.0
  9
$PUCSYDIR
 10
0.0
 20
1.0
 30
0.0
  9
$USERI1
 70
     0
  9
$USERI2
 70
     0
  9
$USERI3
 70
     0
  9
$USERI4
 70
     0
  9
$USERI5
 70
     0
  9
$USERR1
 40
0.0
  9
$USERR2
 40
0.0
  9
$USERR3
 40
0.0
  9
$USERR4
 40
0.0
  9
$USERR5
 40
0.0
  9
$WORLDVIEW
 70
     1
  9
$SHADEDGE
 70
     3
  9
$SHADEDIF
 70
    70
  9
$TILEMODE
 70
     1
  9
$MAXACTVP
 70
    16
  9
$PINSBASE
 10
0.0
 20
0.0
 30
0.0
  9
$PLIMCHECK
 70
     0
  9
$PEXTMIN
 10
1.000000000000000E+20
 20
1.000000000000000E+20
 30
1.000000000000000E+20
  9
$PEXTMAX
 10
-1.000000000000000E+20
 20
-1.000000000000000E+20
 30
-1.000000000000000E+20
  9
$PLIMMIN
 10
0.0
 20
0.0
  9
$PLIMMAX
 10
12.0
 20
9.0
  9
$UNITMODE
 70
     0
  9
$VISRETAIN
 70
     0
  9
$PLINEGEN
 70
     0
  9
$PSLTSCALE
 70
     0
  9
$TREEDEPTH
 70
  3020
  9
$PICKSTYLE
 70
     1
  9
$CMLSTYLE
  2
STANDARD
  9
$CMLJUST
 70
     0
  9
$CMLSCALE
 40
1.0
  9
$PROXYGRAPHICS
 70
     1
  9
$MEASUREMENT
 70
     0
  0
ENDSEC
  0
SECTION
  2
CLASSES
  0
CLASS
  1
LWPOLYLINE
  2
AcDbPolyline
  3
AutoCAD 2000
 90
        0
280
     0
281
     1
  0
CLASS
  1
IMAGE
  2
AcDbRasterImage
  3
ISM
 90
      127
280
     0
281
     1
  0
CLASS
  1
OLE2FRAME
  2
AcDbOle2Frame
  3
AutoCAD 2000
 90
        0
280
     0
281
     1
  0
CLASS
  1
HATCH
  2
AcDbHatch
  3
AutoCAD 2000
 90
        0
280
     0
281
     1
  0
CLASS
  1
DICTIONARYVAR
  2
AcDbDictionaryVar
  3
AutoCAD 2000
 90
        0
280
     0
281
     0
  0
CLASS
  1
RASTERVARIABLES
  2
AcDbRasterVariables
  3
ISM
 90
        0
280
     0
281
     0
  0
CLASS
  1
IMAGEDEF
  2
AcDbRasterImageDef
  3
ISM
 90
        0
280
     0
281
     0
  0
CLASS
  1
IMAGEDEF_REACTOR
  2
AcDbRasterImageDefReactor
  3
ISM
 90
        1
280
     0
281
     0
  0
CLASS
  1
IDBUFFER
  2
AcDbIdBuffer
  3
AutoCAD 2000
 90
        0
280
     0
281
     0
  0
CLASS
  1
SPATIAL_FILTER
  2
AcDbSpatialFilter
  3
AutoCAD 2000
 90
        0
280
     0
281
     0
  0
CLASS
  1
XRECORD
  2
AcDbXrecord
  3
AutoCAD 2000
 90
        0
280
     0
281
     0
  0
CLASS
  1
SORTENTSTABLE
  2
AcDbSortentsTable
  3
AutoCAD 2000
 90
        0
280
     0
281
     0
  0
CLASS
  1
LAYER_INDEX
  2
AcDbLayerIndex
  3
AutoCAD 2000
 90
        0
280
     0
281
     0
  0
CLASS
  1
SPATIAL_INDEX
  2
AcDbSpatialIndex
  3
AutoCAD 2000
 90
        0
280
     0
281
     0
  0
CLASS
  1
OBJECT_PTR
  2
CAseDLPNTableRecord
  3
ASE-LPNTableRecord
 90
        1
280
     0
281
     0
  0
CLASS
  1
ACDBDICTIONARYWDFLT
  2
AcDbDictionaryWithDefault
  3
AutoCAD 2000
 90
        0
280
     0
281
     0
  0
CLASS
  1
ACDBPLACEHOLDER
  2
AcDbPlaceHolder
  3
AutoCAD 2000
 90
        0
280
     0
281
     0
  0
CLASS
  1
LAYOUT
  2
AcDbLayout
  3
AutoCAD 2000
 90
        0
280
     0
281
     0
  0
CLASS
  1
LONG_TRANSACTION
  2
AcDbLongTransaction
  3
AutoCAD 2000
 90
        0
280
     0
281
     0
  0
CLASS
  1
LWPOLYLINE
  2
AcDbPolyline
  3
AutoCAD 2000
 90
        0
280
     0
281
     1
  0
CLASS
  1
HATCH
  2
AcDbHatch
  3
AutoCAD 2000
 90
        0
280
     0
281
     1
  0
CLASS
  1
XRECORD
  2
AcDbXrecord
  3
AutoCAD 2000
 90
        0
280
     0
281
     0
  0
CLASS
  1
LONG_TRANSACTION
  2
AcDbLongTransaction
  3
AutoCAD 2000
 90
        0
280
     0
281
     0
  0
CLASS
  1
LWPOLYLINE
  2
AcDbPolyline
  3
AutoCAD 2000
 90
        0
280
     0
281
     1
  0
CLASS
  1
HATCH
  2
AcDbHatch
  3
AutoCAD 2000
 90
        0
280
     0
281
     1
  0
CLASS
  1
XRECORD
  2
AcDbXrecord
  3
AutoCAD 2000
 90
        0
280
     0
281
     0
  0
CLASS
  1
LONG_TRANSACTION
  2
AcDbLongTransaction
  3
AutoCAD 2000
 90
        0
280
     0
281
     0
  0
CLASS
  1
LWPOLYLINE
  2
AcDbPolyline
  3
AutoCAD 2000
 90
        0
280
     0
281
     1
  0
CLASS
  1
HATCH
  2
AcDbHatch
  3
AutoCAD 2000
 90
        0
280
     0
281
     1
  0
CLASS
  1
XRECORD
  2
AcDbXrecord
  3
AutoCAD 2000
 90
        0
280
     0
281
     0
  0
CLASS
  1
LONG_TRANSACTION
  2
AcDbLongTransaction
  3
AutoCAD 2000
 90
        0
280
     0
281
     0
  0
CLASS
  1
LWPOLYLINE
  2
AcDbPolyline
  3
AutoCAD 2000
 90
        0
280
     0
281
     1
  0
CLASS
  1
HATCH
  2
AcDbHatch
  3
AutoCAD 2000
 90
        0
280
     0
281
     1
  0
CLASS
  1
XRECORD
  2
AcDbXrecord
  3
AutoCAD 2000
 90
        0
280
     0
281
     0
  0
CLASS
  1
LONG_TRANSACTION
  2
AcDbLongTransaction
  3
AutoCAD 2000
 90
        0
280
     0
281
     0
  0
CLASS
  1
LWPOLYLINE
  2
AcDbPolyline
  3
AutoCAD 2000
 90
        0
280
     0
281
     1
  0
CLASS
  1
HATCH
  2
AcDbHatch
  3
AutoCAD 2000
 90
        0
280
     0
281
     1
  0
CLASS
  1
XRECORD
  2
AcDbXrecord
  3
AutoCAD 2000
 90
        0
280
     0
281
     0
  0
ENDSEC
  0
SECTION
  2
TABLES
  0
TABLE
  2
VPORT
  5
7
330
0
100
AcDbSymbolTable
 70
     3
  0
VPORT
  5
2E
330
7
100
AcDbSymbolTableRecord
100
AcDbViewportTableRecord
  2
DCADVPORT
 70
     0
 10
-23.19120160528321
 20
14.93785923355602
 11
-18.06594407616826
 21
16.7967025533939
 12
6.209999999999999
 22
9.019999999999999
 13
0.0
 23
0.0
 14
1.0
 24
1.0
 15
0.0
 25
0.0
 16
0.0
 26
0.0
 36
1.0
 17
0.0
 27
0.0
 37
0.0
 40
18.04
 41
0.688564
 42
50.0
 43
1.0
 44
1.0
 50
0.0
 51
0.0
 71
     0
 72
   100
 73
     1
 74
     1
 75
     0
 76
     0
 77
     0
 78
     0
  0
VPORT
  5
4CC
330
7
100
AcDbSymbolTableRecord
100
AcDbViewportTableRecord
  2
*ACTIVE
 70
     0
 10
0.0
 20
0.0
 11
1.0
 21
1.0
 12
-20.34437203280641
 22
15.59889878937136
 13
0.0
 23
0.0
 14
1.0
 24
1.0
 15
0.0
 25
0.0
 16
0.0
 26
0.0
 36
1.0
 17
0.0
 27
0.0
 37
0.0
 40
6.187069711852864
 41
1.570528967254408
 42
50.0
 43
0.0
 44
0.0
 50
0.0
 51
0.0
 71
     0
 72
   100
 73
     1
 74
     1
 75
     0
 76
     0
 77
     0
 78
     0
  0
ENDTAB
  0
TABLE
  2
LTYPE
  5
4
330
0
100
AcDbSymbolTable
 70
     3
  0
LTYPE
  5
11
330
4
100
AcDbSymbolTableRecord
100
AcDbLinetypeTableRecord
  2
BYBLOCK
 70
     0
  3

 72
    65
 73
     0
 40
0.0
  0
LTYPE
  5
12
330
4
100
AcDbSymbolTableRecord
100
AcDbLinetypeTableRecord
  2
BYLAYER
 70
     0
  3

 72
    65
 73
     0
 40
0.0
  0
LTYPE
  5
13
330
4
100
AcDbSymbolTableRecord
100
AcDbLinetypeTableRecord
  2
CONTINUOUS
 70
     0
  3
Solid line
 72
    65
 73
     0
 40
0.0
  0
LTYPE
  5
1E
330
4
100
AcDbSymbolTableRecord
100
AcDbLinetypeTableRecord
  2
CONTINUOUS
 70
     0
  3
Solid line
 72
    65
 73
     0
 40
0.0
  0
LTYPE
  5
28
330
4
100
AcDbSymbolTableRecord
100
AcDbLinetypeTableRecord
  2
HIDDEN
 70
     0
  3
__ __ __ __ __ __ __ __ __ __ __ __ __ __ __ __
 72
    65
 73
     2
 40
0.375
 49
0.25
 74
     0
 49
-0.125
 74
     0
  0
ENDTAB
  0
TABLE
  2
LAYER
  5
2
330
0
100
AcDbSymbolTable
 70
     5
  0
LAYER
  5
14
330
2
100
AcDbSymbolTableRecord
100
AcDbLayerTableRecord
  2
0
 70
     0
 62
     7
  6
CONTINUOUS
  0
LAYER
  5
2A
330
2
100
AcDbSymbolTableRecord
100
AcDbLayerTableRecord
  2
ADP2DETAIL
 70
     0
 62
   250
  6
CONTINUOUS
  0
LAYER
  5
2B
330
2
100
AcDbSymbolTableRecord
100
AcDbLayerTableRecord
  2
ADP1DETAIL
 70
     0
 62
   250
  6
CONTINUOUS
  0
LAYER
  5
2C
330
2
100
AcDbSymbolTableRecord
100
AcDbLayerTableRecord
  2
DEFPOINTS
 70
     0
 62
   250
  6
CONTINUOUS
  0
LAYER
  5
2D
330
2
100
AcDbSymbolTableRecord
100
AcDbLayerTableRecord
  2
ADPDIM
 70
     0
 62
     3
  6
CONTINUOUS
  0
ENDTAB
  0
TABLE
  2
STYLE
  5
3
330
0
100
AcDbSymbolTable
 70
     2
  0
STYLE
  5
17
330
3
100
AcDbSymbolTableRecord
100
AcDbTextStyleTableRecord
  2
STANDARD
 70
     0
 40
0.0
 41
1.0
 50
0.0
 71
     0
 42
0.0
  3
txt
  4

  0
STYLE
  5
36C
330
3
100
AcDbSymbolTableRecord
100
AcDbTextStyleTableRecord
  2
ARIAL_WIDE
 70
     0
 40
0.0
 41
1.25
 50
0.0
 71
     0
 42
0.2
  3
ARIAL.TTF
  4

1001
ACAD
1000
Arial
1071
       34
  0
ENDTAB
  0
TABLE
  2
VIEW
  5
5
330
0
100
AcDbSymbolTable
 70
     0
  0
ENDTAB
  0
TABLE
  2
UCS
  5
6
330
0
100
AcDbSymbolTable
 70
     0
  0
ENDTAB
  0
TABLE
  2
APPID
  5
8
330
0
100
AcDbSymbolTable
 70
     1
  0
APPID
  5
16
330
8
100
AcDbSymbolTableRecord
100
AcDbRegAppTableRecord
  2
ACAD
 70
     0
  0
ENDTAB
  0
TABLE
  2
DIMSTYLE
  5
9
330
0
100
AcDbSymbolTable
 70
     1
  0
DIMSTYLE
105
18
330
9
100
AcDbSymbolTableRecord
100
AcDbDimStyleTableRecord
  2
STANDARD
 70
     0
  3

  4

  5

  6

  7

 40
1.0
 41
0.18
 42
0.0625
 43
0.38
 44
0.18
 45
0.0
 46
0.0
 47
0.0
 48
0.0
140
0.18
141
0.09
142
0.0
143
25.4
144
1.0
145
0.0
146
1.0
147
0.09
 71
     0
 72
     0
 73
     1
 74
     1
 75
     0
 76
     0
 77
     0
 78
     0
170
     0
171
     2
172
     0
173
     0
174
     0
175
     0
176
     0
177
     0
178
     0
270
     2
271
     4
272
     4
273
     2
274
     2
340
17
275
     0
280
     0
281
     0
282
     0
283
     1
284
     0
285
     0
286
     0
287
     0
288
     0
  0
ENDTAB
  0
TABLE
  2
BLOCK_RECORD
  5
1
330
0
100
AcDbSymbolTable
 70
     0
  0
BLOCK_RECORD
  5
A
102
{ACAD_XDICTIONARY
360
3C3
102
}
330
1
100
AcDbSymbolTableRecord
100
AcDbBlockTableRecord
  2
*MODEL_SPACE
  0
BLOCK_RECORD
  5
B
102
{ACAD_XDICTIONARY
360
3C5
102
}
330
1
100
AcDbSymbolTableRecord
100
AcDbBlockTableRecord
  2
*PAPER_SPACE
  0
ENDTAB
  0
ENDSEC
  0
SECTION
  2
BLOCKS
  0
BLOCK
  5
D
330
A
100
AcDbEntity
  8
0
100
AcDbBlockBegin
  2
*MODEL_SPACE
 70
     0
 10
0.0
 20
0.0
 30
0.0
  3
*MODEL_SPACE
  1

  0
ENDBLK
  5
E
330
A
100
AcDbEntity
  8
0
100
AcDbBlockEnd
  0
BLOCK
  5
F
330
B
100
AcDbEntity
 67
     1
  8
0
100
AcDbBlockBegin
  2
*PAPER_SPACE
 70
     0
 10
0.0
 20
0.0
 30
0.0
  3
*PAPER_SPACE
  1

  0
ENDBLK
  5
10
330
B
100
AcDbEntity
 67
     1
  8
0
100
AcDbBlockEnd
  0
ENDSEC
  0
SECTION
  2
ENTITIES
  0
LWPOLYLINE
  5
2F
330
A
100
AcDbEntity
  8
ADP1DETAIL
  6
CONTINUOUS
 62
     7
100
AcDbPolyline
 90
        2
 70
   128
 43
0.0
 10
-18.84846623632647
 20
16.35452590022269
 10
-21.8562016052832
 20
16.35452590022269
  0
LWPOLYLINE
  5
33
330
A
100
AcDbEntity
  8
ADP1DETAIL
  6
CONTINUOUS
 62
     7
100
AcDbPolyline
 90
        2
 70
   128
 43
0.0
 10
-21.8562016052832
 20
15.35452590022269
 10
-18.84846623632647
 20
15.35452590022269
  0
LWPOLYLINE
  5
37
330
A
100
AcDbEntity
  8
ADP1DETAIL
  6
CONTINUOUS
 62
     7
100
AcDbPolyline
 90
        2
 70
   128
 43
0.0
 10
-22.08953493861654
 20
16.10452590022269
 10
-22.00286827194987
 20
15.60452590022269
  0
LWPOLYLINE
  5
3B
330
A
100
AcDbEntity
  8
ADP1DETAIL
  6
CONTINUOUS
 62
     7
100
AcDbPolyline
 90
        2
 70
   128
 43
0.0
 10
-22.10953493861654
 20
16.04452590022269
 10
-22.04286827194987
 20
15.67119256688935
  0
LWPOLYLINE
  5
3F
330
A
100
AcDbEntity
  8
ADP1DETAIL
  6
CONTINUOUS
 62
     7
100
AcDbPolyline
 90
        2
 70
   128
 43
0.0
 10
-22.14953493861654
 20
16.10452590022269
 10
-22.06953493861654
 20
15.60452590022269
  0
LWPOLYLINE
  5
43
330
A
100
AcDbEntity
  8
ADP1DETAIL
  6
CONTINUOUS
 62
     7
100
AcDbPolyline
 90
        2
 70
   128
 43
0.0
 10
-22.40286827194987
 20
16.10452590022269
 10
-22.31620160528321
 20
15.60452590022269
  0
LWPOLYLINE
  5
47
330
A
100
AcDbEntity
  8
ADP1DETAIL
  6
CONTINUOUS
 62
     7
100
AcDbPolyline
 90
        2
 70
   128
 43
0.0
 10
-22.33620160528321
 20
16.10452590022269
 10
-22.25620160528321
 20
15.60452590022269
  0
LWPOLYLINE
  5
4B
330
A
100
AcDbEntity
  8
ADP1DETAIL
  6
CONTINUOUS
 62
     7
100
AcDbPolyline
 90
        2
 70
   128
 43
0.0
 10
-22.27620160528321
 20
16.10452590022269
 10
-22.19620160528321
 20
15.60452590022269
  0
LWPOLYLINE
  5
4F
330
A
100
AcDbEntity
  8
ADP1DETAIL
  6
CONTINUOUS
 62
     7
100
AcDbPolyline
 90
        2
 70
   128
 43
0.0
 10
-22.20953493861654
 20
16.10452590022269
 10
-22.12953493861654
 20
15.60452590022269
  0
LWPOLYLINE
  5
53
330
A
100
AcDbEntity
  8
ADP1DETAIL
  6
CONTINUOUS
 62
     7
100
AcDbPolyline
 90
        2
 70
   128
 43
0.0
 10
-22.46286827194987
 20
16.10452590022269
 10
-22.38286827194988
 20
15.60452590022269
  0
LWPOLYLINE
  5
57
330
A
100
AcDbEntity
  8
ADP1DETAIL
  6
CONTINUOUS
 62
     7
100
AcDbPolyline
 90
        2
 70
   128
 43
0.0
 10
-22.29620160528321
 20
16.04452590022269
 10
-22.23620160528321
 20
15.67119256688935
  0
LWPOLYLINE
  5
5B
330
A
100
AcDbEntity
  8
ADP1DETAIL
  6
CONTINUOUS
 62
     7
100
AcDbPolyline
 90
        2
 70
   128
 43
0.0
 10
-22.42286827194987
 20
16.04452590022269
 10
-22.35620160528321
 20
15.67119256688935
  0
LWPOLYLINE
  5
5F
330
A
100
AcDbEntity
  8
ADP1DETAIL
  6
CONTINUOUS
 62
     7
100
AcDbPolyline
 90
        2
 70
   128
 43
0.0
 10
-22.35620160528321
 20
16.04452590022269
 10
-22.29620160528321
 20
15.67119256688935
  0
LWPOLYLINE
  5
63
330
A
100
AcDbEntity
  8
ADP1DETAIL
  6
CONTINUOUS
 62
     7
100
AcDbPolyline
 90
        2
 70
   128
 43
0.0
 10
-22.48286827194987
 20
16.04452590022269
 10
-22.48286827194987
 20
15.67119256688935
  0
LWPOLYLINE
  5
67
330
A
100
AcDbEntity
  8
ADP1DETAIL
  6
CONTINUOUS
 62
     7
100
AcDbPolyline
 90
        2
 70
   128
 43
0.0
 10
-22.48286827194987
 20
16.04452590022269
 10
-22.42286827194987
 20
15.67119256688935
  0
LWPOLYLINE
  5
6B
330
A
100
AcDbEntity
  8
ADP1DETAIL
  6
CONTINUOUS
 62
     7
100
AcDbPolyline
 90
        2
 70
   128
 43
0.0
 10
-22.23620160528321
 20
16.04452590022269
 10
-22.16953493861654
 20
15.67119256688935
  0
LWPOLYLINE
  5
6F
330
A
100
AcDbEntity
  8
ADP1DETAIL
  6
CONTINUOUS
 62
     7
100
AcDbPolyline
 90
        2
 70
   128
 43
0.0
 10
-22.16953493861654
 20
16.04452590022269
 10
-22.10953493861654
 20
15.67119256688935
  0
LWPOLYLINE
  5
73
330
A
100
AcDbEntity
  8
ADP1DETAIL
  6
CONTINUOUS
 62
     7
100
AcDbPolyline
 90
        2
 70
   128
 43
0.0
 10
-22.04286827194987
 20
16.04452590022269
 10
-21.98286827194987
 20
15.67119256688935
  0
LWPOLYLINE
  5
77
330
A
100
AcDbEntity
  8
ADP1DETAIL
  6
CONTINUOUS
 62
     7
100
AcDbPolyline
 90
        2
 70
   128
 43
0.0
 10
-22.01696709828982
 20
16.05972659253024
 10
-21.95696709828982
 20
15.68639325919691
  0
LWPOLYLINE
  5
7B
330
A
100
AcDbEntity
  8
ADP1DETAIL
  6
CONTINUOUS
 62
     7
100
AcDbPolyline
 90
        2
 70
   128
 43
0.0
 10
-21.95696709828982
 20
15.68639325919691
 10
-21.96363376495649
 20
15.68639325919691
  0
LWPOLYLINE
  5
7F
330
A
100
AcDbEntity
  8
ADP1DETAIL
  6
CONTINUOUS
 62
     7
100
AcDbPolyline
 90
        2
 70
   128
 43
0.0
 10
-22.06953493861654
 20
15.60452590022269
 10
-22.04286827194987
 20
15.67119256688935
  0
LWPOLYLINE
  5
83
330
A
100
AcDbEntity
  8
ADP1DETAIL
  6
CONTINUOUS
 62
     7
100
AcDbPolyline
 90
        2
 70
   128
 43
0.0
 10
-22.10953493861654
 20
15.67119256688935
 10
-22.06953493861654
 20
15.60452590022269
  0
LWPOLYLINE
  5
87
330
A
100
AcDbEntity
  8
ADP1DETAIL
  6
CONTINUOUS
 62
     7
100
AcDbPolyline
 90
        2
 70
   128
 43
0.0
 10
-22.44286827194987
 20
15.60452590022269
 10
-22.42286827194987
 20
15.67119256688935
  0
LWPOLYLINE
  5
8B
330
A
100
AcDbEntity
  8
ADP1DETAIL
  6
CONTINUOUS
 62
     7
100
AcDbPolyline
 90
        2
 70
   128
 43
0.0
 10
-22.48286827194987
 20
15.83785923355602
 10
-22.44286827194987
 20
15.60452590022269
  0
LWPOLYLINE
  5
8F
330
A
100
AcDbEntity
  8
ADP1DETAIL
  6
CONTINUOUS
 62
     7
100
AcDbPolyline
 90
        2
 70
   128
 43
0.0
 10
-22.47620160528321
 20
15.67119256688935
 10
-22.44286827194987
 20
15.60452590022269
  0
LWPOLYLINE
  5
93
330
A
100
AcDbEntity
  8
ADP1DETAIL
  6
CONTINUOUS
 62
     7
100
AcDbPolyline
 90
        2
 70
   128
 43
0.0
 10
-22.48286827194987
 20
15.67119256688935
 10
-22.47620160528321
 20
15.67119256688935
  0
LWPOLYLINE
  5
97
330
A
100
AcDbEntity
  8
ADP1DETAIL
  6
CONTINUOUS
 62
     7
100
AcDbPolyline
 90
        2
 70
   128
 43
0.0
 10
-22.38286827194988
 20
15.60452590022269
 10
-22.35620160528321
 20
15.67119256688935
  0
LWPOLYLINE
  5
9B
330
A
100
AcDbEntity
  8
ADP1DETAIL
  6
CONTINUOUS
 62
     7
100
AcDbPolyline
 90
        2
 70
   128
 43
0.0
 10
-22.35620160528321
 20
15.67119256688935
 10
-22.31620160528321
 20
15.60452590022269
  0
LWPOLYLINE
  5
9F
330
A
100
AcDbEntity
  8
ADP1DETAIL
  6
CONTINUOUS
 62
     7
100
AcDbPolyline
 90
        2
 70
   128
 43
0.0
 10
-22.31620160528321
 20
15.60452590022269
 10
-22.29620160528321
 20
15.67119256688935
  0
LWPOLYLINE
  5
A3
330
A
100
AcDbEntity
  8
ADP1DETAIL
  6
CONTINUOUS
 62
     7
100
AcDbPolyline
 90
        2
 70
   128
 43
0.0
 10
-22.29620160528321
 20
15.67119256688935
 10
-22.25620160528321
 20
15.60452590022269
  0
LWPOLYLINE
  5
A7
330
A
100
AcDbEntity
  8
ADP1DETAIL
  6
CONTINUOUS
 62
     7
100
AcDbPolyline
 90
        2
 70
   128
 43
0.0
 10
-22.25620160528321
 20
15.60452590022269
 10
-22.22953493861654
 20
15.67119256688935
  0
LWPOLYLINE
  5
AB
330
A
100
AcDbEntity
  8
ADP1DETAIL
  6
CONTINUOUS
 62
     7
100
AcDbPolyline
 90
        2
 70
   128
 43
0.0
 10
-22.22953493861654
 20
15.67119256688935
 10
-22.19620160528321
 20
15.60452590022269
  0
LWPOLYLINE
  5
AF
330
A
100
AcDbEntity
  8
ADP1DETAIL
  6
CONTINUOUS
 62
     7
100
AcDbPolyline
 90
        2
 70
   128
 43
0.0
 10
-22.19620160528321
 20
15.60452590022269
 10
-22.16953493861654
 20
15.67119256688935
  0
LWPOLYLINE
  5
B3
330
A
100
AcDbEntity
  8
ADP1DETAIL
  6
CONTINUOUS
 62
     7
100
AcDbPolyline
 90
        2
 70
   128
 43
0.0
 10
-22.16953493861654
 20
15.67119256688935
 10
-22.12953493861654
 20
15.60452590022269
  0
LWPOLYLINE
  5
B7
330
A
100
AcDbEntity
  8
ADP1DETAIL
  6
CONTINUOUS
 62
     7
100
AcDbPolyline
 90
        2
 70
   128
 43
0.0
 10
-22.12953493861654
 20
15.60452590022269
 10
-22.10953493861654
 20
15.67119256688935
  0
LWPOLYLINE
  5
BB
330
A
100
AcDbEntity
  8
ADP1DETAIL
  6
CONTINUOUS
 62
     7
100
AcDbPolyline
 90
        2
 70
   128
 43
0.0
 10
-22.42286827194987
 20
15.67119256688935
 10
-22.38286827194988
 20
15.60452590022269
  0
LWPOLYLINE
  5
BF
330
A
100
AcDbEntity
  8
ADP1DETAIL
  6
CONTINUOUS
 62
     7
100
AcDbPolyline
 90
        2
 70
   128
 43
0.0
 10
-22.04286827194987
 20
15.67119256688935
 10
-22.00286827194987
 20
15.60452590022269
  0
LWPOLYLINE
  5
C3
330
A
100
AcDbEntity
  8
ADP1DETAIL
  6
CONTINUOUS
 62
     7
100
AcDbPolyline
 90
        2
 70
   128
 43
0.0
 10
-22.00286827194987
 20
15.60452590022269
 10
-21.98286827194987
 20
15.67119256688935
  0
LWPOLYLINE
  5
C7
330
A
100
AcDbEntity
  8
ADP1DETAIL
  6
CONTINUOUS
 62
     7
100
AcDbPolyline
 90
        2
 70
   128
 43
0.0
 10
-21.98286827194987
 20
15.67119256688935
 10
-21.94286827194987
 20
15.60452590022269
  0
LWPOLYLINE
  5
CB
330
A
100
AcDbEntity
  8
ADP1DETAIL
  6
CONTINUOUS
 62
     7
100
AcDbPolyline
 90
        2
 70
   128
 43
0.0
 10
-22.02286827194988
 20
16.10452590022269
 10
-22.04953493861654
 20
16.04452590022269
  0
LWPOLYLINE
  5
CF
330
A
100
AcDbEntity
  8
ADP1DETAIL
  6
CONTINUOUS
 62
     7
100
AcDbPolyline
 90
        2
 70
   128
 43
0.0
 10
-22.04953493861654
 20
16.04452590022269
 10
-22.08953493861654
 20
16.10452590022269
  0
LWPOLYLINE
  5
D3
330
A
100
AcDbEntity
  8
ADP1DETAIL
  6
CONTINUOUS
 62
     7
100
AcDbPolyline
 90
        2
 70
   128
 43
0.0
 10
-22.42286827194987
 20
16.04452590022269
 10
-22.46286827194987
 20
16.10452590022269
  0
LWPOLYLINE
  5
D7
330
A
100
AcDbEntity
  8
ADP1DETAIL
  6
CONTINUOUS
 62
     7
100
AcDbPolyline
 90
        2
 70
   128
 43
0.0
 10
-22.46286827194987
 20
16.10452590022269
 10
-22.48286827194987
 20
16.04452590022269
  0
LWPOLYLINE
  5
DB
330
A
100
AcDbEntity
  8
ADP1DETAIL
  6
CONTINUOUS
 62
     7
100
AcDbPolyline
 90
        2
 70
   128
 43
0.0
 10
-22.48286827194987
 20
16.04452590022269
 10
-22.48286827194987
 20
16.04452590022269
  0
LWPOLYLINE
  5
DF
330
A
100
AcDbEntity
  8
ADP1DETAIL
  6
CONTINUOUS
 62
     7
100
AcDbPolyline
 90
        2
 70
   128
 43
0.0
 10
-22.23620160528321
 20
16.04452590022269
 10
-22.27620160528321
 20
16.10452590022269
  0
LWPOLYLINE
  5
E3
330
A
100
AcDbEntity
  8
ADP1DETAIL
  6
CONTINUOUS
 62
     7
100
AcDbPolyline
 90
        2
 70
   128
 43
0.0
 10
-22.27620160528321
 20
16.10452590022269
 10
-22.29620160528321
 20
16.04452590022269
  0
LWPOLYLINE
  5
E7
330
A
100
AcDbEntity
  8
ADP1DETAIL
  6
CONTINUOUS
 62
     7
100
AcDbPolyline
 90
        2
 70
   128
 43
0.0
 10
-22.29620160528321
 20
16.04452590022269
 10
-22.33620160528321
 20
16.10452590022269
  0
LWPOLYLINE
  5
EB
330
A
100
AcDbEntity
  8
ADP1DETAIL
  6
CONTINUOUS
 62
     7
100
AcDbPolyline
 90
        2
 70
   128
 43
0.0
 10
-22.33620160528321
 20
16.10452590022269
 10
-22.36286827194987
 20
16.04452590022269
  0
LWPOLYLINE
  5
EF
330
A
100
AcDbEntity
  8
ADP1DETAIL
  6
CONTINUOUS
 62
     7
100
AcDbPolyline
 90
        2
 70
   128
 43
0.0
 10
-22.40286827194987
 20
16.10452590022269
 10
-22.42286827194987
 20
16.04452590022269
  0
LWPOLYLINE
  5
F3
330
A
100
AcDbEntity
  8
ADP1DETAIL
  6
CONTINUOUS
 62
     7
100
AcDbPolyline
 90
        2
 70
   128
 43
0.0
 10
-22.36286827194987
 20
16.04452590022269
 10
-22.40286827194987
 20
16.10452590022269
  0
LWPOLYLINE
  5
F7
330
A
100
AcDbEntity
  8
ADP1DETAIL
  6
CONTINUOUS
 62
     7
100
AcDbPolyline
 90
        2
 70
   128
 43
0.0
 10
-22.08953493861654
 20
16.10452590022269
 10
-22.10953493861654
 20
16.04452590022269
  0
LWPOLYLINE
  5
FB
330
A
100
AcDbEntity
  8
ADP1DETAIL
  6
CONTINUOUS
 62
     7
100
AcDbPolyline
 90
        2
 70
   128
 43
0.0
 10
-22.10953493861654
 20
16.04452590022269
 10
-22.14953493861654
 20
16.10452590022269
  0
LWPOLYLINE
  5
FF
330
A
100
AcDbEntity
  8
ADP1DETAIL
  6
CONTINUOUS
 62
     7
100
AcDbPolyline
 90
        2
 70
   128
 43
0.0
 10
-22.16953493861654
 20
16.04452590022269
 10
-22.20953493861654
 20
16.10452590022269
  0
LWPOLYLINE
  5
103
330
A
100
AcDbEntity
  8
ADP1DETAIL
  6
CONTINUOUS
 62
     7
100
AcDbPolyline
 90
        2
 70
   128
 43
0.0
 10
-22.20953493861654
 20
16.10452590022269
 10
-22.23620160528321
 20
16.04452590022269
  0
LWPOLYLINE
  5
107
330
A
100
AcDbEntity
  8
ADP1DETAIL
  6
CONTINUOUS
 62
     7
100
AcDbPolyline
 90
        2
 70
   128
 43
0.0
 10
-22.14953493861654
 20
16.10452590022269
 10
-22.16953493861654
 20
16.04452590022269
  0
LWPOLYLINE
  5
10B
330
A
100
AcDbEntity
  8
ADP1DETAIL
  6
CONTINUOUS
 62
     7
100
AcDbPolyline
 90
        2
 70
   128
 43
0.0
 10
-21.98286827194987
 20
16.04452590022269
 10
-22.02286827194988
 20
16.10452590022269
  0
LWPOLYLINE
  5
10F
330
A
100
AcDbEntity
  8
ADP2DETAIL
  6
HIDDEN
 62
     5
100
AcDbPolyline
 90
        2
 70
   128
 43
0.0
 10
-18.85620160528321
 20
16.10452590022269
 10
-21.85583418558411
 20
16.10614383978968
  0
LWPOLYLINE
  5
113
330
A
100
AcDbEntity
  8
ADP2DETAIL
  6
HIDDEN
 62
     5
100
AcDbPolyline
 90
        2
 70
   128
 43
0.0
 10
-21.83936087894172
 20
15.61194464051785
 10
-18.85620160528321
 20
15.60452590022269
  0
LWPOLYLINE
  5
117
330
A
100
AcDbEntity
  8
ADP2DETAIL
  6
HIDDEN
 62
     5
100
AcDbPolyline
 90
        2
 70
   128
 43
0.0
 10
-20.18953493861654
 20
16.04452590022269
 10
-20.18953493861654
 20
15.67119256688935
  0
LWPOLYLINE
  5
11B
330
A
100
AcDbEntity
  8
ADP2DETAIL
  6
HIDDEN
 62
     5
100
AcDbPolyline
 90
        2
 70
   128
 43
0.0
 10
-20.30953493861654
 20
16.04452590022269
 10
-20.30953493861654
 20
15.67119256688935
  0
LWPOLYLINE
  5
11F
330
A
100
AcDbEntity
  8
ADP2DETAIL
  6
HIDDEN
 62
     5
100
AcDbPolyline
 90
        2
 70
   128
 43
0.0
 10
-20.54953493861654
 20
16.04452590022269
 10
-20.54953493861654
 20
15.67119256688935
  0
LWPOLYLINE
  5
123
330
A
100
AcDbEntity
  8
ADP2DETAIL
  6
HIDDEN
 62
     5
100
AcDbPolyline
 90
        2
 70
   128
 43
0.0
 10
-20.42953493861654
 20
16.04452590022269
 10
-20.42953493861654
 20
15.67119256688935
  0
LWPOLYLINE
  5
127
330
A
100
AcDbEntity
  8
ADP2DETAIL
  6
HIDDEN
 62
     5
100
AcDbPolyline
 90
        2
 70
   128
 43
0.0
 10
-20.79620160528321
 20
16.04452590022269
 10
-20.79620160528321
 20
15.67119256688935
  0
LWPOLYLINE
  5
12B
330
A
100
AcDbEntity
  8
ADP2DETAIL
  6
HIDDEN
 62
     5
100
AcDbPolyline
 90
        2
 70
   128
 43
0.0
 10
-20.66953493861654
 20
16.04452590022269
 10
-20.66953493861654
 20
15.67119256688935
  0
LWPOLYLINE
  5
12F
330
A
100
AcDbEntity
  8
ADP2DETAIL
  6
HIDDEN
 62
     5
100
AcDbPolyline
 90
        2
 70
   128
 43
0.0
 10
-20.85620160528321
 20
16.10452590022269
 10
-20.85620160528321
 20
15.60452590022269
  0
LWPOLYLINE
  5
133
330
A
100
AcDbEntity
  8
ADP2DETAIL
  6
HIDDEN
 62
     5
100
AcDbPolyline
 90
        2
 70
   128
 43
0.0
 10
-20.24953493861654
 20
16.10452590022269
 10
-20.24953493861654
 20
15.60452590022269
  0
LWPOLYLINE
  5
137
330
A
100
AcDbEntity
  8
ADP2DETAIL
  6
HIDDEN
 62
     5
100
AcDbPolyline
 90
        2
 70
   128
 43
0.0
 10
-20.7362016052832
 20
16.10452590022269
 10
-20.7362016052832
 20
15.60452590022269
  0
LWPOLYLINE
  5
13B
330
A
100
AcDbEntity
  8
ADP2DETAIL
  6
HIDDEN
 62
     5
100
AcDbPolyline
 90
        2
 70
   128
 43
0.0
 10
-20.60953493861654
 20
16.10452590022269
 10
-20.60953493861654
 20
15.60452590022269
  0
LWPOLYLINE
  5
13F
330
A
100
AcDbEntity
  8
ADP2DETAIL
  6
HIDDEN
 62
     5
100
AcDbPolyline
 90
        2
 70
   128
 43
0.0
 10
-20.48953493861654
 20
16.10452590022269
 10
-20.48953493861654
 20
15.60452590022269
  0
LWPOLYLINE
  5
143
330
A
100
AcDbEntity
  8
ADP2DETAIL
  6
HIDDEN
 62
     5
100
AcDbPolyline
 90
        2
 70
   128
 43
0.0
 10
-20.36953493861654
 20
16.10452590022269
 10
-20.36953493861654
 20
15.60452590022269
  0
LWPOLYLINE
  5
147
330
A
100
AcDbEntity
  8
ADP2DETAIL
  6
HIDDEN
 62
     5
100
AcDbPolyline
 90
        2
 70
   128
 43
0.0
 10
-19.33620160528321
 20
16.04452590022269
 10
-19.33620160528321
 20
15.67119256688935
  0
LWPOLYLINE
  5
14B
330
A
100
AcDbEntity
  8
ADP2DETAIL
  6
HIDDEN
 62
     5
100
AcDbPolyline
 90
        2
 70
   128
 43
0.0
 10
-19.21620160528321
 20
16.04452590022269
 10
-19.21620160528321
 20
15.67119256688935
  0
LWPOLYLINE
  5
14F
330
A
100
AcDbEntity
  8
ADP2DETAIL
  6
HIDDEN
 62
     5
100
AcDbPolyline
 90
        2
 70
   128
 43
0.0
 10
-19.08953493861654
 20
16.04452590022269
 10
-19.08953493861654
 20
15.67119256688935
  0
LWPOLYLINE
  5
153
330
A
100
AcDbEntity
  8
ADP2DETAIL
  6
HIDDEN
 62
     5
100
AcDbPolyline
 90
        2
 70
   128
 43
0.0
 10
-19.3962016052832
 20
16.10452590022269
 10
-19.3962016052832
 20
15.60452590022269
  0
LWPOLYLINE
  5
157
330
A
100
AcDbEntity
  8
ADP2DETAIL
  6
HIDDEN
 62
     5
100
AcDbPolyline
 90
        2
 70
   128
 43
0.0
 10
-19.27620160528321
 20
16.10452590022269
 10
-19.27620160528321
 20
15.60452590022269
  0
LWPOLYLINE
  5
15B
330
A
100
AcDbEntity
  8
ADP2DETAIL
  6
HIDDEN
 62
     5
100
AcDbPolyline
 90
        2
 70
   128
 43
0.0
 10
-19.15620160528321
 20
16.10452590022269
 10
-19.15620160528321
 20
15.60452590022269
  0
LWPOLYLINE
  5
15F
330
A
100
AcDbEntity
  8
ADP2DETAIL
  6
HIDDEN
 62
     5
100
AcDbPolyline
 90
        2
 70
   128
 43
0.0
 10
-19.02953493861654
 20
16.10452590022269
 10
-19.02953493861654
 20
15.60452590022269
  0
LWPOLYLINE
  5
163
330
A
100
AcDbEntity
  8
ADP2DETAIL
  6
HIDDEN
 62
     5
100
AcDbPolyline
 90
        2
 70
   128
 43
0.0
 10
-19.45620160528321
 20
16.04452590022269
 10
-19.45620160528321
 20
15.67119256688935
  0
LWPOLYLINE
  5
167
330
A
100
AcDbEntity
  8
ADP2DETAIL
  6
HIDDEN
 62
     5
100
AcDbPolyline
 90
        2
 70
   128
 43
0.0
 10
-19.5762016052832
 20
16.04452590022269
 10
-19.5762016052832
 20
15.67119256688935
  0
LWPOLYLINE
  5
16B
330
A
100
AcDbEntity
  8
ADP2DETAIL
  6
HIDDEN
 62
     5
100
AcDbPolyline
 90
        2
 70
   128
 43
0.0
 10
-19.70286827194987
 20
16.04452590022269
 10
-19.70286827194987
 20
15.67119256688935
  0
LWPOLYLINE
  5
16F
330
A
100
AcDbEntity
  8
ADP2DETAIL
  6
HIDDEN
 62
     5
100
AcDbPolyline
 90
        2
 70
   128
 43
0.0
 10
-19.63620160528321
 20
16.10452590022269
 10
-19.63620160528321
 20
15.60452590022269
  0
LWPOLYLINE
  5
173
330
A
100
AcDbEntity
  8
ADP2DETAIL
  6
HIDDEN
 62
     5
100
AcDbPolyline
 90
        2
 70
   128
 43
0.0
 10
-19.51620160528321
 20
16.10452590022269
 10
-19.51620160528321
 20
15.60452590022269
  0
LWPOLYLINE
  5
177
330
A
100
AcDbEntity
  8
ADP2DETAIL
  6
HIDDEN
 62
     5
100
AcDbPolyline
 90
        2
 70
   128
 43
0.0
 10
-19.82286827194988
 20
16.04452590022269
 10
-19.82286827194988
 20
15.67119256688935
  0
LWPOLYLINE
  5
17B
330
A
100
AcDbEntity
  8
ADP2DETAIL
  6
HIDDEN
 62
     5
100
AcDbPolyline
 90
        2
 70
   128
 43
0.0
 10
-19.94286827194987
 20
16.04452590022269
 10
-19.94286827194987
 20
15.67119256688935
  0
LWPOLYLINE
  5
17F
330
A
100
AcDbEntity
  8
ADP2DETAIL
  6
HIDDEN
 62
     5
100
AcDbPolyline
 90
        2
 70
   128
 43
0.0
 10
-19.88286827194987
 20
16.10452590022269
 10
-19.88286827194987
 20
15.60452590022269
  0
LWPOLYLINE
  5
183
330
A
100
AcDbEntity
  8
ADP2DETAIL
  6
HIDDEN
 62
     5
100
AcDbPolyline
 90
        2
 70
   128
 43
0.0
 10
-19.76286827194987
 20
16.10452590022269
 10
-19.76286827194987
 20
15.60452590022269
  0
LWPOLYLINE
  5
187
330
A
100
AcDbEntity
  8
ADP2DETAIL
  6
HIDDEN
 62
     5
100
AcDbPolyline
 90
        2
 70
   128
 43
0.0
 10
-20.06286827194987
 20
16.04452590022269
 10
-20.06286827194987
 20
15.67119256688935
  0
LWPOLYLINE
  5
18B
330
A
100
AcDbEntity
  8
ADP2DETAIL
  6
HIDDEN
 62
     5
100
AcDbPolyline
 90
        2
 70
   128
 43
0.0
 10
-20.12286827194987
 20
16.10452590022269
 10
-20.12286827194987
 20
15.60452590022269
  0
LWPOLYLINE
  5
18F
330
A
100
AcDbEntity
  8
ADP2DETAIL
  6
HIDDEN
 62
     5
100
AcDbPolyline
 90
        2
 70
   128
 43
0.0
 10
-20.00286827194988
 20
16.10452590022269
 10
-20.00286827194988
 20
15.60452590022269
  0
LWPOLYLINE
  5
193
330
A
100
AcDbEntity
  8
ADP2DETAIL
  6
HIDDEN
 62
     5
100
AcDbPolyline
 90
        2
 70
   128
 43
0.0
 10
-18.96953493861654
 20
16.04452590022269
 10
-18.96953493861654
 20
15.67119256688935
  0
LWPOLYLINE
  5
197
330
A
100
AcDbEntity
  8
ADP2DETAIL
  6
HIDDEN
 62
     5
100
AcDbPolyline
 90
        2
 70
   128
 43
0.0
 10
-18.90953493861654
 20
16.10452590022269
 10
-18.90953493861654
 20
15.60452590022269
  0
LWPOLYLINE
  5
19B
330
A
100
AcDbEntity
  8
ADP1DETAIL
  6
CONTINUOUS
 62
     7
100
AcDbPolyline
 90
        2
 70
   128
 43
0.0
 10
-18.84846623632647
 20
15.35452590022269
 10
-18.84846623632647
 20
16.35452590022269
  0
LWPOLYLINE
  5
19F
330
A
100
AcDbEntity
  8
ADPDIM
  6
CONTINUOUS
 62
     3
 48
0.125
100
AcDbPolyline
 90
        2
 70
   128
 43
0.0
 10
-21.85555465873295
 20
16.37464808271864
 10
-21.85555465873295
 20
16.7967025533939
  0
LWPOLYLINE
  5
1A3
330
A
100
AcDbEntity
  8
ADPDIM
  6
CONTINUOUS
 62
     3
 48
0.125
100
AcDbPolyline
 90
        2
 70
   128
 43
0.0
 10
-18.84846623632647
 20
16.41702590022269
 10
-18.84846623632647
 20
16.7967025533939
  0
LWPOLYLINE
  5
1A7
330
A
100
AcDbEntity
  8
ADPDIM
  6
CONTINUOUS
 62
     3
 48
0.125
100
AcDbPolyline
 90
        2
 70
   128
 43
0.0
 10
-21.85555465873295
 20
16.6167025533939
 10
-20.51867711419638
 20
16.6167025533939
  0
LWPOLYLINE
  5
1AB
330
A
100
AcDbEntity
  8
ADPDIM
  6
CONTINUOUS
 62
     3
 48
0.125
100
AcDbPolyline
 90
        2
 70
   128
 43
0.0
 10
-18.84846623632647
 20
16.6167025533939
 10
-20.18534378086304
 20
16.6167025533939
  0
LWPOLYLINE
  5
1AF
330
A
100
AcDbEntity
  8
ADPDIM
  6
CONTINUOUS
 62
     3
 48
0.125
100
AcDbPolyline
 90
        2
 70
   128
 43
0.0
 10
-21.98055465873296
 20
16.4917025533939
 10
-21.73055465873296
 20
16.74170255339389
  0
LWPOLYLINE
  5
1B3
330
A
100
AcDbEntity
  8
ADPDIM
  6
CONTINUOUS
 62
     3
 48
0.125
100
AcDbPolyline
 90
        2
 70
   128
 43
0.0
 10
-18.97346623632646
 20
16.4917025533939
 10
-18.72346623632647
 20
16.74170255339389
  0
TEXT
  5
1B7
330
A
100
AcDbEntity
  8
ADPDIM
 62
     3
 48
0.0
100
AcDbText
 10
-20.39367711419638
 20
16.55420255339389
 30
0.0
 40
0.125
  1
3
 72
     5
 11
-20.31034378086304
 21
16.55420255339389
 31
0.0
100
AcDbText
  0
LWPOLYLINE
  5
1B8
330
A
100
AcDbEntity
  8
ADPDIM
  6
CONTINUOUS
 62
     3
 48
0.125
100
AcDbPolyline
 90
        2
 70
   128
 43
0.0
 10
-22.52536827194987
 20
16.10452590022269
 10
-22.89422851173813
 20
16.10452590022269
  0
LWPOLYLINE
  5
1BC
330
A
100
AcDbEntity
  8
ADPDIM
  6
CONTINUOUS
 62
     3
 48
0.125
100
AcDbPolyline
 90
        2
 70
   128
 43
0.0
 10
-22.50536827194987
 20
15.60452590022269
 10
-22.89422851173813
 20
15.60452590022269
  0
LWPOLYLINE
  5
1C0
330
A
100
AcDbEntity
  8
ADPDIM
  6
CONTINUOUS
 62
     3
 48
0.125
100
AcDbPolyline
 90
        2
 70
   128
 43
0.0
 10
-22.71422851173813
 20
16.10452590022269
 10
-22.71422851173813
 20
16.35452590022269
  0
LWPOLYLINE
  5
1C4
330
A
100
AcDbEntity
  8
ADPDIM
  6
CONTINUOUS
 62
     3
 48
0.125
100
AcDbPolyline
 90
        2
 70
   128
 43
0.0
 10
-22.71422851173813
 20
15.60452590022269
 10
-22.71422851173813
 20
15.35452590022269
  0
LWPOLYLINE
  5
1C8
330
A
100
AcDbEntity
  8
ADPDIM
  6
CONTINUOUS
 62
     3
 48
0.125
100
AcDbPolyline
 90
        2
 70
   128
 43
0.0
 10
-22.58922851173813
 20
15.97952590022269
 10
-22.83922851173813
 20
16.22952590022269
  0
LWPOLYLINE
  5
1CC
330
A
100
AcDbEntity
  8
ADPDIM
  6
CONTINUOUS
 62
     3
 48
0.125
100
AcDbPolyline
 90
        2
 70
   128
 43
0.0
 10
-22.58922851173813
 20
15.47952590022269
 10
-22.83922851173813
 20
15.72952590022269
  0
TEXT
  5
1D0
330
A
100
AcDbEntity
  8
ADPDIM
 62
     3
 48
0.0
100
AcDbText
 10
-22.65172851173813
 20
14.93785923355602
 30
0.0
 40
0.125
  1
1/2
 50
90.0
 72
     5
 11
-22.65172851173813
 21
15.22952590022269
 31
0.0
100
AcDbText
  0
LWPOLYLINE
  5
1D1
330
A
100
AcDbEntity
  8
ADPDIM
  6
CONTINUOUS
 62
     3
 48
0.125
100
AcDbPolyline
 90
        2
 70
   128
 43
0.0
 10
-21.8562016052832
 20
16.41702590022269
 10
-21.8562016052832
 20
16.79412542595519
  0
LWPOLYLINE
  5
1D5
330
A
100
AcDbEntity
  8
ADPDIM
  6
CONTINUOUS
 62
     3
 48
0.125
100
AcDbPolyline
 90
        2
 70
   128
 43
0.0
 10
-22.48286827194987
 20
16.10702590022269
 10
-22.48286827194987
 20
16.79412542595519
  0
LWPOLYLINE
  5
1D9
330
A
100
AcDbEntity
  8
ADPDIM
  6
CONTINUOUS
 62
     3
 48
0.125
100
AcDbPolyline
 90
        2
 70
   128
 43
0.0
 10
-21.8562016052832
 20
16.61412542595519
 10
-21.60620160528321
 20
16.61412542595519
  0
LWPOLYLINE
  5
1DD
330
A
100
AcDbEntity
  8
ADPDIM
  6
CONTINUOUS
 62
     3
 48
0.125
100
AcDbPolyline
 90
        2
 70
   128
 43
0.0
 10
-22.48286827194987
 20
16.61412542595519
 10
-22.73286827194987
 20
16.61412542595519
  0
LWPOLYLINE
  5
1E1
330
A
100
AcDbEntity
  8
ADPDIM
  6
CONTINUOUS
 62
     3
 48
0.125
100
AcDbPolyline
 90
        2
 70
   128
 43
0.0
 10
-21.98120160528321
 20
16.48912542595519
 10
-21.73120160528321
 20
16.73912542595519
  0
LWPOLYLINE
  5
1E5
330
A
100
AcDbEntity
  8
ADPDIM
  6
CONTINUOUS
 62
     3
 48
0.125
100
AcDbPolyline
 90
        2
 70
   128
 43
0.0
 10
-22.60786827194987
 20
16.48912542595519
 10
-22.35786827194987
 20
16.73912542595519
  0
TEXT
  5
1E9
330
A
100
AcDbEntity
  8
ADPDIM
 62
     3
 48
0.0
100
AcDbText
 10
-23.19120160528321
 20
16.55162542595519
 30
0.0
 40
0.125
  1
5/8
 72
     5
 11
-22.85786827194987
 21
16.55162542595519
 31
0.0
100
AcDbText
  0
LWPOLYLINE
  5
1EA
330
A
100
AcDbEntity
  8
ADPDIM
  6
CONTINUOUS
 62
     3
 48
0.125
100
AcDbPolyline
 90
        2
 70
   128
 43
0.0
 10
-18.79370160528321
 20
15.60452590022269
 10
-18.44757692000633
 20
15.60452590022269
  0
LWPOLYLINE
  5
1EE
330
A
100
AcDbEntity
  8
ADPDIM
  6
CONTINUOUS
 62
     3
 48
0.125
100
AcDbPolyline
 90
        2
 70
   128
 43
0.0
 10
-18.79370160528321
 20
16.10452590022269
 10
-18.44757692000633
 20
16.10452590022269
  0
LWPOLYLINE
  5
1F2
330
A
100
AcDbEntity
  8
ADPDIM
  6
CONTINUOUS
 62
     3
 48
0.125
100
AcDbPolyline
 90
        2
 70
   128
 43
0.0
 10
-18.62757692000633
 20
15.60452590022269
 10
-18.62757692000633
 20
15.35452590022269
  0
LWPOLYLINE
  5
1F6
330
A
100
AcDbEntity
  8
ADPDIM
  6
CONTINUOUS
 62
     3
 48
0.125
100
AcDbPolyline
 90
        2
 70
   128
 43
0.0
 10
-18.62757692000633
 20
16.10452590022269
 10
-18.62757692000633
 20
16.35452590022269
  0
LWPOLYLINE
  5
1FA
330
A
100
AcDbEntity
  8
ADPDIM
  6
CONTINUOUS
 62
     3
 48
0.125
100
AcDbPolyline
 90
        2
 70
   128
 43
0.0
 10
-18.50257692000633
 20
15.47952590022269
 10
-18.75257692000633
 20
15.72952590022269
  0
LWPOLYLINE
  5
1FE
330
A
100
AcDbEntity
  8
ADPDIM
  6
CONTINUOUS
 62
     3
 48
0.125
100
AcDbPolyline
 90
        2
 70
   128
 43
0.0
 10
-18.50257692000633
 20
15.97952590022269
 10
-18.75257692000633
 20
16.22952590022269
  0
TEXT
  5
202
330
A
100
AcDbEntity
  8
ADPDIM
 62
     3
 48
0.0
100
AcDbText
 10
-18.56507692000633
 20
16.47952590022269
 30
0.0
 40
0.125
  1
1/2
 50
90.0
 72
     5
 11
-18.56507692000633
 21
16.77119256688935
 31
0.0
100
AcDbText
  0
LWPOLYLINE
  5
203
330
A
100
AcDbEntity
  8
ADPDIM
  6
CONTINUOUS
 62
     3
 48
0.125
100
AcDbPolyline
 90
        2
 70
   128
 43
0.0
 10
-18.78596623632646
 20
15.35452590022269
 10
-18.06594407616826
 20
15.35452590022269
  0
LWPOLYLINE
  5
207
330
A
100
AcDbEntity
  8
ADPDIM
  6
CONTINUOUS
 62
     3
 48
0.125
100
AcDbPolyline
 90
        2
 70
   128
 43
0.0
 10
-18.78596623632646
 20
16.35452590022269
 10
-18.06594407616826
 20
16.35452590022269
  0
LWPOLYLINE
  5
20B
330
A
100
AcDbEntity
  8
ADPDIM
  6
CONTINUOUS
 62
     3
 48
0.125
100
AcDbPolyline
 90
        2
 70
   128
 43
0.0
 10
-18.24594407616826
 20
15.35452590022269
 10
-18.24594407616826
 20
15.70869256688936
  0
LWPOLYLINE
  5
20F
330
A
100
AcDbEntity
  8
ADPDIM
  6
CONTINUOUS
 62
     3
 48
0.125
100
AcDbPolyline
 90
        2
 70
   128
 43
0.0
 10
-18.24594407616826
 20
16.35452590022269
 10
-18.24594407616826
 20
16.00035923355602
  0
LWPOLYLINE
  5
213
330
A
100
AcDbEntity
  8
ADPDIM
  6
CONTINUOUS
 62
     3
 48
0.125
100
AcDbPolyline
 90
        2
 70
   128
 43
0.0
 10
-18.12094407616826
 20
15.22952590022269
 10
-18.37094407616826
 20
15.47952590022269
  0
LWPOLYLINE
  5
217
330
A
100
AcDbEntity
  8
ADPDIM
  6
CONTINUOUS
 62
     3
 48
0.125
100
AcDbPolyline
 90
        2
 70
   128
 43
0.0
 10
-18.12094407616826
 20
16.22952590022269
 10
-18.37094407616826
 20
16.47952590022269
  0
TEXT
  5
21B
330
A
100
AcDbEntity
  8
ADPDIM
 62
     3
 48
0.0
100
AcDbText
 10
-18.18344407616826
 20
15.83369256688936
 30
0.0
 40
0.125
  1
1
 50
90.0
 72
     5
 11
-18.18344407616826
 21
15.87535923355603
 31
0.0
100
AcDbText
  0
LWPOLYLINE
  5
21C
330
A
100
AcDbEntity
  8
ADP1DETAIL
  6
CONTINUOUS
 62
     7
100
AcDbPolyline
 90
        2
 70
   128
 43
0.0
 10
-21.8562016052832
 20
16.35452590022269
 10
-21.8562016052832
 20
16.09052714509268
  0
LWPOLYLINE
  5
220
330
A
100
AcDbEntity
  8
ADP1DETAIL
  6
CONTINUOUS
 62
     7
100
AcDbPolyline
 90
        2
 70
   128
 43
0.0
 10
-21.85754705101577
 20
16.09673076570151
 10
-21.8562016052832
 20
15.35452590022269
  0
LWPOLYLINE
  5
224
330
A
100
AcDbEntity
  8
ADP1DETAIL
  6
CONTINUOUS
 62
     7
100
AcDbPolyline
 90
        2
 70
   128
 43
0.0
 10
-21.9110077735996
 20
16.10918367627911
 10
-21.82434110693294
 20
15.60918367627911
  0
LWPOLYLINE
  5
228
330
A
100
AcDbEntity
  8
ADP1DETAIL
  6
CONTINUOUS
 62
     7
100
AcDbPolyline
 90
        2
 70
   128
 43
0.0
 10
-21.9310077735996
 20
16.04918367627911
 10
-21.86434110693294
 20
15.67585034294577
  0
LWPOLYLINE
  5
22C
330
A
100
AcDbEntity
  8
ADP1DETAIL
  6
CONTINUOUS
 62
     7
100
AcDbPolyline
 90
        2
 70
   128
 43
0.0
 10
-21.9710077735996
 20
16.10918367627911
 10
-21.8910077735996
 20
15.60918367627911
  0
LWPOLYLINE
  5
230
330
A
100
AcDbEntity
  8
ADP1DETAIL
  6
CONTINUOUS
 62
     7
100
AcDbPolyline
 90
        2
 70
   128
 43
0.0
 10
-21.9910077735996
 20
16.04918367627911
 10
-21.9310077735996
 20
15.67585034294577
  0
LWPOLYLINE
  5
234
330
A
100
AcDbEntity
  8
ADP1DETAIL
  6
CONTINUOUS
 62
     7
100
AcDbPolyline
 90
        2
 70
   128
 43
0.0
 10
-21.84917769084898
 20
16.11056555739797
 10
-21.76917769084897
 20
15.61056555739797
  0
LWPOLYLINE
  5
238
330
A
100
AcDbEntity
  8
ADP1DETAIL
  6
CONTINUOUS
 62
     7
100
AcDbPolyline
 90
        2
 70
   128
 43
0.0
 10
-21.8910077735996
 20
15.60918367627911
 10
-21.86434110693294
 20
15.67585034294577
  0
LWPOLYLINE
  5
23C
330
A
100
AcDbEntity
  8
ADP1DETAIL
  6
CONTINUOUS
 62
     7
100
AcDbPolyline
 90
        2
 70
   128
 43
0.0
 10
-21.9310077735996
 20
15.67585034294577
 10
-21.8910077735996
 20
15.60918367627911
  0
LWPOLYLINE
  5
240
330
A
100
AcDbEntity
  8
ADP1DETAIL
  6
CONTINUOUS
 62
     7
100
AcDbPolyline
 90
        2
 70
   128
 43
0.0
 10
-21.9510077735996
 20
15.60918367627911
 10
-21.9310077735996
 20
15.67585034294577
  0
LWPOLYLINE
  5
244
330
A
100
AcDbEntity
  8
ADP1DETAIL
  6
CONTINUOUS
 62
     7
100
AcDbPolyline
 90
        2
 70
   128
 43
0.0
 10
-21.86503204749237
 20
15.68137786742125
 10
-21.82503204749237
 20
15.61471120075458
  0
LWPOLYLINE
  5
248
330
A
100
AcDbEntity
  8
ADP1DETAIL
  6
CONTINUOUS
 62
     7
100
AcDbPolyline
 90
        2
 70
   128
 43
0.0
 10
-21.84503204749237
 20
16.11471120075458
 10
-21.87169871415904
 20
16.05471120075459
  0
LWPOLYLINE
  5
24C
330
A
100
AcDbEntity
  8
ADP1DETAIL
  6
CONTINUOUS
 62
     7
100
AcDbPolyline
 90
        2
 70
   128
 43
0.0
 10
-21.8710077735996
 20
16.04918367627911
 10
-21.9110077735996
 20
16.10918367627911
  0
LWPOLYLINE
  5
250
330
A
100
AcDbEntity
  8
ADP1DETAIL
  6
CONTINUOUS
 62
     7
100
AcDbPolyline
 90
        2
 70
   128
 43
0.0
 10
-21.9110077735996
 20
16.10918367627911
 10
-21.9310077735996
 20
16.04918367627911
  0
LWPOLYLINE
  5
254
330
A
100
AcDbEntity
  8
ADP1DETAIL
  6
CONTINUOUS
 62
     7
100
AcDbPolyline
 90
        2
 70
   128
 43
0.0
 10
-21.9310077735996
 20
16.04918367627911
 10
-21.9710077735996
 20
16.10918367627911
  0
LWPOLYLINE
  5
258
330
A
100
AcDbEntity
  8
ADP1DETAIL
  6
CONTINUOUS
 62
     7
100
AcDbPolyline
 90
        2
 70
   128
 43
0.0
 10
-21.9710077735996
 20
16.10918367627911
 10
-21.9910077735996
 20
16.04918367627911
  0
LWPOLYLINE
  5
25C
330
A
100
AcDbEntity
  8
ADP1DETAIL
  6
CONTINUOUS
 62
     7
100
AcDbPolyline
 90
        2
 70
   128
 43
0.0
 10
-21.80917769084897
 20
16.05056555739798
 10
-21.84917769084898
 20
16.11056555739797
  0
LWPOLYLINE
  5
260
330
A
100
AcDbEntity
  8
ADP1DETAIL
  6
CONTINUOUS
 62
     7
100
AcDbPolyline
 90
        2
 70
   128
 43
0.0
 10
-21.71763753199436
 20
16.11056555739797
 10
-21.63097086532769
 20
15.61056555739797
  0
LWPOLYLINE
  5
264
330
A
100
AcDbEntity
  8
ADP1DETAIL
  6
CONTINUOUS
 62
     7
100
AcDbPolyline
 90
        2
 70
   128
 43
0.0
 10
-21.77763753199435
 20
16.11056555739797
 10
-21.69763753199436
 20
15.61056555739797
  0
LWPOLYLINE
  5
268
330
A
100
AcDbEntity
  8
ADP1DETAIL
  6
CONTINUOUS
 62
     7
100
AcDbPolyline
 90
        2
 70
   128
 43
0.0
 10
-21.65097086532769
 20
16.11056555739797
 10
-21.57097086532769
 20
15.61056555739797
  0
LWPOLYLINE
  5
26C
330
A
100
AcDbEntity
  8
ADP1DETAIL
  6
CONTINUOUS
 62
     7
100
AcDbPolyline
 90
        2
 70
   128
 43
0.0
 10
-21.65097086532769
 20
16.11056555739797
 10
-21.67763753199436
 20
16.05056555739798
  0
LWPOLYLINE
  5
270
330
A
100
AcDbEntity
  8
ADP1DETAIL
  6
CONTINUOUS
 62
     7
100
AcDbPolyline
 90
        2
 70
   128
 43
0.0
 10
-21.67763753199436
 20
16.05056555739798
 10
-21.71763753199436
 20
16.11056555739797
  0
LWPOLYLINE
  5
274
330
A
100
AcDbEntity
  8
ADP1DETAIL
  6
CONTINUOUS
 62
     7
100
AcDbPolyline
 90
        2
 70
   128
 43
0.0
 10
-21.71763753199436
 20
16.11056555739797
 10
-21.73763753199435
 20
16.05056555739798
  0
LWPOLYLINE
  5
278
330
A
100
AcDbEntity
  8
ADP1DETAIL
  6
CONTINUOUS
 62
     7
100
AcDbPolyline
 90
        2
 70
   128
 43
0.0
 10
-21.73763753199435
 20
16.05056555739798
 10
-21.77763753199435
 20
16.11056555739797
  0
LWPOLYLINE
  5
27C
330
A
100
AcDbEntity
  8
ADP1DETAIL
  6
CONTINUOUS
 62
     7
100
AcDbPolyline
 90
        2
 70
   128
 43
0.0
 10
-21.77763753199435
 20
16.11056555739797
 10
-21.79763753199436
 20
16.05056555739798
  0
LWPOLYLINE
  5
280
330
A
100
AcDbEntity
  8
ADP1DETAIL
  6
CONTINUOUS
 62
     7
100
AcDbPolyline
 90
        2
 70
   128
 43
0.0
 10
-21.61097086532769
 20
16.05056555739798
 10
-21.65097086532769
 20
16.11056555739797
  0
LWPOLYLINE
  5
284
330
A
100
AcDbEntity
  8
ADP1DETAIL
  6
CONTINUOUS
 62
     7
100
AcDbPolyline
 90
        2
 70
   128
 43
0.0
 10
-21.86917769084898
 20
16.05056555739798
 10
-21.80917769084897
 20
15.67723222406464
  0
LWPOLYLINE
  5
288
330
A
100
AcDbEntity
  8
ADP1DETAIL
  6
CONTINUOUS
 62
     7
100
AcDbPolyline
 90
        2
 70
   128
 43
0.0
 10
-21.82917769084898
 20
15.61056555739797
 10
-21.80917769084897
 20
15.67723222406464
  0
LWPOLYLINE
  5
28C
330
A
100
AcDbEntity
  8
ADP1DETAIL
  6
CONTINUOUS
 62
     7
100
AcDbPolyline
 90
        2
 70
   128
 43
0.0
 10
-21.80917769084897
 20
15.67723222406464
 10
-21.76917769084897
 20
15.61056555739797
  0
LWPOLYLINE
  5
290
330
A
100
AcDbEntity
  8
ADP1DETAIL
  6
CONTINUOUS
 62
     7
100
AcDbPolyline
 90
        2
 70
   128
 43
0.0
 10
-21.80251102418231
 20
16.05056555739798
 10
-21.74251102418231
 20
15.67723222406464
  0
LWPOLYLINE
  5
294
330
A
100
AcDbEntity
  8
ADP1DETAIL
  6
CONTINUOUS
 62
     7
100
AcDbPolyline
 90
        2
 70
   128
 43
0.0
 10
-21.76917769084897
 20
15.61056555739797
 10
-21.74251102418231
 20
15.67723222406464
  0
LWPOLYLINE
  5
298
330
A
100
AcDbEntity
  8
ADP1DETAIL
  6
CONTINUOUS
 62
     7
100
AcDbPolyline
 90
        2
 70
   128
 43
0.0
 10
-21.74251102418231
 20
15.67723222406464
 10
-21.74917769084898
 20
15.67723222406464
  0
LWPOLYLINE
  5
29C
330
A
100
AcDbEntity
  8
ADP1DETAIL
  6
CONTINUOUS
 62
     7
100
AcDbPolyline
 90
        2
 70
   128
 43
0.0
 10
-21.73763753199435
 20
16.05056555739798
 10
-21.67097086532769
 20
15.67723222406464
  0
LWPOLYLINE
  5
2A0
330
A
100
AcDbEntity
  8
ADP1DETAIL
  6
CONTINUOUS
 62
     7
100
AcDbPolyline
 90
        2
 70
   128
 43
0.0
 10
-21.67097086532769
 20
16.05056555739798
 10
-21.61097086532769
 20
15.67723222406464
  0
LWPOLYLINE
  5
2A4
330
A
100
AcDbEntity
  8
ADP1DETAIL
  6
CONTINUOUS
 62
     7
100
AcDbPolyline
 90
        2
 70
   128
 43
0.0
 10
-21.60430419866102
 20
16.05056555739798
 10
-21.54430419866102
 20
15.67723222406464
  0
LWPOLYLINE
  5
2A8
330
A
100
AcDbEntity
  8
ADP1DETAIL
  6
CONTINUOUS
 62
     7
100
AcDbPolyline
 90
        2
 70
   128
 43
0.0
 10
-21.57097086532769
 20
15.61056555739797
 10
-21.54430419866102
 20
15.67723222406464
  0
LWPOLYLINE
  5
2AC
330
A
100
AcDbEntity
  8
ADP1DETAIL
  6
CONTINUOUS
 62
     7
100
AcDbPolyline
 90
        2
 70
   128
 43
0.0
 10
-21.54430419866102
 20
15.67723222406464
 10
-21.55097086532769
 20
15.67723222406464
  0
LWPOLYLINE
  5
2B0
330
A
100
AcDbEntity
  8
ADP1DETAIL
  6
CONTINUOUS
 62
     7
100
AcDbPolyline
 90
        2
 70
   128
 43
0.0
 10
-21.69763753199436
 20
15.61056555739797
 10
-21.67097086532769
 20
15.67723222406464
  0
LWPOLYLINE
  5
2B4
330
A
100
AcDbEntity
  8
ADP1DETAIL
  6
CONTINUOUS
 62
     7
100
AcDbPolyline
 90
        2
 70
   128
 43
0.0
 10
-21.73763753199435
 20
15.67723222406464
 10
-21.69763753199436
 20
15.61056555739797
  0
LWPOLYLINE
  5
2B8
330
A
100
AcDbEntity
  8
ADP1DETAIL
  6
CONTINUOUS
 62
     7
100
AcDbPolyline
 90
        2
 70
   128
 43
0.0
 10
-21.67097086532769
 20
15.67723222406464
 10
-21.63097086532769
 20
15.61056555739797
  0
LWPOLYLINE
  5
2BC
330
A
100
AcDbEntity
  8
ADP1DETAIL
  6
CONTINUOUS
 62
     7
100
AcDbPolyline
 90
        2
 70
   128
 43
0.0
 10
-21.63097086532769
 20
15.61056555739797
 10
-21.61097086532769
 20
15.67723222406464
  0
LWPOLYLINE
  5
2C0
330
A
100
AcDbEntity
  8
ADP1DETAIL
  6
CONTINUOUS
 62
     7
100
AcDbPolyline
 90
        2
 70
   128
 43
0.0
 10
-21.61097086532769
 20
15.67723222406464
 10
-21.57097086532769
 20
15.61056555739797
  0
LWPOLYLINE
  5
2C4
330
A
100
AcDbEntity
  8
DEFPOINTS
  6
CONTINUOUS
 62
     3
 48
0.125
100
AcDbPolyline
 90
        2
 70
   128
 43
0.0
 10
-21.85555465873295
 20
16.31214808271864
 10
-21.85555465873295
 20
16.31214808271864
  0
LWPOLYLINE
  5
2C8
330
A
100
AcDbEntity
  8
DEFPOINTS
  6
CONTINUOUS
 62
     3
 48
0.125
100
AcDbPolyline
 90
        2
 70
   128
 43
0.0
 10
-21.85555465873295
 20
16.31214808271864
 10
-21.85555465873295
 20
16.31214808271864
  0
LWPOLYLINE
  5
2CC
330
A
100
AcDbEntity
  8
DEFPOINTS
  6
CONTINUOUS
 62
     3
 48
0.125
100
AcDbPolyline
 90
        2
 70
   128
 43
0.0
 10
-18.84846623632647
 20
16.35452590022269
 10
-18.84846623632647
 20
16.35452590022269
  0
LWPOLYLINE
  5
2D0
330
A
100
AcDbEntity
  8
DEFPOINTS
  6
CONTINUOUS
 62
     3
 48
0.125
100
AcDbPolyline
 90
        2
 70
   128
 43
0.0
 10
-18.84846623632647
 20
16.35452590022269
 10
-18.84846623632647
 20
16.35452590022269
  0
LWPOLYLINE
  5
2D4
330
A
100
AcDbEntity
  8
DEFPOINTS
  6
CONTINUOUS
 62
     3
 48
0.125
100
AcDbPolyline
 90
        2
 70
   128
 43
0.0
 10
-18.84846623632647
 20
16.6167025533939
 10
-18.84846623632647
 20
16.6167025533939
  0
LWPOLYLINE
  5
2D8
330
A
100
AcDbEntity
  8
DEFPOINTS
  6
CONTINUOUS
 62
     3
 48
0.125
100
AcDbPolyline
 90
        2
 70
   128
 43
0.0
 10
-18.84846623632647
 20
16.6167025533939
 10
-18.84846623632647
 20
16.6167025533939
  0
LWPOLYLINE
  5
2DC
330
A
100
AcDbEntity
  8
DEFPOINTS
  6
CONTINUOUS
 62
     3
 48
0.125
100
AcDbPolyline
 90
        2
 70
   128
 43
0.0
 10
-22.46286827194987
 20
16.10452590022269
 10
-22.46286827194987
 20
16.10452590022269
  0
LWPOLYLINE
  5
2E0
330
A
100
AcDbEntity
  8
DEFPOINTS
  6
CONTINUOUS
 62
     3
 48
0.125
100
AcDbPolyline
 90
        2
 70
   128
 43
0.0
 10
-22.46286827194987
 20
16.10452590022269
 10
-22.46286827194987
 20
16.10452590022269
  0
LWPOLYLINE
  5
2E4
330
A
100
AcDbEntity
  8
DEFPOINTS
  6
CONTINUOUS
 62
     3
 48
0.125
100
AcDbPolyline
 90
        2
 70
   128
 43
0.0
 10
-22.44286827194987
 20
15.60452590022269
 10
-22.44286827194987
 20
15.60452590022269
  0
LWPOLYLINE
  5
2E8
330
A
100
AcDbEntity
  8
DEFPOINTS
  6
CONTINUOUS
 62
     3
 48
0.125
100
AcDbPolyline
 90
        2
 70
   128
 43
0.0
 10
-22.44286827194987
 20
15.60452590022269
 10
-22.44286827194987
 20
15.60452590022269
  0
LWPOLYLINE
  5
2EC
330
A
100
AcDbEntity
  8
DEFPOINTS
  6
CONTINUOUS
 62
     3
 48
0.125
100
AcDbPolyline
 90
        2
 70
   128
 43
0.0
 10
-22.71422851173813
 20
15.60452590022269
 10
-22.71422851173813
 20
15.60452590022269
  0
LWPOLYLINE
  5
2F0
330
A
100
AcDbEntity
  8
DEFPOINTS
  6
CONTINUOUS
 62
     3
 48
0.125
100
AcDbPolyline
 90
        2
 70
   128
 43
0.0
 10
-22.71422851173813
 20
15.60452590022269
 10
-22.71422851173813
 20
15.60452590022269
  0
LWPOLYLINE
  5
2F4
330
A
100
AcDbEntity
  8
DEFPOINTS
  6
CONTINUOUS
 62
     3
 48
0.125
100
AcDbPolyline
 90
        2
 70
   128
 43
0.0
 10
-21.8562016052832
 20
16.35452590022269
 10
-21.8562016052832
 20
16.35452590022269
  0
LWPOLYLINE
  5
2F8
330
A
100
AcDbEntity
  8
DEFPOINTS
  6
CONTINUOUS
 62
     3
 48
0.125
100
AcDbPolyline
 90
        2
 70
   128
 43
0.0
 10
-21.8562016052832
 20
16.35452590022269
 10
-21.8562016052832
 20
16.35452590022269
  0
LWPOLYLINE
  5
2FC
330
A
100
AcDbEntity
  8
DEFPOINTS
  6
CONTINUOUS
 62
     3
 48
0.125
100
AcDbPolyline
 90
        2
 70
   128
 43
0.0
 10
-22.48286827194987
 20
16.04452590022269
 10
-22.48286827194987
 20
16.04452590022269
  0
LWPOLYLINE
  5
300
330
A
100
AcDbEntity
  8
DEFPOINTS
  6
CONTINUOUS
 62
     3
 48
0.125
100
AcDbPolyline
 90
        2
 70
   128
 43
0.0
 10
-22.48286827194987
 20
16.04452590022269
 10
-22.48286827194987
 20
16.04452590022269
  0
LWPOLYLINE
  5
304
330
A
100
AcDbEntity
  8
DEFPOINTS
  6
CONTINUOUS
 62
     3
 48
0.125
100
AcDbPolyline
 90
        2
 70
   128
 43
0.0
 10
-22.48286827194987
 20
16.61412542595519
 10
-22.48286827194987
 20
16.61412542595519
  0
LWPOLYLINE
  5
308
330
A
100
AcDbEntity
  8
DEFPOINTS
  6
CONTINUOUS
 62
     3
 48
0.125
100
AcDbPolyline
 90
        2
 70
   128
 43
0.0
 10
-22.48286827194987
 20
16.61412542595519
 10
-22.48286827194987
 20
16.61412542595519
  0
LWPOLYLINE
  5
30C
330
A
100
AcDbEntity
  8
DEFPOINTS
  6
CONTINUOUS
 62
     3
 48
0.125
100
AcDbPolyline
 90
        2
 70
   128
 43
0.0
 10
-18.85620160528321
 20
15.60452590022269
 10
-18.85620160528321
 20
15.60452590022269
  0
LWPOLYLINE
  5
310
330
A
100
AcDbEntity
  8
DEFPOINTS
  6
CONTINUOUS
 62
     3
 48
0.125
100
AcDbPolyline
 90
        2
 70
   128
 43
0.0
 10
-18.85620160528321
 20
15.60452590022269
 10
-18.85620160528321
 20
15.60452590022269
  0
LWPOLYLINE
  5
314
330
A
100
AcDbEntity
  8
DEFPOINTS
  6
CONTINUOUS
 62
     3
 48
0.125
100
AcDbPolyline
 90
        2
 70
   128
 43
0.0
 10
-18.85620160528321
 20
16.10452590022269
 10
-18.85620160528321
 20
16.10452590022269
  0
LWPOLYLINE
  5
318
330
A
100
AcDbEntity
  8
DEFPOINTS
  6
CONTINUOUS
 62
     3
 48
0.125
100
AcDbPolyline
 90
        2
 70
   128
 43
0.0
 10
-18.85620160528321
 20
16.10452590022269
 10
-18.85620160528321
 20
16.10452590022269
  0
LWPOLYLINE
  5
31C
330
A
100
AcDbEntity
  8
DEFPOINTS
  6
CONTINUOUS
 62
     3
 48
0.125
100
AcDbPolyline
 90
        2
 70
   128
 43
0.0
 10
-18.62757692000632
 20
16.10452590022269
 10
-18.62757692000632
 20
16.10452590022269
  0
LWPOLYLINE
  5
320
330
A
100
AcDbEntity
  8
DEFPOINTS
  6
CONTINUOUS
 62
     3
 48
0.125
100
AcDbPolyline
 90
        2
 70
   128
 43
0.0
 10
-18.62757692000632
 20
16.10452590022269
 10
-18.62757692000632
 20
16.10452590022269
  0
LWPOLYLINE
  5
324
330
A
100
AcDbEntity
  8
DEFPOINTS
  6
CONTINUOUS
 62
     3
 48
0.125
100
AcDbPolyline
 90
        2
 70
   128
 43
0.0
 10
-18.84846623632647
 20
15.35452590022269
 10
-18.84846623632647
 20
15.35452590022269
  0
LWPOLYLINE
  5
328
330
A
100
AcDbEntity
  8
DEFPOINTS
  6
CONTINUOUS
 62
     3
 48
0.125
100
AcDbPolyline
 90
        2
 70
   128
 43
0.0
 10
-18.84846623632647
 20
15.35452590022269
 10
-18.84846623632647
 20
15.35452590022269
  0
LWPOLYLINE
  5
32C
330
A
100
AcDbEntity
  8
DEFPOINTS
  6
CONTINUOUS
 62
     3
 48
0.125
100
AcDbPolyline
 90
        2
 70
   128
 43
0.0
 10
-18.84846623632647
 20
16.35452590022269
 10
-18.84846623632647
 20
16.35452590022269
  0
LWPOLYLINE
  5
330
330
A
100
AcDbEntity
  8
DEFPOINTS
  6
CONTINUOUS
 62
     3
 48
0.125
100
AcDbPolyline
 90
        2
 70
   128
 43
0.0
 10
-18.84846623632647
 20
16.35452590022269
 10
-18.84846623632647
 20
16.35452590022269
  0
LWPOLYLINE
  5
334
330
A
100
AcDbEntity
  8
DEFPOINTS
  6
CONTINUOUS
 62
     3
 48
0.125
100
AcDbPolyline
 90
        2
 70
   128
 43
0.0
 10
-18.24594407616826
 20
16.35452590022269
 10
-18.24594407616826
 20
16.35452590022269
  0
LWPOLYLINE
  5
338
330
A
100
AcDbEntity
  8
DEFPOINTS
  6
CONTINUOUS
 62
     3
 48
0.125
100
AcDbPolyline
 90
        2
 70
   128
 43
0.0
 10
-18.24594407616826
 20
16.35452590022269
 10
-18.24594407616826
 20
16.35452590022269
  0
LWPOLYLINE
  5
33C
330
A
100
AcDbEntity
  8
ADP2DETAIL
  6
HIDDEN
 62
     5
100
AcDbPolyline
 90
        2
 70
   128
 43
0.0
 10
-21.14669230440334
 20
16.0198159402591
 10
-21.14669230440334
 20
15.64648260692576
  0
LWPOLYLINE
  5
340
330
A
100
AcDbEntity
  8
ADP2DETAIL
  6
HIDDEN
 62
     5
100
AcDbPolyline
 90
        2
 70
   128
 43
0.0
 10
-21.02669230440334
 20
16.0198159402591
 10
-21.02669230440334
 20
15.64648260692576
  0
LWPOLYLINE
  5
344
330
A
100
AcDbEntity
  8
ADP2DETAIL
  6
HIDDEN
 62
     5
100
AcDbPolyline
 90
        2
 70
   128
 43
0.0
 10
-21.39335897107001
 20
16.0198159402591
 10
-21.39335897107001
 20
15.64648260692576
  0
LWPOLYLINE
  5
348
330
A
100
AcDbEntity
  8
ADP2DETAIL
  6
HIDDEN
 62
     5
100
AcDbPolyline
 90
        2
 70
   128
 43
0.0
 10
-21.26669230440334
 20
16.0198159402591
 10
-21.26669230440334
 20
15.64648260692576
  0
LWPOLYLINE
  5
34C
330
A
100
AcDbEntity
  8
ADP2DETAIL
  6
HIDDEN
 62
     5
100
AcDbPolyline
 90
        2
 70
   128
 43
0.0
 10
-21.45335897107
 20
16.0798159402591
 10
-21.45335897107
 20
15.5798159402591
  0
LWPOLYLINE
  5
350
330
A
100
AcDbEntity
  8
ADP2DETAIL
  6
HIDDEN
 62
     5
100
AcDbPolyline
 90
        2
 70
   128
 43
0.0
 10
-21.33335897107
 20
16.0798159402591
 10
-21.33335897107
 20
15.5798159402591
  0
LWPOLYLINE
  5
354
330
A
100
AcDbEntity
  8
ADP2DETAIL
  6
HIDDEN
 62
     5
100
AcDbPolyline
 90
        2
 70
   128
 43
0.0
 10
-21.20669230440334
 20
16.0798159402591
 10
-21.20669230440334
 20
15.5798159402591
  0
LWPOLYLINE
  5
358
330
A
100
AcDbEntity
  8
ADP2DETAIL
  6
HIDDEN
 62
     5
100
AcDbPolyline
 90
        2
 70
   128
 43
0.0
 10
-21.08669230440334
 20
16.0798159402591
 10
-21.08669230440334
 20
15.5798159402591
  0
LWPOLYLINE
  5
35C
330
A
100
AcDbEntity
  8
ADP2DETAIL
  6
HIDDEN
 62
     5
100
AcDbPolyline
 90
        2
 70
   128
 43
0.0
 10
-20.95021899776094
 20
16.10864422688329
 10
-20.95021899776094
 20
15.60864422688329
  0
TEXT
  5
36D
330
A
100
AcDbEntity
  8
ADPDIM
100
AcDbText
 10
-25.17836457394263
 20
14.4278972778123
 30
0.0
 40
0.09375
  1
J U L I U S  B L U M  &  C O . ,  I N C .      ( 8 0 0 )  5 2 6 - 6 2 9 3        W W W . J U L I U S B L U M . C O M        P A R T  N o .  8 6 3
 41
1.25
  7
ARIAL_WIDE
 72
     1
 11
-20.35233392080483
 21
14.5216472778123
 31
0.0
100
AcDbText
 73
     3
  0
ENDSEC
  0
SECTION
  2
OBJECTS
  0
DICTIONARY
  5
19
330
0
100
AcDbDictionary
  3
ACAD_GROUP
350
1A
  3
ACAD_LAYOUT
350
365
  3
ACAD_MLINESTYLE
350
1B
  3
ACAD_PLOTSETTINGS
350
366
  3
ACAD_PLOTSTYLENAME
350
363
  3
ACDBHEADERROUNDTRIPXREC
350
4CD
  3
ACDBVARIABLEDICTIONARY
350
3CF
  0
DICTIONARY
  5
3C3
330
A
100
AcDbDictionary
280
     1
  3
ACAD_LAYOUTSELFREF
360
4ED
  0
DICTIONARY
  5
3C5
330
B
100
AcDbDictionary
280
     1
  3
ACAD_LAYOUTSELFREF
360
4EE
  0
DICTIONARY
  5
1A
102
{ACAD_REACTORS
330
19
102
}
330
19
100
AcDbDictionary
  0
DICTIONARY
  5
365
102
{ACAD_REACTORS
330
19
102
}
330
19
100
AcDbDictionary
  0
DICTIONARY
  5
1B
102
{ACAD_REACTORS
330
19
102
}
330
19
100
AcDbDictionary
  3
STANDARD
350
1C
  0
DICTIONARY
  5
366
102
{ACAD_REACTORS
330
19
102
}
330
19
100
AcDbDictionary
  0
ACDBDICTIONARYWDFLT
  5
363
102
{ACAD_REACTORS
330
19
102
}
330
19
100
AcDbDictionary
281
     1
  3
Normal
350
364
100
AcDbDictionaryWithDefault
340
364
  0
DICTIONARY
  5
4CD
102
{ACAD_REACTORS
330
19
102
}
330
19
100
AcDbDictionary
  3
CEPSNTYPE
350
4D7
  3
FINGERPRINTGUID
350
4D8
  3
HYPERLINKBASE
350
4D0
  3
INSUNITS
350
4D6
  3
LAYOUTDICT
350
4D2
  3
LWETCUNION
350
4D5
  3
PLOTSETDICT
350
4D3
  3
PLOTSTYLNAMDICT
350
4D4
  3
PSVPSCALE
350
4DA
  3
PUCSBASE
350
4DD
  3
PUCSORGBACK
350
4E3
  3
PUCSORGBOTTOM
350
4DF
  3
PUCSORGFRONT
350
4E2
  3
PUCSORGLEFT
350
4E0
  3
PUCSORGRIGHT
350
4E1
  3
PUCSORGTOP
350
4DE
  3
PUCSORTHOREF
350
4DB
  3
PUCSORTHOVIEW
350
4DC
  3
STYLESHEET
350
4D1
  3
TSTACKALIGN
350
4CE
  3
TSTACKSIZE
350
4CF
  3
UCSBASE
350
4E6
  3
UCSORGBACK
350
4EC
  3
UCSORGBOTTOM
350
4E8
  3
UCSORGFRONT
350
4EB
  3
UCSORGLEFT
350
4E9
  3
UCSORGRIGHT
350
4EA
  3
UCSORGTOP
350
4E7
  3
UCSORTHOREF
350
4E4
  3
UCSORTHOVIEW
350
4E5
  3
VERSIONGUID
350
4D9
  0
DICTIONARY
  5
3CF
102
{ACAD_REACTORS
330
19
102
}
330
19
100
AcDbDictionary
  3
DIMASSOC
350
3D0
  0
XRECORD
  5
4ED
102
{ACAD_REACTORS
330
3C3
102
}
330
3C3
100
AcDbXrecord
340
A
  0
XRECORD
  5
4EE
102
{ACAD_REACTORS
330
3C5
102
}
330
3C5
100
AcDbXrecord
340
B
  0
MLINESTYLE
  5
1C
102
{ACAD_REACTORS
330
1B
102
}
330
1B
100
AcDbMlineStyle
  2
STANDARD
 70
     0
  3

 62
     0
 51
90.00000000000019
 52
90.00000000000019
 71
     2
 49
0.5
 62
   256
  6
BYLAYER
 49
-0.5
 62
   256
  6
BYLAYER
  0
ACDBPLACEHOLDER
  5
364
102
{ACAD_REACTORS
330
363
102
}
330
363
100
AcDbPlaceHolder
280
     0
  0
XRECORD
  5
4D7
102
{ACAD_REACTORS
330
4CD
102
}
330
4CD
100
AcDbXrecord
 90
        0
  0
XRECORD
  5
4D8
102
{ACAD_REACTORS
330
4CD
102
}
330
4CD
100
AcDbXrecord
  1
{5AD99F23-9BA8-47C9-9CF5-9C5A4A66A61F}
  0
XRECORD
  5
4D0
102
{ACAD_REACTORS
330
4CD
102
}
330
4CD
100
AcDbXrecord
  1

  0
XRECORD
  5
4D6
102
{ACAD_REACTORS
330
4CD
102
}
330
4CD
100
AcDbXrecord
 90
        0
  0
XRECORD
  5
4D2
102
{ACAD_REACTORS
330
4CD
102
}
330
4CD
100
AcDbXrecord
340
365
  0
XRECORD
  5
4D5
102
{ACAD_REACTORS
330
4CD
102
}
330
4CD
100
AcDbXrecord
 90
    14877
  0
XRECORD
  5
4D3
102
{ACAD_REACTORS
330
4CD
102
}
330
4CD
100
AcDbXrecord
340
366
  0
XRECORD
  5
4D4
102
{ACAD_REACTORS
330
4CD
102
}
330
4CD
100
AcDbXrecord
340
363
  0
XRECORD
  5
4DA
102
{ACAD_REACTORS
330
4CD
102
}
330
4CD
100
AcDbXrecord
 40
0.0
  0
XRECORD
  5
4DD
102
{ACAD_REACTORS
330
4CD
102
}
330
4CD
100
AcDbXrecord
340
0
  0
XRECORD
  5
4E3
102
{ACAD_REACTORS
330
4CD
102
}
330
4CD
100
AcDbXrecord
 10
0.0
 20
0.0
 30
0.0
  0
XRECORD
  5
4DF
102
{ACAD_REACTORS
330
4CD
102
}
330
4CD
100
AcDbXrecord
 10
0.0
 20
0.0
 30
0.0
  0
XRECORD
  5
4E2
102
{ACAD_REACTORS
330
4CD
102
}
330
4CD
100
AcDbXrecord
 10
0.0
 20
0.0
 30
0.0
  0
XRECORD
  5
4E0
102
{ACAD_REACTORS
330
4CD
102
}
330
4CD
100
AcDbXrecord
 10
0.0
 20
0.0
 30
0.0
  0
XRECORD
  5
4E1
102
{ACAD_REACTORS
330
4CD
102
}
330
4CD
100
AcDbXrecord
 10
0.0
 20
0.0
 30
0.0
  0
XRECORD
  5
4DE
102
{ACAD_REACTORS
330
4CD
102
}
330
4CD
100
AcDbXrecord
 10
0.0
 20
0.0
 30
0.0
  0
XRECORD
  5
4DB
102
{ACAD_REACTORS
330
4CD
102
}
330
4CD
100
AcDbXrecord
340
0
  0
XRECORD
  5
4DC
102
{ACAD_REACTORS
330
4CD
102
}
330
4CD
100
AcDbXrecord
 70
     0
  0
XRECORD
  5
4D1
102
{ACAD_REACTORS
330
4CD
102
}
330
4CD
100
AcDbXrecord
  1

  0
XRECORD
  5
4CE
102
{ACAD_REACTORS
330
4CD
102
}
330
4CD
100
AcDbXrecord
 90
        1
  0
XRECORD
  5
4CF
102
{ACAD_REACTORS
330
4CD
102
}
330
4CD
100
AcDbXrecord
 90
       70
  0
XRECORD
  5
4E6
102
{ACAD_REACTORS
330
4CD
102
}
330
4CD
100
AcDbXrecord
340
0
  0
XRECORD
  5
4EC
102
{ACAD_REACTORS
330
4CD
102
}
330
4CD
100
AcDbXrecord
 10
0.0
 20
0.0
 30
0.0
  0
XRECORD
  5
4E8
102
{ACAD_REACTORS
330
4CD
102
}
330
4CD
100
AcDbXrecord
 10
0.0
 20
0.0
 30
0.0
  0
XRECORD
  5
4EB
102
{ACAD_REACTORS
330
4CD
102
}
330
4CD
100
AcDbXrecord
 10
0.0
 20
0.0
 30
0.0
  0
XRECORD
  5
4E9
102
{ACAD_REACTORS
330
4CD
102
}
330
4CD
100
AcDbXrecord
 10
0.0
 20
0.0
 30
0.0
  0
XRECORD
  5
4EA
102
{ACAD_REACTORS
330
4CD
102
}
330
4CD
100
AcDbXrecord
 10
0.0
 20
0.0
 30
0.0
  0
XRECORD
  5
4E7
102
{ACAD_REACTORS
330
4CD
102
}
330
4CD
100
AcDbXrecord
 10
0.0
 20
0.0
 30
0.0
  0
XRECORD
  5
4E4
102
{ACAD_REACTORS
330
4CD
102
}
330
4CD
100
AcDbXrecord
340
0
  0
XRECORD
  5
4E5
102
{ACAD_REACTORS
330
4CD
102
}
330
4CD
100
AcDbXrecord
 70
     0
  0
XRECORD
  5
4D9
102
{ACAD_REACTORS
330
4CD
102
}
330
4CD
100
AcDbXrecord
  1
{905ECD9A-9831-46F8-B087-F405AD9A450C}
  0
DICTIONARYVAR
  5
3D0
102
{ACAD_REACTORS
330
3CF
102
}
330
3CF
100
DictionaryVariables
280
     0
  1
1
  0
ENDSEC
  0
EOF
