  0
SECTION
  2
HEADER
  9
$ACADVER
  1
AC1014
  9
$ACADMAINTVER
 70
     9
  9
$DWGCODEPAGE
  3
ANSI_1252
  9
$INSBASE
 10
0.0
 20
0.0
 30
0.0
  9
$EXTMIN
 10
3.771969939783948
 20
3.556776638677115
 30
0.0
  9
$EXTMAX
 10
17.13880571741014
 20
6.946444628581324
 30
0.0
  9
$LIMMIN
 10
0.0
 20
0.0
  9
$LIMMAX
 10
0.0
 20
0.0
  9
$ORTHOMODE
 70
     1
  9
$REGENMODE
 70
     1
  9
$FILLMODE
 70
     1
  9
$QTEXTMODE
 70
     0
  9
$MIRRTEXT
 70
     1
  9
$DRAGMODE
 70
     0
  9
$LTSCALE
 40
1.0
  9
$OSMODE
 70
    37
  9
$ATTMODE
 70
     1
  9
$TEXTSIZE
 40
0.0
  9
$TRACEWID
 40
0.05
  9
$TEXTSTYLE
  7
STANDARD
  9
$CLAYER
  8
0
  9
$CELTYPE
  6
CONTINUOUS
  9
$CECOLOR
 62
   256
  9
$CELTSCALE
 40
1.0
  9
$DELOBJ
 70
     1
  9
$DISPSILH
 70
     0
  9
$DIMSCALE
 40
1.0
  9
$DIMASZ
 40
0.18
  9
$DIMEXO
 40
0.0625
  9
$DIMDLI
 40
0.38
  9
$DIMRND
 40
0.0
  9
$DIMDLE
 40
0.0
  9
$DIMEXE
 40
0.18
  9
$DIMTP
 40
0.0
  9
$DIMTM
 40
0.0
  9
$DIMTXT
 40
0.18
  9
$DIMCEN
 40
0.09
  9
$DIMTSZ
 40
0.0
  9
$DIMTOL
 70
     0
  9
$DIMLIM
 70
     0
  9
$DIMTIH
 70
     1
  9
$DIMTOH
 70
     1
  9
$DIMSE1
 70
     0
  9
$DIMSE2
 70
     0
  9
$DIMTAD
 70
     0
  9
$DIMZIN
 70
     0
  9
$DIMBLK
  1

  9
$DIMASO
 70
     1
  9
$DIMSHO
 70
     1
  9
$DIMPOST
  1

  9
$DIMAPOST
  1

  9
$DIMALT
 70
     0
  9
$DIMALTD
 70
     2
  9
$DIMALTF
 40
25.4
  9
$DIMLFAC
 40
1.0
  9
$DIMTOFL
 70
     0
  9
$DIMTVP
 40
0.0
  9
$DIMTIX
 70
     0
  9
$DIMSOXD
 70
     0
  9
$DIMSAH
 70
     0
  9
$DIMBLK1
  1

  9
$DIMBLK2
  1

  9
$DIMSTYLE
  2
STANDARD
  9
$DIMCLRD
 70
     0
  9
$DIMCLRE
 70
     0
  9
$DIMCLRT
 70
     0
  9
$DIMTFAC
 40
1.0
  9
$DIMGAP
 40
0.09
  9
$DIMJUST
 70
     0
  9
$DIMSD1
 70
     0
  9
$DIMSD2
 70
     0
  9
$DIMTOLJ
 70
     1
  9
$DIMTZIN
 70
     0
  9
$DIMALTZ
 70
     0
  9
$DIMALTTZ
 70
     0
  9
$DIMFIT
 70
     3
  9
$DIMUPT
 70
     0
  9
$DIMUNIT
 70
     2
  9
$DIMDEC
 70
     4
  9
$DIMTDEC
 70
     4
  9
$DIMALTU
 70
     2
  9
$DIMALTTD
 70
     2
  9
$DIMTXSTY
  7
STANDARD
  9
$DIMAUNIT
 70
     0
  9
$LUNITS
 70
     2
  9
$LUPREC
 70
     4
  9
$SKETCHINC
 40
0.1
  9
$FILLETRAD
 40
0.0
  9
$AUNITS
 70
     0
  9
$AUPREC
 70
     0
  9
$MENU
  1
acad
  9
$ELEVATION
 40
0.0
  9
$PELEVATION
 40
0.0
  9
$THICKNESS
 40
0.0
  9
$LIMCHECK
 70
     0
  9
$BLIPMODE
 70
     0
  9
$CHAMFERA
 40
0.0
  9
$CHAMFERB
 40
0.0
  9
$CHAMFERC
 40
0.0
  9
$CHAMFERD
 40
0.0
  9
$SKPOLY
 70
     0
  9
$TDCREATE
 40
2444971.791666666
  9
$TDUPDATE
 40
2452297.102974537
  9
$TDINDWG
 40
0.0617540046
  9
$TDUSRTIMER
 40
0.0617540046
  9
$USRTIMER
 70
     1
  9
$ANGBASE
 50
0.0
  9
$ANGDIR
 70
     0
  9
$PDMODE
 70
     0
  9
$PDSIZE
 40
0.0
  9
$PLINEWID
 40
0.0
  9
$COORDS
 70
     2
  9
$SPLFRAME
 70
     0
  9
$SPLINETYPE
 70
     6
  9
$SPLINESEGS
 70
     8
  9
$ATTDIA
 70
     0
  9
$ATTREQ
 70
     1
  9
$HANDLING
 70
 22529
  9
$HANDSEED
  5
2BA
  9
$SURFTAB1
 70
     6
  9
$SURFTAB2
 70
     6
  9
$SURFTYPE
 70
     6
  9
$SURFU
 70
     6
  9
$SURFV
 70
     6
  9
$UCSNAME
  2

  9
$UCSORG
 10
0.0
 20
0.0
 30
0.0
  9
$UCSXDIR
 10
1.0
 20
0.0
 30
0.0
  9
$UCSYDIR
 10
0.0
 20
1.0
 30
0.0
  9
$PUCSNAME
  2

  9
$PUCSORG
 10
0.0
 20
0.0
 30
0.0
  9
$PUCSXDIR
 10
1.0
 20
0.0
 30
0.0
  9
$PUCSYDIR
 10
0.0
 20
1.0
 30
0.0
  9
$USERI1
 70
     0
  9
$USERI2
 70
     0
  9
$USERI3
 70
     0
  9
$USERI4
 70
     0
  9
$USERI5
 70
     0
  9
$USERR1
 40
0.0
  9
$USERR2
 40
0.0
  9
$USERR3
 40
0.0
  9
$USERR4
 40
0.0
  9
$USERR5
 40
0.0
  9
$WORLDVIEW
 70
     1
  9
$SHADEDGE
 70
     3
  9
$SHADEDIF
 70
    70
  9
$TILEMODE
 70
     1
  9
$MAXACTVP
 70
    16
  9
$PINSBASE
 10
0.0
 20
0.0
 30
0.0
  9
$PLIMCHECK
 70
     0
  9
$PEXTMIN
 10
1.000000000000000E+20
 20
1.000000000000000E+20
 30
1.000000000000000E+20
  9
$PEXTMAX
 10
-1.000000000000000E+20
 20
-1.000000000000000E+20
 30
-1.000000000000000E+20
  9
$PLIMMIN
 10
0.0
 20
0.0
  9
$PLIMMAX
 10
12.0
 20
9.0
  9
$UNITMODE
 70
     0
  9
$VISRETAIN
 70
     0
  9
$PLINEGEN
 70
     0
  9
$PSLTSCALE
 70
     0
  9
$TREEDEPTH
 70
  3020
  9
$PICKSTYLE
 70
     1
  9
$CMLSTYLE
  2
STANDARD
  9
$CMLJUST
 70
     0
  9
$CMLSCALE
 40
1.0
  9
$PROXYGRAPHICS
 70
     1
  9
$MEASUREMENT
 70
     0
  0
ENDSEC
  0
SECTION
  2
CLASSES
  0
CLASS
  1
LWPOLYLINE
  2
AcDbPolyline
  3
AutoCAD 2000
 90
        0
280
     0
281
     1
  0
CLASS
  1
IMAGE
  2
AcDbRasterImage
  3
ISM
 90
      127
280
     0
281
     1
  0
CLASS
  1
OLE2FRAME
  2
AcDbOle2Frame
  3
AutoCAD 2000
 90
        0
280
     0
281
     1
  0
CLASS
  1
HATCH
  2
AcDbHatch
  3
AutoCAD 2000
 90
        0
280
     0
281
     1
  0
CLASS
  1
DICTIONARYVAR
  2
AcDbDictionaryVar
  3
AutoCAD 2000
 90
        0
280
     0
281
     0
  0
CLASS
  1
RASTERVARIABLES
  2
AcDbRasterVariables
  3
ISM
 90
        0
280
     0
281
     0
  0
CLASS
  1
IMAGEDEF
  2
AcDbRasterImageDef
  3
ISM
 90
        0
280
     0
281
     0
  0
CLASS
  1
IMAGEDEF_REACTOR
  2
AcDbRasterImageDefReactor
  3
ISM
 90
        1
280
     0
281
     0
  0
CLASS
  1
IDBUFFER
  2
AcDbIdBuffer
  3
AutoCAD 2000
 90
        0
280
     0
281
     0
  0
CLASS
  1
SPATIAL_FILTER
  2
AcDbSpatialFilter
  3
AutoCAD 2000
 90
        0
280
     0
281
     0
  0
CLASS
  1
XRECORD
  2
AcDbXrecord
  3
AutoCAD 2000
 90
        0
280
     0
281
     0
  0
CLASS
  1
SORTENTSTABLE
  2
AcDbSortentsTable
  3
AutoCAD 2000
 90
        0
280
     0
281
     0
  0
CLASS
  1
LAYER_INDEX
  2
AcDbLayerIndex
  3
AutoCAD 2000
 90
        0
280
     0
281
     0
  0
CLASS
  1
SPATIAL_INDEX
  2
AcDbSpatialIndex
  3
AutoCAD 2000
 90
        0
280
     0
281
     0
  0
CLASS
  1
OBJECT_PTR
  2
CAseDLPNTableRecord
  3
ASE-LPNTableRecord
 90
        1
280
     0
281
     0
  0
CLASS
  1
ACDBDICTIONARYWDFLT
  2
AcDbDictionaryWithDefault
  3
AutoCAD 2000
 90
        0
280
     0
281
     0
  0
CLASS
  1
ACDBPLACEHOLDER
  2
AcDbPlaceHolder
  3
AutoCAD 2000
 90
        0
280
     0
281
     0
  0
CLASS
  1
LAYOUT
  2
AcDbLayout
  3
AutoCAD 2000
 90
        0
280
     0
281
     0
  0
CLASS
  1
LONG_TRANSACTION
  2
AcDbLongTransaction
  3
AutoCAD 2000
 90
        0
280
     0
281
     0
  0
CLASS
  1
LWPOLYLINE
  2
AcDbPolyline
  3
AutoCAD 2000
 90
        0
280
     0
281
     1
  0
CLASS
  1
HATCH
  2
AcDbHatch
  3
AutoCAD 2000
 90
        0
280
     0
281
     1
  0
CLASS
  1
XRECORD
  2
AcDbXrecord
  3
AutoCAD 2000
 90
        0
280
     0
281
     0
  0
CLASS
  1
LONG_TRANSACTION
  2
AcDbLongTransaction
  3
AutoCAD 2000
 90
        0
280
     0
281
     0
  0
CLASS
  1
LWPOLYLINE
  2
AcDbPolyline
  3
AutoCAD 2000
 90
        0
280
     0
281
     1
  0
CLASS
  1
HATCH
  2
AcDbHatch
  3
AutoCAD 2000
 90
        0
280
     0
281
     1
  0
CLASS
  1
XRECORD
  2
AcDbXrecord
  3
AutoCAD 2000
 90
        0
280
     0
281
     0
  0
CLASS
  1
LONG_TRANSACTION
  2
AcDbLongTransaction
  3
AutoCAD 2000
 90
        0
280
     0
281
     0
  0
CLASS
  1
LWPOLYLINE
  2
AcDbPolyline
  3
AutoCAD 2000
 90
        0
280
     0
281
     1
  0
CLASS
  1
HATCH
  2
AcDbHatch
  3
AutoCAD 2000
 90
        0
280
     0
281
     1
  0
CLASS
  1
XRECORD
  2
AcDbXrecord
  3
AutoCAD 2000
 90
        0
280
     0
281
     0
  0
CLASS
  1
LONG_TRANSACTION
  2
AcDbLongTransaction
  3
AutoCAD 2000
 90
        0
280
     0
281
     0
  0
CLASS
  1
LWPOLYLINE
  2
AcDbPolyline
  3
AutoCAD 2000
 90
        0
280
     0
281
     1
  0
CLASS
  1
HATCH
  2
AcDbHatch
  3
AutoCAD 2000
 90
        0
280
     0
281
     1
  0
CLASS
  1
XRECORD
  2
AcDbXrecord
  3
AutoCAD 2000
 90
        0
280
     0
281
     0
  0
CLASS
  1
LONG_TRANSACTION
  2
AcDbLongTransaction
  3
AutoCAD 2000
 90
        0
280
     0
281
     0
  0
CLASS
  1
LWPOLYLINE
  2
AcDbPolyline
  3
AutoCAD 2000
 90
        0
280
     0
281
     1
  0
CLASS
  1
HATCH
  2
AcDbHatch
  3
AutoCAD 2000
 90
        0
280
     0
281
     1
  0
CLASS
  1
XRECORD
  2
AcDbXrecord
  3
AutoCAD 2000
 90
        0
280
     0
281
     0
  0
ENDSEC
  0
SECTION
  2
TABLES
  0
TABLE
  2
VPORT
  5
7
330
0
100
AcDbSymbolTable
 70
     3
  0
VPORT
  5
2D
330
7
100
AcDbSymbolTableRecord
100
AcDbViewportTableRecord
  2
DCADVPORT
 70
     0
 10
9.35287837811543
 20
4.324920615531702
 11
13.0092136450818
 21
6.933245423070051
 12
6.209999999999999
 22
9.019999999999999
 13
0.0
 23
0.0
 14
1.0
 24
1.0
 15
0.0
 25
0.0
 16
0.0
 26
0.0
 36
1.0
 17
0.0
 27
0.0
 37
0.0
 40
18.04
 41
0.688564
 42
50.0
 43
1.0
 44
1.0
 50
0.0
 51
0.0
 71
     0
 72
   100
 73
     1
 74
     1
 75
     0
 76
     0
 77
     0
 78
     0
  0
VPORT
  5
297
330
7
100
AcDbSymbolTableRecord
100
AcDbViewportTableRecord
  2
*ACTIVE
 70
     0
 10
0.0
 20
0.0
 11
1.0
 21
1.0
 12
10.46582712877365
 22
5.251733753307001
 13
0.0
 23
0.0
 14
1.0
 24
1.0
 15
0.0
 25
0.0
 16
0.0
 26
0.0
 36
1.0
 17
0.0
 27
0.0
 37
0.0
 40
8.566759081452959
 41
1.570528967254408
 42
50.0
 43
0.0
 44
0.0
 50
0.0
 51
0.0
 71
     0
 72
   100
 73
     1
 74
     1
 75
     0
 76
     0
 77
     0
 78
     0
  0
ENDTAB
  0
TABLE
  2
LTYPE
  5
4
330
0
100
AcDbSymbolTable
 70
     2
  0
LTYPE
  5
11
330
4
100
AcDbSymbolTableRecord
100
AcDbLinetypeTableRecord
  2
BYBLOCK
 70
     0
  3

 72
    65
 73
     0
 40
0.0
  0
LTYPE
  5
12
330
4
100
AcDbSymbolTableRecord
100
AcDbLinetypeTableRecord
  2
BYLAYER
 70
     0
  3

 72
    65
 73
     0
 40
0.0
  0
LTYPE
  5
13
330
4
100
AcDbSymbolTableRecord
100
AcDbLinetypeTableRecord
  2
CONTINUOUS
 70
     0
  3
Solid line
 72
    65
 73
     0
 40
0.0
  0
LTYPE
  5
1E
330
4
100
AcDbSymbolTableRecord
100
AcDbLinetypeTableRecord
  2
CONTINUOUS
 70
     0
  3
Solid line
 72
    65
 73
     0
 40
0.0
  0
ENDTAB
  0
TABLE
  2
LAYER
  5
2
330
0
100
AcDbSymbolTable
 70
     4
  0
LAYER
  5
14
330
2
100
AcDbSymbolTableRecord
100
AcDbLayerTableRecord
  2
0
 70
     0
 62
     7
  6
CONTINUOUS
  0
LAYER
  5
2A
330
2
100
AcDbSymbolTableRecord
100
AcDbLayerTableRecord
  2
ADPDIM
 70
     0
 62
     3
  6
CONTINUOUS
  0
LAYER
  5
2B
330
2
100
AcDbSymbolTableRecord
100
AcDbLayerTableRecord
  2
ADP1DETAIL
 70
     0
 62
   250
  6
CONTINUOUS
  0
LAYER
  5
2C
330
2
100
AcDbSymbolTableRecord
100
AcDbLayerTableRecord
  2
DEFPOINTS
 70
     0
 62
   250
  6
CONTINUOUS
  0
ENDTAB
  0
TABLE
  2
STYLE
  5
3
330
0
100
AcDbSymbolTable
 70
     2
  0
STYLE
  5
17
330
3
100
AcDbSymbolTableRecord
100
AcDbTextStyleTableRecord
  2
STANDARD
 70
     0
 40
0.0
 41
1.0
 50
0.0
 71
     0
 42
0.0
  3
txt
  4

  0
STYLE
  5
137
330
3
100
AcDbSymbolTableRecord
100
AcDbTextStyleTableRecord
  2
ARIAL_WIDE
 70
     0
 40
0.0
 41
1.25
 50
0.0
 71
     0
 42
0.2
  3
ARIAL.TTF
  4

1001
ACAD
1000
Arial
1071
       34
  0
ENDTAB
  0
TABLE
  2
VIEW
  5
5
330
0
100
AcDbSymbolTable
 70
     0
  0
ENDTAB
  0
TABLE
  2
UCS
  5
6
330
0
100
AcDbSymbolTable
 70
     0
  0
ENDTAB
  0
TABLE
  2
APPID
  5
8
330
0
100
AcDbSymbolTable
 70
     1
  0
APPID
  5
16
330
8
100
AcDbSymbolTableRecord
100
AcDbRegAppTableRecord
  2
ACAD
 70
     0
  0
ENDTAB
  0
TABLE
  2
DIMSTYLE
  5
9
330
0
100
AcDbSymbolTable
 70
     1
  0
DIMSTYLE
105
18
330
9
100
AcDbSymbolTableRecord
100
AcDbDimStyleTableRecord
  2
STANDARD
 70
     0
  3

  4

  5

  6

  7

 40
1.0
 41
0.18
 42
0.0625
 43
0.38
 44
0.18
 45
0.0
 46
0.0
 47
0.0
 48
0.0
140
0.18
141
0.09
142
0.0
143
25.4
144
1.0
145
0.0
146
1.0
147
0.09
 71
     0
 72
     0
 73
     1
 74
     1
 75
     0
 76
     0
 77
     0
 78
     0
170
     0
171
     2
172
     0
173
     0
174
     0
175
     0
176
     0
177
     0
178
     0
270
     2
271
     4
272
     4
273
     2
274
     2
340
17
275
     0
280
     0
281
     0
282
     0
283
     1
284
     0
285
     0
286
     0
287
     0
288
     0
  0
ENDTAB
  0
TABLE
  2
BLOCK_RECORD
  5
1
330
0
100
AcDbSymbolTable
 70
     0
  0
BLOCK_RECORD
  5
A
102
{ACAD_XDICTIONARY
360
18E
102
}
330
1
100
AcDbSymbolTableRecord
100
AcDbBlockTableRecord
  2
*MODEL_SPACE
  0
BLOCK_RECORD
  5
B
102
{ACAD_XDICTIONARY
360
190
102
}
330
1
100
AcDbSymbolTableRecord
100
AcDbBlockTableRecord
  2
*PAPER_SPACE
  0
ENDTAB
  0
ENDSEC
  0
SECTION
  2
BLOCKS
  0
BLOCK
  5
D
330
A
100
AcDbEntity
  8
0
100
AcDbBlockBegin
  2
*MODEL_SPACE
 70
     0
 10
0.0
 20
0.0
 30
0.0
  3
*MODEL_SPACE
  1

  0
ENDBLK
  5
E
330
A
100
AcDbEntity
  8
0
100
AcDbBlockEnd
  0
BLOCK
  5
F
330
B
100
AcDbEntity
 67
     1
  8
0
100
AcDbBlockBegin
  2
*PAPER_SPACE
 70
     0
 10
0.0
 20
0.0
 30
0.0
  3
*PAPER_SPACE
  1

  0
ENDBLK
  5
10
330
B
100
AcDbEntity
 67
     1
  8
0
100
AcDbBlockEnd
  0
ENDSEC
  0
SECTION
  2
ENTITIES
  0
LWPOLYLINE
  5
2E
330
A
100
AcDbEntity
  8
ADP1DETAIL
  6
CONTINUOUS
 62
     7
100
AcDbPolyline
 90
        2
 70
   128
 43
0.0
 10
10.20538782859704
 20
4.729123515917432
 10
10.20538782859704
 20
5.854123515917432
  0
LWPOLYLINE
  5
32
330
A
100
AcDbEntity
  8
ADP1DETAIL
  6
CONTINUOUS
 62
     7
100
AcDbPolyline
 90
        2
 70
   128
 43
0.0
 10
9.955387828597045
 20
4.729123515917432
 10
9.955387828597043
 20
6.088252304453861
  0
LWPOLYLINE
  5
36
330
A
100
AcDbEntity
  8
ADP1DETAIL
  6
CONTINUOUS
 62
     7
100
AcDbPolyline
 90
        2
 70
   128
 43
0.0
 10
10.70538782859704
 20
4.729123515917432
 10
10.70538782859704
 20
5.854123515917432
  0
LWPOLYLINE
  5
3A
330
A
100
AcDbEntity
  8
ADP1DETAIL
  6
CONTINUOUS
 62
     7
100
AcDbPolyline
 90
        2
 70
   128
 43
0.0
 10
10.95538782859704
 20
4.729123515917432
 10
10.95538782859704
 20
6.088252304453861
  0
LWPOLYLINE
  5
3E
330
A
100
AcDbEntity
  8
ADP1DETAIL
  6
CONTINUOUS
 62
     7
100
AcDbPolyline
 90
        2
 70
   128
 43
0.0
 10
10.20538782859704
 20
4.729123515917432
 10
10.20538782859704
 20
4.729123515917432
  0
LWPOLYLINE
  5
42
330
A
100
AcDbEntity
  8
ADP1DETAIL
  6
CONTINUOUS
 62
     7
100
AcDbPolyline
 90
        2
 70
   128
 43
0.0
 10
10.20538782859704
 20
4.729123515917432
 10
9.955387828597045
 20
4.729123515917432
  0
LWPOLYLINE
  5
46
330
A
100
AcDbEntity
  8
ADP1DETAIL
  6
CONTINUOUS
 62
     7
100
AcDbPolyline
 90
        2
 70
   128
 43
0.0
 10
10.70538782859704
 20
4.729123515917432
 10
10.95538782859704
 20
4.729123515917432
  0
LWPOLYLINE
  5
4A
330
A
100
AcDbEntity
  8
ADP1DETAIL
  6
CONTINUOUS
 62
     7
100
AcDbPolyline
 90
        2
 70
   128
 43
0.0
 10
10.70538782859704
 20
4.729123515917432
 10
10.70538782859704
 20
4.729123515917432
  0
ARC
  5
4E
330
A
100
AcDbEntity
  8
ADP1DETAIL
  6
CONTINUOUS
 62
     7
100
AcDbCircle
 10
-10.45538782859704
 20
7.179123515917432
 30
0.0
 40
1.2
210
0.0
220
0.0
230
-1.0
100
AcDbArc
 50
294.624318352165
 51
334.8357513782772
  0
ARC
  5
4F
330
A
100
AcDbEntity
  8
ADP1DETAIL
  6
CONTINUOUS
 62
     7
100
AcDbCircle
 10
-10.45302995777511
 20
7.177473009208071
 30
0.0
 40
1.027154724926514
210
0.0
220
0.0
230
-1.0
100
AcDbArc
 50
296.6106197474051
 51
333.6878300393519
  0
ARC
  5
50
330
A
100
AcDbEntity
  8
ADP1DETAIL
  6
CONTINUOUS
 62
     7
100
AcDbCircle
 10
-10.45538782859704
 20
7.179123515917432
 30
0.0
 40
0.9500000000000007
210
0.0
220
0.0
230
-1.0
100
AcDbArc
 50
333.6832337645496
 51
345.0000000000008
  0
LWPOLYLINE
  5
51
330
A
100
AcDbEntity
  8
ADP1DETAIL
  6
CONTINUOUS
 62
     7
100
AcDbPolyline
 90
        2
 70
   128
 43
0.0
 10
9.532296372229676
 20
6.722174762574598
 10
9.603848927642658
 20
6.757956684173295
  0
ARC
  5
55
330
A
100
AcDbEntity
  8
ADP1DETAIL
  6
CONTINUOUS
 62
     7
100
AcDbCircle
 10
-9.532193423771945
 20
6.7454046082138
 30
0.0
 40
0.1799999999999995
210
0.0
220
0.0
230
-1.0
100
AcDbArc
 50
334.8357513782773
 51
75.00000000000011
  0
LWPOLYLINE
  5
56
330
A
100
AcDbEntity
  8
ADP1DETAIL
  6
CONTINUOUS
 62
     7
100
AcDbPolyline
 90
        2
 70
   128
 43
0.0
 10
9.537758293622429
 20
6.933245423070037
 10
9.485605995653491
 20
6.919271256945833
  0
ARC
  5
5A
330
A
100
AcDbEntity
  8
ADP1DETAIL
  6
CONTINUOUS
 62
     7
100
AcDbCircle
 10
-10.45538782859704
 20
7.179123515917432
 30
0.0
 40
1.199999999999999
210
0.0
220
0.0
230
-1.0
100
AcDbArc
 50
205.1642486217243
 51
245.3756816478367
  0
ARC
  5
5B
330
A
100
AcDbEntity
  8
ADP1DETAIL
  6
CONTINUOUS
 62
     7
100
AcDbCircle
 10
-10.45774569941898
 20
7.177473009208071
 30
0.0
 40
1.027154724926514
210
0.0
220
0.0
230
-1.0
100
AcDbArc
 50
206.3121699606496
 51
243.3893802525964
  0
LWPOLYLINE
  5
5C
330
A
100
AcDbEntity
  8
ADP1DETAIL
  6
CONTINUOUS
 62
     7
100
AcDbPolyline
 90
        2
 70
   128
 43
0.0
 10
10.20538782859704
 20
5.979123515917432
 10
10.70538782859704
 20
5.979123515917432
  0
ARC
  5
60
330
A
100
AcDbEntity
  8
ADP1DETAIL
  6
CONTINUOUS
 62
     7
100
AcDbCircle
 10
-10.45634007867119
 20
7.179558303946365
 30
0.0
 40
0.95
210
0.0
220
0.0
230
-1.0
100
AcDbArc
 50
243.4066348623397
 51
285.3364211430654
  0
ARC
  5
61
330
A
100
AcDbEntity
  8
ADP1DETAIL
  6
CONTINUOUS
 62
     7
100
AcDbCircle
 10
-10.45538782859704
 20
7.179123515917432
 30
0.0
 40
0.95
210
0.0
220
0.0
230
-1.0
100
AcDbArc
 50
285.2575232904571
 51
296.8658356132305
  0
LWPOLYLINE
  5
62
330
A
100
AcDbEntity
  8
ADP1DETAIL
  6
CONTINUOUS
 62
     7
100
AcDbPolyline
 90
        2
 70
   128
 43
0.0
 10
10.0291801246859
 20
6.330096429702395
 10
9.992941871499066
 20
6.259123521373667
  0
LWPOLYLINE
  5
66
330
A
100
AcDbEntity
  8
ADP1DETAIL
  6
CONTINUOUS
 62
     7
100
AcDbPolyline
 90
        2
 70
   128
 43
0.0
 10
10.20538782859704
 20
5.854123515917432
 10
10.20538782859704
 20
5.979123515917432
  0
LWPOLYLINE
  5
6A
330
A
100
AcDbEntity
  8
ADP1DETAIL
  6
CONTINUOUS
 62
     7
100
AcDbPolyline
 90
        2
 70
   128
 43
0.0
 10
10.70538782859704
 20
5.854123515917432
 10
10.70538782859704
 20
5.979123515917432
  0
LWPOLYLINE
  5
6E
330
A
100
AcDbEntity
  8
ADP1DETAIL
  6
CONTINUOUS
 62
     7
100
AcDbPolyline
 90
        2
 70
   128
 43
0.0
 10
10.88159553250818
 20
6.330096429702395
 10
10.91783378569502
 20
6.259123521373667
  0
ARC
  5
72
330
A
100
AcDbEntity
  8
ADP1DETAIL
  6
CONTINUOUS
 62
     7
100
AcDbCircle
 10
-10.45538782859704
 20
7.179123515917432
 30
0.0
 40
0.9500000000000007
210
0.0
220
0.0
230
-1.0
100
AcDbArc
 50
195.0000000000007
 51
206.3167662354519
  0
LWPOLYLINE
  5
73
330
A
100
AcDbEntity
  8
ADP1DETAIL
  6
CONTINUOUS
 62
     7
100
AcDbPolyline
 90
        2
 70
   128
 43
0.0
 10
11.37847928496441
 20
6.722174762574598
 10
11.30692672955143
 20
6.757956684173295
  0
ARC
  5
77
330
A
100
AcDbEntity
  8
ADP1DETAIL
  6
CONTINUOUS
 62
     7
100
AcDbCircle
 10
-11.37858223342214
 20
6.7454046082138
 30
0.0
 40
0.1800000000000004
210
0.0
220
0.0
230
-1.0
100
AcDbArc
 50
104.9999999999998
 51
205.1642486217243
  0
LWPOLYLINE
  5
78
330
A
100
AcDbEntity
  8
ADP1DETAIL
  6
CONTINUOUS
 62
     7
100
AcDbPolyline
 90
        2
 70
   128
 43
0.0
 10
11.37301736357166
 20
6.933245423070037
 10
11.4251696615406
 20
6.919271256945833
  0
LWPOLYLINE
  5
7C
330
A
100
AcDbEntity
  8
ADPDIM
  6
CONTINUOUS
 62
     3
 48
0.125
100
AcDbPolyline
 90
        2
 70
   128
 43
0.0
 10
10.49721649630614
 20
5.979123515917432
 10
10.63538782859704
 20
5.979123515917432
  0
LWPOLYLINE
  5
80
330
A
100
AcDbEntity
  8
ADPDIM
  6
CONTINUOUS
 62
     3
 48
0.125
100
AcDbPolyline
 90
        2
 70
   128
 43
0.0
 10
10.46634232021248
 20
6.234138457984086
 10
10.27538782859704
 20
6.234138457984086
  0
LWPOLYLINE
  5
84
330
A
100
AcDbEntity
  8
ADPDIM
  6
CONTINUOUS
 62
     3
 48
0.125
100
AcDbPolyline
 90
        2
 70
   128
 43
0.0
 10
10.45538782859704
 20
5.979123515917432
 10
10.45538782859704
 20
5.729123515917432
  0
LWPOLYLINE
  5
88
330
A
100
AcDbEntity
  8
ADPDIM
  6
CONTINUOUS
 62
     3
 48
0.125
100
AcDbPolyline
 90
        2
 70
   128
 43
0.0
 10
10.45538782859704
 20
6.234138457984086
 10
10.45538782859704
 20
6.484138457984086
  0
LWPOLYLINE
  5
8C
330
A
100
AcDbEntity
  8
ADPDIM
  6
CONTINUOUS
 62
     3
 48
0.125
100
AcDbPolyline
 90
        2
 70
   128
 43
0.0
 10
10.58038782859704
 20
5.854123515917432
 10
10.33038782859704
 20
6.104123515917432
  0
LWPOLYLINE
  5
90
330
A
100
AcDbEntity
  8
ADPDIM
  6
CONTINUOUS
 62
     3
 48
0.125
100
AcDbPolyline
 90
        2
 70
   128
 43
0.0
 10
10.58038782859704
 20
6.109138457984086
 10
10.33038782859704
 20
6.359138457984086
  0
TEXT
  5
94
330
A
100
AcDbEntity
  8
ADPDIM
 62
     3
 48
0.0
100
AcDbText
 10
10.51788782859704
 20
6.609138457984086
 30
0.0
 40
0.125
  1
1/4
 50
90.0
 72
     5
 11
10.51788782859704
 21
6.900805124650752
 31
0.0
100
AcDbText
  0
LWPOLYLINE
  5
95
330
A
100
AcDbEntity
  8
ADPDIM
  6
CONTINUOUS
 62
     3
 48
0.125
100
AcDbPolyline
 90
        2
 70
   128
 43
0.0
 10
10.76788782859704
 20
5.979123515917432
 10
11.4053839027579
 20
5.979123515917432
  0
LWPOLYLINE
  5
99
330
A
100
AcDbEntity
  8
ADPDIM
  6
CONTINUOUS
 62
     3
 48
0.125
100
AcDbPolyline
 90
        2
 70
   128
 43
0.0
 10
11.01788782859704
 20
4.729123515917432
 10
11.4053839027579
 20
4.729123515917432
  0
LWPOLYLINE
  5
9D
330
A
100
AcDbEntity
  8
ADPDIM
  6
CONTINUOUS
 62
     3
 48
0.125
100
AcDbPolyline
 90
        2
 70
   128
 43
0.0
 10
11.2253839027579
 20
5.979123515917432
 10
11.2253839027579
 20
5.729123515917432
  0
LWPOLYLINE
  5
A1
330
A
100
AcDbEntity
  8
ADPDIM
  6
CONTINUOUS
 62
     3
 48
0.125
100
AcDbPolyline
 90
        2
 70
   128
 43
0.0
 10
11.2253839027579
 20
4.729123515917432
 10
11.2253839027579
 20
4.979123515917432
  0
LWPOLYLINE
  5
A5
330
A
100
AcDbEntity
  8
ADPDIM
  6
CONTINUOUS
 62
     3
 48
0.125
100
AcDbPolyline
 90
        2
 70
   128
 43
0.0
 10
11.3503839027579
 20
5.854123515917432
 10
11.1003839027579
 20
6.104123515917432
  0
LWPOLYLINE
  5
A9
330
A
100
AcDbEntity
  8
ADPDIM
  6
CONTINUOUS
 62
     3
 48
0.125
100
AcDbPolyline
 90
        2
 70
   128
 43
0.0
 10
11.3503839027579
 20
4.604123515917432
 10
11.1003839027579
 20
4.854123515917432
  0
TEXT
  5
AD
330
A
100
AcDbEntity
  8
ADPDIM
 62
     3
 48
0.0
100
AcDbText
 10
11.2878839027579
 20
5.104123515917432
 30
0.0
 40
0.125
  1
1 1/4
 50
90.0
 72
     5
 11
11.2878839027579
 21
5.604123515917432
 31
0.0
100
AcDbText
  0
LWPOLYLINE
  5
AE
330
A
100
AcDbEntity
  8
ADPDIM
  6
CONTINUOUS
 62
     3
 48
0.125
100
AcDbPolyline
 90
        2
 70
   128
 43
0.0
 10
10.70538782859704
 20
4.666623515917432
 10
10.70538782859704
 20
4.324920615531702
  0
LWPOLYLINE
  5
B2
330
A
100
AcDbEntity
  8
ADPDIM
  6
CONTINUOUS
 62
     3
 48
0.125
100
AcDbPolyline
 90
        2
 70
   128
 43
0.0
 10
10.20538782859704
 20
4.666623515917432
 10
10.20538782859704
 20
4.324920615531702
  0
LWPOLYLINE
  5
B6
330
A
100
AcDbEntity
  8
ADPDIM
  6
CONTINUOUS
 62
     3
 48
0.125
100
AcDbPolyline
 90
        2
 70
   128
 43
0.0
 10
10.70538782859704
 20
4.504920615531702
 10
10.95538782859704
 20
4.504920615531702
  0
LWPOLYLINE
  5
BA
330
A
100
AcDbEntity
  8
ADPDIM
  6
CONTINUOUS
 62
     3
 48
0.125
100
AcDbPolyline
 90
        2
 70
   128
 43
0.0
 10
10.20538782859704
 20
4.504920615531702
 10
9.955387828597045
 20
4.504920615531702
  0
LWPOLYLINE
  5
BE
330
A
100
AcDbEntity
  8
ADPDIM
  6
CONTINUOUS
 62
     3
 48
0.125
100
AcDbPolyline
 90
        2
 70
   128
 43
0.0
 10
10.58038782859704
 20
4.379920615531702
 10
10.83038782859704
 20
4.629920615531702
  0
LWPOLYLINE
  5
C2
330
A
100
AcDbEntity
  8
ADPDIM
  6
CONTINUOUS
 62
     3
 48
0.125
100
AcDbPolyline
 90
        2
 70
   128
 43
0.0
 10
10.08038782859704
 20
4.379920615531702
 10
10.33038782859704
 20
4.629920615531702
  0
TEXT
  5
C6
330
A
100
AcDbEntity
  8
ADPDIM
 62
     3
 48
0.0
100
AcDbText
 10
9.538721161930377
 20
4.442420615531702
 30
0.0
 40
0.125
  1
1/2
 72
     5
 11
9.830387828597045
 21
4.442420615531702
 31
0.0
100
AcDbText
  0
LWPOLYLINE
  5
C7
330
A
100
AcDbEntity
  8
ADPDIM
  6
CONTINUOUS
 62
     3
 48
0.125
100
AcDbPolyline
 90
        2
 70
   128
 43
0.0
 10
12.0092136450818
 20
4.33784889551455
 10
12.0092136450818
 20
4.324920615531702
  0
LWPOLYLINE
  5
CB
330
A
100
AcDbEntity
  8
DEFPOINTS
  6
CONTINUOUS
 62
     3
 48
0.125
100
AcDbPolyline
 90
        2
 70
   128
 43
0.0
 10
10.43471649630614
 20
5.979123515917432
 10
10.43471649630614
 20
5.979123515917432
  0
LWPOLYLINE
  5
CF
330
A
100
AcDbEntity
  8
DEFPOINTS
  6
CONTINUOUS
 62
     3
 48
0.125
100
AcDbPolyline
 90
        2
 70
   128
 43
0.0
 10
10.43471649630614
 20
5.979123515917432
 10
10.43471649630614
 20
5.979123515917432
  0
LWPOLYLINE
  5
D3
330
A
100
AcDbEntity
  8
DEFPOINTS
  6
CONTINUOUS
 62
     3
 48
0.125
100
AcDbPolyline
 90
        2
 70
   128
 43
0.0
 10
10.52884232021248
 20
6.234138457984086
 10
10.52884232021248
 20
6.234138457984086
  0
LWPOLYLINE
  5
D7
330
A
100
AcDbEntity
  8
DEFPOINTS
  6
CONTINUOUS
 62
     3
 48
0.125
100
AcDbPolyline
 90
        2
 70
   128
 43
0.0
 10
10.52884232021248
 20
6.234138457984086
 10
10.52884232021248
 20
6.234138457984086
  0
LWPOLYLINE
  5
DB
330
A
100
AcDbEntity
  8
DEFPOINTS
  6
CONTINUOUS
 62
     3
 48
0.125
100
AcDbPolyline
 90
        2
 70
   128
 43
0.0
 10
10.45538782859704
 20
6.234138457984086
 10
10.45538782859704
 20
6.234138457984086
  0
LWPOLYLINE
  5
DF
330
A
100
AcDbEntity
  8
DEFPOINTS
  6
CONTINUOUS
 62
     3
 48
0.125
100
AcDbPolyline
 90
        2
 70
   128
 43
0.0
 10
10.45538782859704
 20
6.234138457984086
 10
10.45538782859704
 20
6.234138457984086
  0
LWPOLYLINE
  5
E3
330
A
100
AcDbEntity
  8
DEFPOINTS
  6
CONTINUOUS
 62
     3
 48
0.125
100
AcDbPolyline
 90
        2
 70
   128
 43
0.0
 10
10.70538782859704
 20
5.979123515917432
 10
10.70538782859704
 20
5.979123515917432
  0
LWPOLYLINE
  5
E7
330
A
100
AcDbEntity
  8
DEFPOINTS
  6
CONTINUOUS
 62
     3
 48
0.125
100
AcDbPolyline
 90
        2
 70
   128
 43
0.0
 10
10.70538782859704
 20
5.979123515917432
 10
10.70538782859704
 20
5.979123515917432
  0
LWPOLYLINE
  5
EB
330
A
100
AcDbEntity
  8
DEFPOINTS
  6
CONTINUOUS
 62
     3
 48
0.125
100
AcDbPolyline
 90
        2
 70
   128
 43
0.0
 10
10.95538782859704
 20
4.729123515917432
 10
10.95538782859704
 20
4.729123515917432
  0
LWPOLYLINE
  5
EF
330
A
100
AcDbEntity
  8
DEFPOINTS
  6
CONTINUOUS
 62
     3
 48
0.125
100
AcDbPolyline
 90
        2
 70
   128
 43
0.0
 10
10.95538782859704
 20
4.729123515917432
 10
10.95538782859704
 20
4.729123515917432
  0
LWPOLYLINE
  5
F3
330
A
100
AcDbEntity
  8
DEFPOINTS
  6
CONTINUOUS
 62
     3
 48
0.125
100
AcDbPolyline
 90
        2
 70
   128
 43
0.0
 10
11.2253839027579
 20
4.729123515917432
 10
11.2253839027579
 20
4.729123515917432
  0
LWPOLYLINE
  5
F7
330
A
100
AcDbEntity
  8
DEFPOINTS
  6
CONTINUOUS
 62
     3
 48
0.125
100
AcDbPolyline
 90
        2
 70
   128
 43
0.0
 10
11.2253839027579
 20
4.729123515917432
 10
11.2253839027579
 20
4.729123515917432
  0
LWPOLYLINE
  5
FB
330
A
100
AcDbEntity
  8
DEFPOINTS
  6
CONTINUOUS
 62
     3
 48
0.125
100
AcDbPolyline
 90
        2
 70
   128
 43
0.0
 10
13.0092136450818
 20
4.729123515917432
 10
13.0092136450818
 20
4.729123515917432
  0
LWPOLYLINE
  5
FF
330
A
100
AcDbEntity
  8
DEFPOINTS
  6
CONTINUOUS
 62
     3
 48
0.125
100
AcDbPolyline
 90
        2
 70
   128
 43
0.0
 10
13.0092136450818
 20
4.729123515917432
 10
13.0092136450818
 20
4.729123515917432
  0
LWPOLYLINE
  5
103
330
A
100
AcDbEntity
  8
DEFPOINTS
  6
CONTINUOUS
 62
     3
 48
0.125
100
AcDbPolyline
 90
        2
 70
   128
 43
0.0
 10
12.0092136450818
 20
4.729123515917432
 10
12.0092136450818
 20
4.729123515917432
  0
LWPOLYLINE
  5
107
330
A
100
AcDbEntity
  8
DEFPOINTS
  6
CONTINUOUS
 62
     3
 48
0.125
100
AcDbPolyline
 90
        2
 70
   128
 43
0.0
 10
12.0092136450818
 20
4.729123515917432
 10
12.0092136450818
 20
4.729123515917432
  0
LWPOLYLINE
  5
10B
330
A
100
AcDbEntity
  8
DEFPOINTS
  6
CONTINUOUS
 62
     3
 48
0.125
100
AcDbPolyline
 90
        2
 70
   128
 43
0.0
 10
12.0092136450818
 20
4.504920615531702
 10
12.0092136450818
 20
4.504920615531702
  0
LWPOLYLINE
  5
10F
330
A
100
AcDbEntity
  8
DEFPOINTS
  6
CONTINUOUS
 62
     3
 48
0.125
100
AcDbPolyline
 90
        2
 70
   128
 43
0.0
 10
12.0092136450818
 20
4.504920615531702
 10
12.0092136450818
 20
4.504920615531702
  0
LWPOLYLINE
  5
113
330
A
100
AcDbEntity
  8
DEFPOINTS
  6
CONTINUOUS
 62
     3
 48
0.125
100
AcDbPolyline
 90
        2
 70
   128
 43
0.0
 10
10.70538782859704
 20
4.729123515917432
 10
10.70538782859704
 20
4.729123515917432
  0
LWPOLYLINE
  5
117
330
A
100
AcDbEntity
  8
DEFPOINTS
  6
CONTINUOUS
 62
     3
 48
0.125
100
AcDbPolyline
 90
        2
 70
   128
 43
0.0
 10
10.70538782859704
 20
4.729123515917432
 10
10.70538782859704
 20
4.729123515917432
  0
LWPOLYLINE
  5
11B
330
A
100
AcDbEntity
  8
DEFPOINTS
  6
CONTINUOUS
 62
     3
 48
0.125
100
AcDbPolyline
 90
        2
 70
   128
 43
0.0
 10
10.20538782859704
 20
4.729123515917432
 10
10.20538782859704
 20
4.729123515917432
  0
LWPOLYLINE
  5
11F
330
A
100
AcDbEntity
  8
DEFPOINTS
  6
CONTINUOUS
 62
     3
 48
0.125
100
AcDbPolyline
 90
        2
 70
   128
 43
0.0
 10
10.20538782859704
 20
4.729123515917432
 10
10.20538782859704
 20
4.729123515917432
  0
LWPOLYLINE
  5
123
330
A
100
AcDbEntity
  8
DEFPOINTS
  6
CONTINUOUS
 62
     3
 48
0.125
100
AcDbPolyline
 90
        2
 70
   128
 43
0.0
 10
10.20538782859704
 20
4.504920615531702
 10
10.20538782859704
 20
4.504920615531702
  0
LWPOLYLINE
  5
127
330
A
100
AcDbEntity
  8
DEFPOINTS
  6
CONTINUOUS
 62
     3
 48
0.125
100
AcDbPolyline
 90
        2
 70
   128
 43
0.0
 10
10.20538782859704
 20
4.504920615531702
 10
10.20538782859704
 20
4.504920615531702
  0
TEXT
  5
138
330
A
100
AcDbEntity
  8
ADPDIM
100
AcDbText
 10
3.771969939783948
 20
3.593782095703036
 30
0.0
 40
0.125
  1
J U L I U S  B L U M  &  C O . ,  I N C .      ( 8 0 0 )  5 2 6 - 6 2 9 3        W W W . J U L I U S B L U M . C O M        P A R T  N o .  7 5 6 0 - 5
 41
1.25
  7
ARIAL_WIDE
 72
     1
 11
10.45538782859704
 21
3.718782095703036
 31
0.0
100
AcDbText
 73
     3
  0
ENDSEC
  0
SECTION
  2
OBJECTS
  0
DICTIONARY
  5
19
330
0
100
AcDbDictionary
  3
ACAD_GROUP
350
1A
  3
ACAD_LAYOUT
350
130
  3
ACAD_MLINESTYLE
350
1B
  3
ACAD_PLOTSETTINGS
350
131
  3
ACAD_PLOTSTYLENAME
350
12E
  3
ACDBHEADERROUNDTRIPXREC
350
298
  3
ACDBVARIABLEDICTIONARY
350
19A
  0
DICTIONARY
  5
18E
330
A
100
AcDbDictionary
280
     1
  3
ACAD_LAYOUTSELFREF
360
2B8
  0
DICTIONARY
  5
190
330
B
100
AcDbDictionary
280
     1
  3
ACAD_LAYOUTSELFREF
360
2B9
  0
DICTIONARY
  5
1A
102
{ACAD_REACTORS
330
19
102
}
330
19
100
AcDbDictionary
  0
DICTIONARY
  5
130
102
{ACAD_REACTORS
330
19
102
}
330
19
100
AcDbDictionary
  0
DICTIONARY
  5
1B
102
{ACAD_REACTORS
330
19
102
}
330
19
100
AcDbDictionary
  3
STANDARD
350
1C
  0
DICTIONARY
  5
131
102
{ACAD_REACTORS
330
19
102
}
330
19
100
AcDbDictionary
  0
ACDBDICTIONARYWDFLT
  5
12E
102
{ACAD_REACTORS
330
19
102
}
330
19
100
AcDbDictionary
281
     1
  3
Normal
350
12F
100
AcDbDictionaryWithDefault
340
12F
  0
DICTIONARY
  5
298
102
{ACAD_REACTORS
330
19
102
}
330
19
100
AcDbDictionary
  3
CEPSNTYPE
350
2A2
  3
FINGERPRINTGUID
350
2A3
  3
HYPERLINKBASE
350
29B
  3
INSUNITS
350
2A1
  3
LAYOUTDICT
350
29D
  3
LWETCUNION
350
2A0
  3
PLOTSETDICT
350
29E
  3
PLOTSTYLNAMDICT
350
29F
  3
PSVPSCALE
350
2A5
  3
PUCSBASE
350
2A8
  3
PUCSORGBACK
350
2AE
  3
PUCSORGBOTTOM
350
2AA
  3
PUCSORGFRONT
350
2AD
  3
PUCSORGLEFT
350
2AB
  3
PUCSORGRIGHT
350
2AC
  3
PUCSORGTOP
350
2A9
  3
PUCSORTHOREF
350
2A6
  3
PUCSORTHOVIEW
350
2A7
  3
STYLESHEET
350
29C
  3
TSTACKALIGN
350
299
  3
TSTACKSIZE
350
29A
  3
UCSBASE
350
2B1
  3
UCSORGBACK
350
2B7
  3
UCSORGBOTTOM
350
2B3
  3
UCSORGFRONT
350
2B6
  3
UCSORGLEFT
350
2B4
  3
UCSORGRIGHT
350
2B5
  3
UCSORGTOP
350
2B2
  3
UCSORTHOREF
350
2AF
  3
UCSORTHOVIEW
350
2B0
  3
VERSIONGUID
350
2A4
  0
DICTIONARY
  5
19A
102
{ACAD_REACTORS
330
19
102
}
330
19
100
AcDbDictionary
  3
DIMASSOC
350
19B
  0
XRECORD
  5
2B8
102
{ACAD_REACTORS
330
18E
102
}
330
18E
100
AcDbXrecord
340
A
  0
XRECORD
  5
2B9
102
{ACAD_REACTORS
330
190
102
}
330
190
100
AcDbXrecord
340
B
  0
MLINESTYLE
  5
1C
102
{ACAD_REACTORS
330
1B
102
}
330
1B
100
AcDbMlineStyle
  2
STANDARD
 70
     0
  3

 62
     0
 51
90.00000000000019
 52
90.00000000000019
 71
     2
 49
0.5
 62
   256
  6
BYLAYER
 49
-0.5
 62
   256
  6
BYLAYER
  0
ACDBPLACEHOLDER
  5
12F
102
{ACAD_REACTORS
330
12E
102
}
330
12E
100
AcDbPlaceHolder
280
     0
  0
XRECORD
  5
2A2
102
{ACAD_REACTORS
330
298
102
}
330
298
100
AcDbXrecord
 90
        0
  0
XRECORD
  5
2A3
102
{ACAD_REACTORS
330
298
102
}
330
298
100
AcDbXrecord
  1
{AA7B843A-DDE7-4E12-92BF-F1B6CA6769C6}
  0
XRECORD
  5
29B
102
{ACAD_REACTORS
330
298
102
}
330
298
100
AcDbXrecord
  1

  0
XRECORD
  5
2A1
102
{ACAD_REACTORS
330
298
102
}
330
298
100
AcDbXrecord
 90
        0
  0
XRECORD
  5
29D
102
{ACAD_REACTORS
330
298
102
}
330
298
100
AcDbXrecord
340
130
  0
XRECORD
  5
2A0
102
{ACAD_REACTORS
330
298
102
}
330
298
100
AcDbXrecord
 90
    14877
  0
XRECORD
  5
29E
102
{ACAD_REACTORS
330
298
102
}
330
298
100
AcDbXrecord
340
131
  0
XRECORD
  5
29F
102
{ACAD_REACTORS
330
298
102
}
330
298
100
AcDbXrecord
340
12E
  0
XRECORD
  5
2A5
102
{ACAD_REACTORS
330
298
102
}
330
298
100
AcDbXrecord
 40
0.0
  0
XRECORD
  5
2A8
102
{ACAD_REACTORS
330
298
102
}
330
298
100
AcDbXrecord
340
0
  0
XRECORD
  5
2AE
102
{ACAD_REACTORS
330
298
102
}
330
298
100
AcDbXrecord
 10
0.0
 20
0.0
 30
0.0
  0
XRECORD
  5
2AA
102
{ACAD_REACTORS
330
298
102
}
330
298
100
AcDbXrecord
 10
0.0
 20
0.0
 30
0.0
  0
XRECORD
  5
2AD
102
{ACAD_REACTORS
330
298
102
}
330
298
100
AcDbXrecord
 10
0.0
 20
0.0
 30
0.0
  0
XRECORD
  5
2AB
102
{ACAD_REACTORS
330
298
102
}
330
298
100
AcDbXrecord
 10
0.0
 20
0.0
 30
0.0
  0
XRECORD
  5
2AC
102
{ACAD_REACTORS
330
298
102
}
330
298
100
AcDbXrecord
 10
0.0
 20
0.0
 30
0.0
  0
XRECORD
  5
2A9
102
{ACAD_REACTORS
330
298
102
}
330
298
100
AcDbXrecord
 10
0.0
 20
0.0
 30
0.0
  0
XRECORD
  5
2A6
102
{ACAD_REACTORS
330
298
102
}
330
298
100
AcDbXrecord
340
0
  0
XRECORD
  5
2A7
102
{ACAD_REACTORS
330
298
102
}
330
298
100
AcDbXrecord
 70
     0
  0
XRECORD
  5
29C
102
{ACAD_REACTORS
330
298
102
}
330
298
100
AcDbXrecord
  1

  0
XRECORD
  5
299
102
{ACAD_REACTORS
330
298
102
}
330
298
100
AcDbXrecord
 90
        1
  0
XRECORD
  5
29A
102
{ACAD_REACTORS
330
298
102
}
330
298
100
AcDbXrecord
 90
       70
  0
XRECORD
  5
2B1
102
{ACAD_REACTORS
330
298
102
}
330
298
100
AcDbXrecord
340
0
  0
XRECORD
  5
2B7
102
{ACAD_REACTORS
330
298
102
}
330
298
100
AcDbXrecord
 10
0.0
 20
0.0
 30
0.0
  0
XRECORD
  5
2B3
102
{ACAD_REACTORS
330
298
102
}
330
298
100
AcDbXrecord
 10
0.0
 20
0.0
 30
0.0
  0
XRECORD
  5
2B6
102
{ACAD_REACTORS
330
298
102
}
330
298
100
AcDbXrecord
 10
0.0
 20
0.0
 30
0.0
  0
XRECORD
  5
2B4
102
{ACAD_REACTORS
330
298
102
}
330
298
100
AcDbXrecord
 10
0.0
 20
0.0
 30
0.0
  0
XRECORD
  5
2B5
102
{ACAD_REACTORS
330
298
102
}
330
298
100
AcDbXrecord
 10
0.0
 20
0.0
 30
0.0
  0
XRECORD
  5
2B2
102
{ACAD_REACTORS
330
298
102
}
330
298
100
AcDbXrecord
 10
0.0
 20
0.0
 30
0.0
  0
XRECORD
  5
2AF
102
{ACAD_REACTORS
330
298
102
}
330
298
100
AcDbXrecord
340
0
  0
XRECORD
  5
2B0
102
{ACAD_REACTORS
330
298
102
}
330
298
100
AcDbXrecord
 70
     0
  0
XRECORD
  5
2A4
102
{ACAD_REACTORS
330
298
102
}
330
298
100
AcDbXrecord
  1
{E903BF9E-D87C-46D6-BA7D-475F6C592038}
  0
DICTIONARYVAR
  5
19B
102
{ACAD_REACTORS
330
19A
102
}
330
19A
100
DictionaryVariables
280
     0
  1
1
  0
ENDSEC
  0
EOF
