  0
SECTION
  2
HEADER
  9
$ACADVER
  1
AC1014
  9
$ACADMAINTVER
 70
     9
  9
$DWGCODEPAGE
  3
ANSI_1252
  9
$INSBASE
 10
0.0
 20
0.0
 30
0.0
  9
$EXTMIN
 10
22.69618093431585
 20
-6.824047252337433
 30
0.0
  9
$EXTMAX
 10
42.27336800798569
 20
2.552614680940412
 30
0.0
  9
$LIMMIN
 10
0.0
 20
0.0
  9
$LIMMAX
 10
0.0
 20
0.0
  9
$ORTHOMODE
 70
     1
  9
$REGENMODE
 70
     1
  9
$FILLMODE
 70
     1
  9
$QTEXTMODE
 70
     0
  9
$MIRRTEXT
 70
     1
  9
$DRAGMODE
 70
     0
  9
$LTSCALE
 40
1.0
  9
$OSMODE
 70
    37
  9
$ATTMODE
 70
     1
  9
$TEXTSIZE
 40
0.0
  9
$TRACEWID
 40
0.05
  9
$TEXTSTYLE
  7
STANDARD
  9
$CLAYER
  8
0
  9
$CELTYPE
  6
CONTINUOUS
  9
$CECOLOR
 62
   256
  9
$CELTSCALE
 40
1.0
  9
$DELOBJ
 70
     1
  9
$DISPSILH
 70
     0
  9
$DIMSCALE
 40
1.0
  9
$DIMASZ
 40
0.18
  9
$DIMEXO
 40
0.0625
  9
$DIMDLI
 40
0.38
  9
$DIMRND
 40
0.0
  9
$DIMDLE
 40
0.0
  9
$DIMEXE
 40
0.18
  9
$DIMTP
 40
0.0
  9
$DIMTM
 40
0.0
  9
$DIMTXT
 40
0.18
  9
$DIMCEN
 40
0.09
  9
$DIMTSZ
 40
0.0
  9
$DIMTOL
 70
     0
  9
$DIMLIM
 70
     0
  9
$DIMTIH
 70
     1
  9
$DIMTOH
 70
     1
  9
$DIMSE1
 70
     0
  9
$DIMSE2
 70
     0
  9
$DIMTAD
 70
     0
  9
$DIMZIN
 70
     0
  9
$DIMBLK
  1

  9
$DIMASO
 70
     1
  9
$DIMSHO
 70
     1
  9
$DIMPOST
  1

  9
$DIMAPOST
  1

  9
$DIMALT
 70
     0
  9
$DIMALTD
 70
     2
  9
$DIMALTF
 40
25.4
  9
$DIMLFAC
 40
1.0
  9
$DIMTOFL
 70
     0
  9
$DIMTVP
 40
0.0
  9
$DIMTIX
 70
     0
  9
$DIMSOXD
 70
     0
  9
$DIMSAH
 70
     0
  9
$DIMBLK1
  1

  9
$DIMBLK2
  1

  9
$DIMSTYLE
  2
STANDARD
  9
$DIMCLRD
 70
     0
  9
$DIMCLRE
 70
     0
  9
$DIMCLRT
 70
     0
  9
$DIMTFAC
 40
1.0
  9
$DIMGAP
 40
0.09
  9
$DIMJUST
 70
     0
  9
$DIMSD1
 70
     0
  9
$DIMSD2
 70
     0
  9
$DIMTOLJ
 70
     1
  9
$DIMTZIN
 70
     0
  9
$DIMALTZ
 70
     0
  9
$DIMALTTZ
 70
     0
  9
$DIMFIT
 70
     3
  9
$DIMUPT
 70
     0
  9
$DIMUNIT
 70
     2
  9
$DIMDEC
 70
     4
  9
$DIMTDEC
 70
     4
  9
$DIMALTU
 70
     2
  9
$DIMALTTD
 70
     2
  9
$DIMTXSTY
  7
STANDARD
  9
$DIMAUNIT
 70
     0
  9
$LUNITS
 70
     2
  9
$LUPREC
 70
     4
  9
$SKETCHINC
 40
0.1
  9
$FILLETRAD
 40
0.0
  9
$AUNITS
 70
     0
  9
$AUPREC
 70
     0
  9
$MENU
  1
acad
  9
$ELEVATION
 40
0.0
  9
$PELEVATION
 40
0.0
  9
$THICKNESS
 40
0.0
  9
$LIMCHECK
 70
     0
  9
$BLIPMODE
 70
     0
  9
$CHAMFERA
 40
0.0
  9
$CHAMFERB
 40
0.0
  9
$CHAMFERC
 40
0.0
  9
$CHAMFERD
 40
0.0
  9
$SKPOLY
 70
     0
  9
$TDCREATE
 40
2444971.791666666
  9
$TDUPDATE
 40
2452297.100519560
  9
$TDINDWG
 40
0.0174135648
  9
$TDUSRTIMER
 40
0.0174135648
  9
$USRTIMER
 70
     1
  9
$ANGBASE
 50
0.0
  9
$ANGDIR
 70
     0
  9
$PDMODE
 70
     0
  9
$PDSIZE
 40
0.0
  9
$PLINEWID
 40
0.0
  9
$COORDS
 70
     2
  9
$SPLFRAME
 70
     0
  9
$SPLINETYPE
 70
     6
  9
$SPLINESEGS
 70
     8
  9
$ATTDIA
 70
     0
  9
$ATTREQ
 70
     1
  9
$HANDLING
 70
 22529
  9
$HANDSEED
  5
39F
  9
$SURFTAB1
 70
     6
  9
$SURFTAB2
 70
     6
  9
$SURFTYPE
 70
     6
  9
$SURFU
 70
     6
  9
$SURFV
 70
     6
  9
$UCSNAME
  2

  9
$UCSORG
 10
0.0
 20
0.0
 30
0.0
  9
$UCSXDIR
 10
1.0
 20
0.0
 30
0.0
  9
$UCSYDIR
 10
0.0
 20
1.0
 30
0.0
  9
$PUCSNAME
  2

  9
$PUCSORG
 10
0.0
 20
0.0
 30
0.0
  9
$PUCSXDIR
 10
1.0
 20
0.0
 30
0.0
  9
$PUCSYDIR
 10
0.0
 20
1.0
 30
0.0
  9
$USERI1
 70
     0
  9
$USERI2
 70
     0
  9
$USERI3
 70
     0
  9
$USERI4
 70
     0
  9
$USERI5
 70
     0
  9
$USERR1
 40
0.0
  9
$USERR2
 40
0.0
  9
$USERR3
 40
0.0
  9
$USERR4
 40
0.0
  9
$USERR5
 40
0.0
  9
$WORLDVIEW
 70
     1
  9
$SHADEDGE
 70
     3
  9
$SHADEDIF
 70
    70
  9
$TILEMODE
 70
     1
  9
$MAXACTVP
 70
    16
  9
$PINSBASE
 10
0.0
 20
0.0
 30
0.0
  9
$PLIMCHECK
 70
     0
  9
$PEXTMIN
 10
1.000000000000000E+20
 20
1.000000000000000E+20
 30
1.000000000000000E+20
  9
$PEXTMAX
 10
-1.000000000000000E+20
 20
-1.000000000000000E+20
 30
-1.000000000000000E+20
  9
$PLIMMIN
 10
0.0
 20
0.0
  9
$PLIMMAX
 10
12.0
 20
9.0
  9
$UNITMODE
 70
     0
  9
$VISRETAIN
 70
     0
  9
$PLINEGEN
 70
     0
  9
$PSLTSCALE
 70
     0
  9
$TREEDEPTH
 70
  3020
  9
$PICKSTYLE
 70
     1
  9
$CMLSTYLE
  2
STANDARD
  9
$CMLJUST
 70
     0
  9
$CMLSCALE
 40
1.0
  9
$PROXYGRAPHICS
 70
     1
  9
$MEASUREMENT
 70
     0
  0
ENDSEC
  0
SECTION
  2
CLASSES
  0
CLASS
  1
LWPOLYLINE
  2
AcDbPolyline
  3
AutoCAD 2000
 90
        0
280
     0
281
     1
  0
CLASS
  1
IMAGE
  2
AcDbRasterImage
  3
ISM
 90
      127
280
     0
281
     1
  0
CLASS
  1
OLE2FRAME
  2
AcDbOle2Frame
  3
AutoCAD 2000
 90
        0
280
     0
281
     1
  0
CLASS
  1
HATCH
  2
AcDbHatch
  3
AutoCAD 2000
 90
        0
280
     0
281
     1
  0
CLASS
  1
DICTIONARYVAR
  2
AcDbDictionaryVar
  3
AutoCAD 2000
 90
        0
280
     0
281
     0
  0
CLASS
  1
RASTERVARIABLES
  2
AcDbRasterVariables
  3
ISM
 90
        0
280
     0
281
     0
  0
CLASS
  1
IMAGEDEF
  2
AcDbRasterImageDef
  3
ISM
 90
        0
280
     0
281
     0
  0
CLASS
  1
IMAGEDEF_REACTOR
  2
AcDbRasterImageDefReactor
  3
ISM
 90
        1
280
     0
281
     0
  0
CLASS
  1
IDBUFFER
  2
AcDbIdBuffer
  3
AutoCAD 2000
 90
        0
280
     0
281
     0
  0
CLASS
  1
SPATIAL_FILTER
  2
AcDbSpatialFilter
  3
AutoCAD 2000
 90
        0
280
     0
281
     0
  0
CLASS
  1
XRECORD
  2
AcDbXrecord
  3
AutoCAD 2000
 90
        0
280
     0
281
     0
  0
CLASS
  1
SORTENTSTABLE
  2
AcDbSortentsTable
  3
AutoCAD 2000
 90
        0
280
     0
281
     0
  0
CLASS
  1
LAYER_INDEX
  2
AcDbLayerIndex
  3
AutoCAD 2000
 90
        0
280
     0
281
     0
  0
CLASS
  1
SPATIAL_INDEX
  2
AcDbSpatialIndex
  3
AutoCAD 2000
 90
        0
280
     0
281
     0
  0
CLASS
  1
OBJECT_PTR
  2
CAseDLPNTableRecord
  3
ASE-LPNTableRecord
 90
        1
280
     0
281
     0
  0
CLASS
  1
ACDBDICTIONARYWDFLT
  2
AcDbDictionaryWithDefault
  3
AutoCAD 2000
 90
        0
280
     0
281
     0
  0
CLASS
  1
ACDBPLACEHOLDER
  2
AcDbPlaceHolder
  3
AutoCAD 2000
 90
        0
280
     0
281
     0
  0
CLASS
  1
LAYOUT
  2
AcDbLayout
  3
AutoCAD 2000
 90
        0
280
     0
281
     0
  0
CLASS
  1
LONG_TRANSACTION
  2
AcDbLongTransaction
  3
AutoCAD 2000
 90
        0
280
     0
281
     0
  0
CLASS
  1
LWPOLYLINE
  2
AcDbPolyline
  3
AutoCAD 2000
 90
        0
280
     0
281
     1
  0
CLASS
  1
HATCH
  2
AcDbHatch
  3
AutoCAD 2000
 90
        0
280
     0
281
     1
  0
CLASS
  1
XRECORD
  2
AcDbXrecord
  3
AutoCAD 2000
 90
        0
280
     0
281
     0
  0
CLASS
  1
LONG_TRANSACTION
  2
AcDbLongTransaction
  3
AutoCAD 2000
 90
        0
280
     0
281
     0
  0
CLASS
  1
LWPOLYLINE
  2
AcDbPolyline
  3
AutoCAD 2000
 90
        0
280
     0
281
     1
  0
CLASS
  1
HATCH
  2
AcDbHatch
  3
AutoCAD 2000
 90
        0
280
     0
281
     1
  0
CLASS
  1
XRECORD
  2
AcDbXrecord
  3
AutoCAD 2000
 90
        0
280
     0
281
     0
  0
CLASS
  1
LONG_TRANSACTION
  2
AcDbLongTransaction
  3
AutoCAD 2000
 90
        0
280
     0
281
     0
  0
CLASS
  1
LWPOLYLINE
  2
AcDbPolyline
  3
AutoCAD 2000
 90
        0
280
     0
281
     1
  0
CLASS
  1
HATCH
  2
AcDbHatch
  3
AutoCAD 2000
 90
        0
280
     0
281
     1
  0
CLASS
  1
XRECORD
  2
AcDbXrecord
  3
AutoCAD 2000
 90
        0
280
     0
281
     0
  0
CLASS
  1
LONG_TRANSACTION
  2
AcDbLongTransaction
  3
AutoCAD 2000
 90
        0
280
     0
281
     0
  0
CLASS
  1
LWPOLYLINE
  2
AcDbPolyline
  3
AutoCAD 2000
 90
        0
280
     0
281
     1
  0
CLASS
  1
HATCH
  2
AcDbHatch
  3
AutoCAD 2000
 90
        0
280
     0
281
     1
  0
CLASS
  1
XRECORD
  2
AcDbXrecord
  3
AutoCAD 2000
 90
        0
280
     0
281
     0
  0
CLASS
  1
LONG_TRANSACTION
  2
AcDbLongTransaction
  3
AutoCAD 2000
 90
        0
280
     0
281
     0
  0
CLASS
  1
LWPOLYLINE
  2
AcDbPolyline
  3
AutoCAD 2000
 90
        0
280
     0
281
     1
  0
CLASS
  1
HATCH
  2
AcDbHatch
  3
AutoCAD 2000
 90
        0
280
     0
281
     1
  0
CLASS
  1
XRECORD
  2
AcDbXrecord
  3
AutoCAD 2000
 90
        0
280
     0
281
     0
  0
CLASS
  1
LONG_TRANSACTION
  2
AcDbLongTransaction
  3
AutoCAD 2000
 90
        0
280
     0
281
     0
  0
CLASS
  1
LWPOLYLINE
  2
AcDbPolyline
  3
AutoCAD 2000
 90
        0
280
     0
281
     1
  0
CLASS
  1
HATCH
  2
AcDbHatch
  3
AutoCAD 2000
 90
        0
280
     0
281
     1
  0
CLASS
  1
XRECORD
  2
AcDbXrecord
  3
AutoCAD 2000
 90
        0
280
     0
281
     0
  0
ENDSEC
  0
SECTION
  2
TABLES
  0
TABLE
  2
VPORT
  5
7
330
0
100
AcDbSymbolTable
 70
     3
  0
VPORT
  5
2E
330
7
100
AcDbSymbolTableRecord
100
AcDbViewportTableRecord
  2
DCADVPORT
 70
     0
 10
29.83071417679769
 20
-5.967331179990638
 11
35.04053277292153
 21
2.552614680940412
 12
6.209999999999999
 22
9.019999999999999
 13
0.0
 23
0.0
 14
1.0
 24
1.0
 15
0.0
 25
0.0
 16
0.0
 26
0.0
 36
1.0
 17
0.0
 27
0.0
 37
0.0
 40
18.04
 41
0.688564
 42
50.0
 43
1.0
 44
1.0
 50
0.0
 51
0.0
 71
     0
 72
   100
 73
     1
 74
     1
 75
     0
 76
     0
 77
     0
 78
     0
  0
VPORT
  5
37C
330
7
100
AcDbSymbolTableRecord
100
AcDbViewportTableRecord
  2
*ACTIVE
 70
     0
 10
0.0
 20
0.0
 11
1.0
 21
1.0
 12
32.50067280725551
 22
-2.135919387775675
 13
0.0
 23
0.0
 14
1.0
 24
1.0
 15
0.0
 25
0.0
 16
0.0
 26
0.0
 36
1.0
 17
0.0
 27
0.0
 37
0.0
 40
12.54751786297884
 41
1.570528967254408
 42
50.0
 43
0.0
 44
0.0
 50
0.0
 51
0.0
 71
     0
 72
   100
 73
     1
 74
     1
 75
     0
 76
     0
 77
     0
 78
     0
  0
ENDTAB
  0
TABLE
  2
LTYPE
  5
4
330
0
100
AcDbSymbolTable
 70
     2
  0
LTYPE
  5
11
330
4
100
AcDbSymbolTableRecord
100
AcDbLinetypeTableRecord
  2
BYBLOCK
 70
     0
  3

 72
    65
 73
     0
 40
0.0
  0
LTYPE
  5
12
330
4
100
AcDbSymbolTableRecord
100
AcDbLinetypeTableRecord
  2
BYLAYER
 70
     0
  3

 72
    65
 73
     0
 40
0.0
  0
LTYPE
  5
13
330
4
100
AcDbSymbolTableRecord
100
AcDbLinetypeTableRecord
  2
CONTINUOUS
 70
     0
  3
Solid line
 72
    65
 73
     0
 40
0.0
  0
LTYPE
  5
1E
330
4
100
AcDbSymbolTableRecord
100
AcDbLinetypeTableRecord
  2
CONTINUOUS
 70
     0
  3
Solid line
 72
    65
 73
     0
 40
0.0
  0
ENDTAB
  0
TABLE
  2
LAYER
  5
2
330
0
100
AcDbSymbolTable
 70
     5
  0
LAYER
  5
14
330
2
100
AcDbSymbolTableRecord
100
AcDbLayerTableRecord
  2
0
 70
     0
 62
     7
  6
CONTINUOUS
  0
LAYER
  5
2A
330
2
100
AcDbSymbolTableRecord
100
AcDbLayerTableRecord
  2
ADP1DETAIL
 70
     0
 62
   250
  6
CONTINUOUS
  0
LAYER
  5
2B
330
2
100
AcDbSymbolTableRecord
100
AcDbLayerTableRecord
  2
DEFPOINTS
 70
     0
 62
   250
  6
CONTINUOUS
  0
LAYER
  5
2C
330
2
100
AcDbSymbolTableRecord
100
AcDbLayerTableRecord
  2
ADP2DETAIL
 70
     0
 62
   250
  6
CONTINUOUS
  0
LAYER
  5
2D
330
2
100
AcDbSymbolTableRecord
100
AcDbLayerTableRecord
  2
ADPDIM
 70
     0
 62
     3
  6
CONTINUOUS
  0
ENDTAB
  0
TABLE
  2
STYLE
  5
3
330
0
100
AcDbSymbolTable
 70
     2
  0
STYLE
  5
17
330
3
100
AcDbSymbolTableRecord
100
AcDbTextStyleTableRecord
  2
STANDARD
 70
     0
 40
0.0
 41
1.0
 50
0.0
 71
     0
 42
0.0
  3
txt
  4

  0
STYLE
  5
1E9
330
3
100
AcDbSymbolTableRecord
100
AcDbTextStyleTableRecord
  2
ARIAL_WIDE
 70
     0
 40
0.0
 41
1.25
 50
0.0
 71
     0
 42
0.2
  3
ARIAL.TTF
  4

1001
ACAD
1000
Arial
1071
       34
  0
ENDTAB
  0
TABLE
  2
VIEW
  5
5
330
0
100
AcDbSymbolTable
 70
     0
  0
ENDTAB
  0
TABLE
  2
UCS
  5
6
330
0
100
AcDbSymbolTable
 70
     0
  0
ENDTAB
  0
TABLE
  2
APPID
  5
8
330
0
100
AcDbSymbolTable
 70
     1
  0
APPID
  5
16
330
8
100
AcDbSymbolTableRecord
100
AcDbRegAppTableRecord
  2
ACAD
 70
     0
  0
ENDTAB
  0
TABLE
  2
DIMSTYLE
  5
9
330
0
100
AcDbSymbolTable
 70
     1
  0
DIMSTYLE
105
18
330
9
100
AcDbSymbolTableRecord
100
AcDbDimStyleTableRecord
  2
STANDARD
 70
     0
  3

  4

  5

  6

  7

 40
1.0
 41
0.18
 42
0.0625
 43
0.38
 44
0.18
 45
0.0
 46
0.0
 47
0.0
 48
0.0
140
0.18
141
0.09
142
0.0
143
25.4
144
1.0
145
0.0
146
1.0
147
0.09
 71
     0
 72
     0
 73
     1
 74
     1
 75
     0
 76
     0
 77
     0
 78
     0
170
     0
171
     2
172
     0
173
     0
174
     0
175
     0
176
     0
177
     0
178
     0
270
     2
271
     4
272
     4
273
     2
274
     2
340
17
275
     0
280
     0
281
     0
282
     0
283
     1
284
     0
285
     0
286
     0
287
     0
288
     0
  0
ENDTAB
  0
TABLE
  2
BLOCK_RECORD
  5
1
330
0
100
AcDbSymbolTable
 70
     0
  0
BLOCK_RECORD
  5
A
102
{ACAD_XDICTIONARY
360
240
102
}
330
1
100
AcDbSymbolTableRecord
100
AcDbBlockTableRecord
  2
*MODEL_SPACE
  0
BLOCK_RECORD
  5
B
102
{ACAD_XDICTIONARY
360
242
102
}
330
1
100
AcDbSymbolTableRecord
100
AcDbBlockTableRecord
  2
*PAPER_SPACE
  0
ENDTAB
  0
ENDSEC
  0
SECTION
  2
BLOCKS
  0
BLOCK
  5
D
330
A
100
AcDbEntity
  8
0
100
AcDbBlockBegin
  2
*MODEL_SPACE
 70
     0
 10
0.0
 20
0.0
 30
0.0
  3
*MODEL_SPACE
  1

  0
ENDBLK
  5
E
330
A
100
AcDbEntity
  8
0
100
AcDbBlockEnd
  0
BLOCK
  5
F
330
B
100
AcDbEntity
 67
     1
  8
0
100
AcDbBlockBegin
  2
*PAPER_SPACE
 70
     0
 10
0.0
 20
0.0
 30
0.0
  3
*PAPER_SPACE
  1

  0
ENDBLK
  5
10
330
B
100
AcDbEntity
 67
     1
  8
0
100
AcDbBlockEnd
  0
ENDSEC
  0
SECTION
  2
ENTITIES
  0
LWPOLYLINE
  5
2F
330
A
100
AcDbEntity
  8
ADP1DETAIL
  6
CONTINUOUS
 62
     7
100
AcDbPolyline
 90
        2
 70
   128
 43
0.0
 10
33.33340171761328
 20
1.660648978038094
 10
33.33340171761328
 20
-0.2668510219619051
  0
LWPOLYLINE
  5
33
330
A
100
AcDbEntity
  8
ADP2DETAIL
  6
CONTINUOUS
 62
     5
100
AcDbPolyline
 90
        2
 70
   128
 43
0.0
 10
32.22677671761327
 20
1.785648978038095
 10
32.22677671761327
 20
-0.8293510219619051
  0
LWPOLYLINE
  5
37
330
A
100
AcDbEntity
  8
ADP2DETAIL
  6
CONTINUOUS
 62
     5
100
AcDbPolyline
 90
        2
 70
   128
 43
0.0
 10
32.75802671761327
 20
1.785648978038095
 10
32.75802671761327
 20
-0.8293510219619051
  0
LWPOLYLINE
  5
3B
330
A
100
AcDbEntity
  8
ADP1DETAIL
  6
CONTINUOUS
 62
     7
100
AcDbPolyline
 90
        2
 70
   128
 43
0.0
 10
31.65140171761327
 20
1.660648978038094
 10
31.65140171761327
 20
-0.2668510219619051
  0
LWPOLYLINE
  5
3F
330
A
100
AcDbEntity
  8
ADP1DETAIL
  6
CONTINUOUS
 62
     7
100
AcDbPolyline
 90
        2
 70
   128
 43
0.0
 10
31.44865171761328
 20
-0.5793510219619052
 10
32.49240171761327
 20
-0.5793510219619052
  0
LWPOLYLINE
  5
43
330
A
100
AcDbEntity
  8
ADP1DETAIL
  6
CONTINUOUS
 62
     7
100
AcDbPolyline
 90
        2
 70
   128
 43
0.0
 10
32.49240171761327
 20
-0.2668510219619051
 10
31.54240171761327
 20
-0.2668510219619051
  0
LWPOLYLINE
  5
47
330
A
100
AcDbEntity
  8
ADP1DETAIL
  6
CONTINUOUS
 62
     7
100
AcDbPolyline
 90
        2
 70
   128
 43
0.0
 10
34.72714722468825
 20
-0.8293510219619051
 10
30.24240171761327
 20
-0.8293510219619051
  0
CIRCLE
  5
4B
330
A
100
AcDbEntity
  8
ADP1DETAIL
  6
CONTINUOUS
 62
     7
100
AcDbCircle
 10
-32.48477447115076
 20
-3.717331179990638
 30
0.0
 40
0.9500000000000028
210
0.0
220
0.0
230
-1.0
  0
CIRCLE
  5
4C
330
A
100
AcDbEntity
  8
ADP1DETAIL
  6
CONTINUOUS
 62
     7
100
AcDbCircle
 10
-32.48477447115076
 20
-3.717331179990638
 30
0.0
 40
0.841000000000001
210
0.0
220
0.0
230
-1.0
  0
CIRCLE
  5
4D
330
A
100
AcDbEntity
  8
ADP1DETAIL
  6
CONTINUOUS
 62
     7
100
AcDbCircle
 10
-32.48477447115076
 20
-3.717331179990638
 30
0.0
 40
0.7118939788204913
210
0.0
220
0.0
230
-1.0
  0
CIRCLE
  5
4E
330
A
100
AcDbEntity
  8
ADP1DETAIL
  6
CONTINUOUS
 62
     7
100
AcDbCircle
 10
-32.48477447115076
 20
-3.717331179990638
 30
0.0
 40
2.25
210
0.0
220
0.0
230
-1.0
  0
LWPOLYLINE
  5
4F
330
A
100
AcDbEntity
  8
ADP1DETAIL
  6
CONTINUOUS
 62
     7
100
AcDbPolyline
 90
        2
 70
   128
 43
0.0
 10
30.36740171761327
 20
-0.5793510219619052
 10
31.44865171761328
 20
-0.5793510219619052
  0
ARC
  5
53
330
A
100
AcDbEntity
  8
ADP1DETAIL
  6
CONTINUOUS
 62
     7
100
AcDbCircle
 10
-30.36740171761327
 20
-0.7043510219619052
 30
0.0
 40
0.125
210
0.0
220
0.0
230
-1.0
100
AcDbArc
 50
0.0
 51
90.0
  0
LWPOLYLINE
  5
54
330
A
100
AcDbEntity
  8
ADP1DETAIL
  6
CONTINUOUS
 62
     7
100
AcDbPolyline
 90
        2
 70
   128
 43
0.0
 10
30.24240171761327
 20
-0.8293510219619051
 10
30.24240171761327
 20
-0.7043510219619052
  0
LWPOLYLINE
  5
58
330
A
100
AcDbEntity
  8
ADP1DETAIL
  6
CONTINUOUS
 62
     7
100
AcDbPolyline
 90
        2
 70
   128
 43
0.0
 10
31.54240171761327
 20
-0.2668510219619051
 10
31.54240171761327
 20
-0.4856010219619052
  0
ARC
  5
5C
330
A
100
AcDbEntity
  8
ADP1DETAIL
  6
CONTINUOUS
 62
     7
100
AcDbCircle
 10
-31.44865171761328
 20
-0.4856010219619052
 30
0.0
 40
0.09375
210
0.0
220
0.0
230
-1.0
100
AcDbArc
 50
180.0
 51
270.0000000000008
  0
CIRCLE
  5
5D
330
A
100
AcDbEntity
  8
ADP1DETAIL
  6
CONTINUOUS
 62
     7
100
AcDbCircle
 10
-32.48477447115076
 20
-3.717331179990638
 30
0.0
 40
0.265625
210
0.0
220
0.0
230
-1.0
  0
ARC
  5
5E
330
A
100
AcDbEntity
  8
ADP1DETAIL
  6
CONTINUOUS
 62
     7
100
AcDbCircle
 10
-33.53615171761328
 20
-0.4856010219619052
 30
0.0
 40
0.09375
210
0.0
220
0.0
230
-1.0
100
AcDbArc
 50
270.0000000000008
 51
360.0000000000008
  0
LWPOLYLINE
  5
5F
330
A
100
AcDbEntity
  8
ADP1DETAIL
  6
CONTINUOUS
 62
     7
100
AcDbPolyline
 90
        2
 70
   128
 43
0.0
 10
33.53615171761328
 20
-0.5793510219619052
 10
32.49240171761327
 20
-0.5793510219619052
  0
LWPOLYLINE
  5
63
330
A
100
AcDbEntity
  8
ADP1DETAIL
  6
CONTINUOUS
 62
     7
100
AcDbPolyline
 90
        2
 70
   128
 43
0.0
 10
32.49240171761327
 20
-0.2668510219619051
 10
33.44240171761327
 20
-0.2668510219619051
  0
LWPOLYLINE
  5
67
330
A
100
AcDbEntity
  8
ADP1DETAIL
  6
CONTINUOUS
 62
     7
100
AcDbPolyline
 90
        2
 70
   128
 43
0.0
 10
33.44240171761327
 20
-0.2668510219619051
 10
33.44240171761327
 20
-0.4856010219619052
  0
LWPOLYLINE
  5
6B
330
A
100
AcDbEntity
  8
ADP1DETAIL
  6
CONTINUOUS
 62
     7
100
AcDbPolyline
 90
        2
 70
   128
 43
0.0
 10
34.61740171761327
 20
-0.5793510219619052
 10
33.53615171761328
 20
-0.5793510219619052
  0
LWPOLYLINE
  5
6F
330
A
100
AcDbEntity
  8
ADP1DETAIL
  6
CONTINUOUS
 62
     7
100
AcDbPolyline
 90
        2
 70
   128
 43
0.0
 10
34.74240171761327
 20
-0.8293510219619051
 10
34.74240171761327
 20
-0.7043510219619052
  0
ARC
  5
73
330
A
100
AcDbEntity
  8
ADP1DETAIL
  6
CONTINUOUS
 62
     7
100
AcDbCircle
 10
-34.61740171761327
 20
-0.7043510219619052
 30
0.0
 40
0.125
210
0.0
220
0.0
230
-1.0
100
AcDbArc
 50
90.0
 51
180.0
  0
LWPOLYLINE
  5
74
330
A
100
AcDbEntity
  8
ADP1DETAIL
  6
CONTINUOUS
 62
     7
100
AcDbPolyline
 90
        2
 70
   128
 43
0.0
 10
33.33340171761328
 20
1.660648978038094
 10
31.65140171761327
 20
1.660648978038094
  0
LWPOLYLINE
  5
78
330
A
100
AcDbEntity
  8
ADP1DETAIL
  6
CONTINUOUS
 62
     7
100
AcDbPolyline
 90
        2
 70
   128
 43
0.0
 10
33.178801745071
 20
1.785648978038095
 10
31.77640171761327
 20
1.785648978038095
  0
LWPOLYLINE
  5
7C
330
A
100
AcDbEntity
  8
ADP1DETAIL
  6
CONTINUOUS
 62
     7
100
AcDbPolyline
 90
        2
 70
   128
 43
0.0
 10
31.65140171761327
 20
1.660648978038094
 10
31.77640171761327
 20
1.785648978038095
  0
LWPOLYLINE
  5
80
330
A
100
AcDbEntity
  8
ADP1DETAIL
  6
CONTINUOUS
 62
     7
100
AcDbPolyline
 90
        2
 70
   128
 43
0.0
 10
31.70390171761328
 20
0.4192324903297933
 10
31.70390171761328
 20
0.6067324903297933
  0
LWPOLYLINE
  5
84
330
A
100
AcDbEntity
  8
ADP1DETAIL
  6
CONTINUOUS
 62
     7
100
AcDbPolyline
 90
        2
 70
   128
 43
0.0
 10
32.05240171761328
 20
0.4192324903297933
 10
32.05240171761328
 20
0.6067324903297933
  0
LWPOLYLINE
  5
88
330
A
100
AcDbEntity
  8
ADP1DETAIL
  6
CONTINUOUS
 62
     7
100
AcDbPolyline
 90
        2
 70
   128
 43
0.0
 10
31.98990171761327
 20
0.4192324903297933
 10
31.98990171761327
 20
0.6067324903297933
  0
LWPOLYLINE
  5
8C
330
A
100
AcDbEntity
  8
ADP1DETAIL
  6
CONTINUOUS
 62
     7
100
AcDbPolyline
 90
        2
 70
   128
 43
0.0
 10
31.82890171761327
 20
0.4192324903297933
 10
31.82890171761327
 20
0.6067324903297933
  0
LWPOLYLINE
  5
90
330
A
100
AcDbEntity
  8
ADP1DETAIL
  6
CONTINUOUS
 62
     7
100
AcDbPolyline
 90
        2
 70
   128
 43
0.0
 10
31.89140171761327
 20
0.4192324903297933
 10
31.89140171761327
 20
0.6067324903297933
  0
LWPOLYLINE
  5
94
330
A
100
AcDbEntity
  8
ADP1DETAIL
  6
CONTINUOUS
 62
     7
100
AcDbPolyline
 90
        2
 70
   128
 43
0.0
 10
31.76640171761327
 20
0.4192324903297933
 10
31.76640171761327
 20
0.6067324903297933
  0
LWPOLYLINE
  5
98
330
A
100
AcDbEntity
  8
ADP1DETAIL
  6
CONTINUOUS
 62
     7
100
AcDbPolyline
 90
        2
 70
   128
 43
0.0
 10
33.33340171761328
 20
1.660648978038094
 10
33.20840171761327
 20
1.785648978038095
  0
LWPOLYLINE
  5
9C
330
A
100
AcDbEntity
  8
ADP1DETAIL
  6
CONTINUOUS
 62
     7
100
AcDbPolyline
 90
        2
 70
   128
 43
0.0
 10
32.36490171761328
 20
0.4192324903297933
 10
32.36490171761328
 20
0.6067324903297933
  0
LWPOLYLINE
  5
A0
330
A
100
AcDbEntity
  8
ADP1DETAIL
  6
CONTINUOUS
 62
     7
100
AcDbPolyline
 90
        2
 70
   128
 43
0.0
 10
32.30240171761328
 20
0.4192324903297933
 10
32.30240171761328
 20
0.6067324903297933
  0
LWPOLYLINE
  5
A4
330
A
100
AcDbEntity
  8
ADP1DETAIL
  6
CONTINUOUS
 62
     7
100
AcDbPolyline
 90
        2
 70
   128
 43
0.0
 10
32.23990171761327
 20
0.4192324903297933
 10
32.23990171761327
 20
0.6067324903297933
  0
LWPOLYLINE
  5
A8
330
A
100
AcDbEntity
  8
ADP1DETAIL
  6
CONTINUOUS
 62
     7
100
AcDbPolyline
 90
        2
 70
   128
 43
0.0
 10
32.17740171761327
 20
0.4192324903297933
 10
32.17740171761327
 20
0.6067324903297933
  0
LWPOLYLINE
  5
AC
330
A
100
AcDbEntity
  8
ADP1DETAIL
  6
CONTINUOUS
 62
     7
100
AcDbPolyline
 90
        2
 70
   128
 43
0.0
 10
32.11490171761328
 20
0.4192324903297933
 10
32.11490171761328
 20
0.6067324903297933
  0
LWPOLYLINE
  5
B0
330
A
100
AcDbEntity
  8
ADP1DETAIL
  6
CONTINUOUS
 62
     7
100
AcDbPolyline
 90
        2
 70
   128
 43
0.0
 10
32.55490171761327
 20
0.4206489780380949
 10
32.55490171761327
 20
0.6081489780380949
  0
LWPOLYLINE
  5
B4
330
A
100
AcDbEntity
  8
ADP1DETAIL
  6
CONTINUOUS
 62
     7
100
AcDbPolyline
 90
        2
 70
   128
 43
0.0
 10
32.61740171761327
 20
0.4206489780380949
 10
32.61740171761327
 20
0.6081489780380949
  0
LWPOLYLINE
  5
B8
330
A
100
AcDbEntity
  8
ADP1DETAIL
  6
CONTINUOUS
 62
     7
100
AcDbPolyline
 90
        2
 70
   128
 43
0.0
 10
32.67990171761327
 20
0.4206489780380949
 10
32.67990171761327
 20
0.6081489780380949
  0
LWPOLYLINE
  5
BC
330
A
100
AcDbEntity
  8
ADP1DETAIL
  6
CONTINUOUS
 62
     7
100
AcDbPolyline
 90
        2
 70
   128
 43
0.0
 10
32.74240171761327
 20
0.4206489780380949
 10
32.74240171761327
 20
0.6081489780380949
  0
LWPOLYLINE
  5
C0
330
A
100
AcDbEntity
  8
ADP1DETAIL
  6
CONTINUOUS
 62
     7
100
AcDbPolyline
 90
        2
 70
   128
 43
0.0
 10
32.42740171761328
 20
0.4192324903297933
 10
32.42740171761328
 20
0.6067324903297933
  0
LWPOLYLINE
  5
C4
330
A
100
AcDbEntity
  8
ADP1DETAIL
  6
CONTINUOUS
 62
     7
100
AcDbPolyline
 90
        2
 70
   128
 43
0.0
 10
32.49240171761327
 20
0.4206489780380949
 10
32.49240171761327
 20
0.6081489780380949
  0
LWPOLYLINE
  5
C8
330
A
100
AcDbEntity
  8
ADP1DETAIL
  6
CONTINUOUS
 62
     7
100
AcDbPolyline
 90
        2
 70
   128
 43
0.0
 10
32.92990171761327
 20
0.4206489780380949
 10
32.92990171761327
 20
0.6081489780380949
  0
LWPOLYLINE
  5
CC
330
A
100
AcDbEntity
  8
ADP1DETAIL
  6
CONTINUOUS
 62
     7
100
AcDbPolyline
 90
        2
 70
   128
 43
0.0
 10
32.99240171761327
 20
0.4206489780380949
 10
32.99240171761327
 20
0.6081489780380949
  0
LWPOLYLINE
  5
D0
330
A
100
AcDbEntity
  8
ADP1DETAIL
  6
CONTINUOUS
 62
     7
100
AcDbPolyline
 90
        2
 70
   128
 43
0.0
 10
33.05490171761327
 20
0.4206489780380949
 10
33.05490171761327
 20
0.6081489780380949
  0
LWPOLYLINE
  5
D4
330
A
100
AcDbEntity
  8
ADP1DETAIL
  6
CONTINUOUS
 62
     7
100
AcDbPolyline
 90
        2
 70
   128
 43
0.0
 10
32.80490171761327
 20
0.4206489780380949
 10
32.80490171761327
 20
0.6081489780380949
  0
LWPOLYLINE
  5
D8
330
A
100
AcDbEntity
  8
ADP1DETAIL
  6
CONTINUOUS
 62
     7
100
AcDbPolyline
 90
        2
 70
   128
 43
0.0
 10
32.86740171761327
 20
0.4206489780380949
 10
32.86740171761327
 20
0.6081489780380949
  0
LWPOLYLINE
  5
DC
330
A
100
AcDbEntity
  8
ADP1DETAIL
  6
CONTINUOUS
 62
     7
100
AcDbPolyline
 90
        2
 70
   128
 43
0.0
 10
33.27840171761327
 20
0.4206489780380949
 10
33.27840171761327
 20
0.6081489780380949
  0
LWPOLYLINE
  5
E0
330
A
100
AcDbEntity
  8
ADP1DETAIL
  6
CONTINUOUS
 62
     7
100
AcDbPolyline
 90
        2
 70
   128
 43
0.0
 10
33.21590171761327
 20
0.4206489780380949
 10
33.21590171761327
 20
0.6081489780380949
  0
LWPOLYLINE
  5
E4
330
A
100
AcDbEntity
  8
ADP1DETAIL
  6
CONTINUOUS
 62
     7
100
AcDbPolyline
 90
        2
 70
   128
 43
0.0
 10
33.15340171761327
 20
0.4206489780380949
 10
33.15340171761327
 20
0.6081489780380949
  0
LWPOLYLINE
  5
E8
330
A
100
AcDbEntity
  8
ADPDIM
  6
CONTINUOUS
 62
     3
 48
0.125
100
AcDbPolyline
 90
        2
 70
   128
 43
0.0
 10
33.27090171761327
 20
1.785648978038095
 10
35.04053277292153
 20
1.785648978038094
  0
LWPOLYLINE
  5
EC
330
A
100
AcDbEntity
  8
ADPDIM
  6
CONTINUOUS
 62
     3
 48
0.125
100
AcDbPolyline
 90
        2
 70
   128
 43
0.0
 10
34.80490171761327
 20
-0.8293510219619051
 10
35.04053277292153
 20
-0.8293510219619051
  0
LWPOLYLINE
  5
F0
330
A
100
AcDbEntity
  8
ADPDIM
  6
CONTINUOUS
 62
     3
 48
0.125
100
AcDbPolyline
 90
        2
 70
   128
 43
0.0
 10
34.86053277292153
 20
1.785648978038094
 10
34.86053277292153
 20
0.8948156447047615
  0
LWPOLYLINE
  5
F4
330
A
100
AcDbEntity
  8
ADPDIM
  6
CONTINUOUS
 62
     3
 48
0.125
100
AcDbPolyline
 90
        2
 70
   128
 43
0.0
 10
34.86053277292153
 20
-0.8293510219619051
 10
34.86053277292153
 20
0.0614823113714282
  0
LWPOLYLINE
  5
F8
330
A
100
AcDbEntity
  8
ADPDIM
  6
CONTINUOUS
 62
     3
 48
0.125
100
AcDbPolyline
 90
        2
 70
   128
 43
0.0
 10
34.98553277292153
 20
1.660648978038094
 10
34.73553277292154
 20
1.910648978038094
  0
LWPOLYLINE
  5
FC
330
A
100
AcDbEntity
  8
ADPDIM
  6
CONTINUOUS
 62
     3
 48
0.125
100
AcDbPolyline
 90
        2
 70
   128
 43
0.0
 10
34.98553277292153
 20
-0.9543510219619051
 10
34.73553277292154
 20
-0.7043510219619052
  0
TEXT
  5
100
330
A
100
AcDbEntity
  8
ADPDIM
 62
     3
 48
0.0
100
AcDbText
 10
34.92303277292153
 20
0.1864823113714282
 30
0.0
 40
0.125
  1
2 5/8
 50
90.0
 72
     5
 11
34.92303277292153
 21
0.7698156447047616
 31
0.0
100
AcDbText
  0
LWPOLYLINE
  5
101
330
A
100
AcDbEntity
  8
ADPDIM
  6
CONTINUOUS
 62
     3
 48
0.125
100
AcDbPolyline
 90
        2
 70
   128
 43
0.0
 10
31.47990171761327
 20
-0.2668510219619051
 10
29.83071417679769
 20
-0.266851021961905
  0
LWPOLYLINE
  5
105
330
A
100
AcDbEntity
  8
ADPDIM
  6
CONTINUOUS
 62
     3
 48
0.125
100
AcDbPolyline
 90
        2
 70
   128
 43
0.0
 10
30.17990171761327
 20
-0.8293510219619051
 10
29.83071417679769
 20
-0.8293510219619049
  0
LWPOLYLINE
  5
109
330
A
100
AcDbEntity
  8
ADPDIM
  6
CONTINUOUS
 62
     3
 48
0.125
100
AcDbPolyline
 90
        2
 70
   128
 43
0.0
 10
30.01071417679769
 20
-0.266851021961905
 10
30.01071417679769
 20
-0.016851021961905
  0
LWPOLYLINE
  5
10D
330
A
100
AcDbEntity
  8
ADPDIM
  6
CONTINUOUS
 62
     3
 48
0.125
100
AcDbPolyline
 90
        2
 70
   128
 43
0.0
 10
30.01071417679769
 20
-0.8293510219619051
 10
30.01071417679769
 20
-1.079351021961905
  0
LWPOLYLINE
  5
111
330
A
100
AcDbEntity
  8
ADPDIM
  6
CONTINUOUS
 62
     3
 48
0.125
100
AcDbPolyline
 90
        2
 70
   128
 43
0.0
 10
30.13571417679769
 20
-0.391851021961905
 10
29.88571417679769
 20
-0.141851021961905
  0
LWPOLYLINE
  5
115
330
A
100
AcDbEntity
  8
ADPDIM
  6
CONTINUOUS
 62
     3
 48
0.125
100
AcDbPolyline
 90
        2
 70
   128
 43
0.0
 10
30.13571417679769
 20
-0.9543510219619051
 10
29.88571417679769
 20
-0.7043510219619051
  0
TEXT
  5
119
330
A
100
AcDbEntity
  8
ADPDIM
 62
     3
 48
0.0
100
AcDbText
 10
30.07321417679769
 20
-1.621017688628571
 30
0.0
 40
0.125
  1
9/16
 50
90.0
 72
     5
 11
30.07321417679769
 21
-1.204351021961905
 31
0.0
100
AcDbText
  0
LWPOLYLINE
  5
11A
330
A
100
AcDbEntity
  8
ADPDIM
  6
CONTINUOUS
 62
     3
 48
0.125
100
AcDbPolyline
 90
        2
 70
   128
 43
0.0
 10
31.54240171761327
 20
-0.2043510219619051
 10
31.54240171761327
 20
2.552614680940412
  0
LWPOLYLINE
  5
11E
330
A
100
AcDbEntity
  8
ADPDIM
  6
CONTINUOUS
 62
     3
 48
0.125
100
AcDbPolyline
 90
        2
 70
   128
 43
0.0
 10
33.44240171761327
 20
-0.2043510219619051
 10
33.44240171761327
 20
2.552614680940412
  0
LWPOLYLINE
  5
122
330
A
100
AcDbEntity
  8
ADPDIM
  6
CONTINUOUS
 62
     3
 48
0.125
100
AcDbPolyline
 90
        2
 70
   128
 43
0.0
 10
31.54240171761327
 20
2.372614680940412
 10
32.15906838427994
 20
2.372614680940412
  0
LWPOLYLINE
  5
126
330
A
100
AcDbEntity
  8
ADPDIM
  6
CONTINUOUS
 62
     3
 48
0.125
100
AcDbPolyline
 90
        2
 70
   128
 43
0.0
 10
33.44240171761327
 20
2.372614680940412
 10
32.82573505094661
 20
2.372614680940412
  0
LWPOLYLINE
  5
12A
330
A
100
AcDbEntity
  8
ADPDIM
  6
CONTINUOUS
 62
     3
 48
0.125
100
AcDbPolyline
 90
        2
 70
   128
 43
0.0
 10
31.41740171761327
 20
2.247614680940412
 10
31.66740171761327
 20
2.497614680940412
  0
LWPOLYLINE
  5
12E
330
A
100
AcDbEntity
  8
ADPDIM
  6
CONTINUOUS
 62
     3
 48
0.125
100
AcDbPolyline
 90
        2
 70
   128
 43
0.0
 10
33.31740171761328
 20
2.247614680940412
 10
33.56740171761328
 20
2.497614680940412
  0
TEXT
  5
132
330
A
100
AcDbEntity
  8
ADPDIM
 62
     3
 48
0.0
100
AcDbText
 10
32.28406838427994
 20
2.310114680940412
 30
0.0
 40
0.125
  1
1.900
 72
     5
 11
32.70073505094661
 21
2.310114680940412
 31
0.0
100
AcDbText
  0
LWPOLYLINE
  5
133
330
A
100
AcDbEntity
  8
ADPDIM
  6
CONTINUOUS
 62
     3
 48
0.125
100
AcDbPolyline
 90
        2
 70
   128
 43
0.0
 10
30.24240171761327
 20
-0.8918510219619051
 10
30.24240171761327
 20
-1.355329322544083
  0
LWPOLYLINE
  5
137
330
A
100
AcDbEntity
  8
ADPDIM
  6
CONTINUOUS
 62
     3
 48
0.125
100
AcDbPolyline
 90
        2
 70
   128
 43
0.0
 10
34.72714722468825
 20
-0.8918510219619051
 10
34.72714722468825
 20
-1.355329322544083
  0
LWPOLYLINE
  5
13B
330
A
100
AcDbEntity
  8
ADPDIM
  6
CONTINUOUS
 62
     3
 48
0.125
100
AcDbPolyline
 90
        2
 70
   128
 43
0.0
 10
30.24240171761327
 20
-1.175329322544083
 10
32.08894113781743
 20
-1.175329322544083
  0
LWPOLYLINE
  5
13F
330
A
100
AcDbEntity
  8
ADPDIM
  6
CONTINUOUS
 62
     3
 48
0.125
100
AcDbPolyline
 90
        2
 70
   128
 43
0.0
 10
34.72714722468825
 20
-1.175329322544083
 10
32.8806078044841
 20
-1.175329322544083
  0
LWPOLYLINE
  5
143
330
A
100
AcDbEntity
  8
ADPDIM
  6
CONTINUOUS
 62
     3
 48
0.125
100
AcDbPolyline
 90
        2
 70
   128
 43
0.0
 10
30.11740171761327
 20
-1.300329322544083
 10
30.36740171761327
 20
-1.050329322544083
  0
LWPOLYLINE
  5
147
330
A
100
AcDbEntity
  8
ADPDIM
  6
CONTINUOUS
 62
     3
 48
0.125
100
AcDbPolyline
 90
        2
 70
   128
 43
0.0
 10
34.60214722468826
 20
-1.300329322544083
 10
34.85214722468826
 20
-1.050329322544083
  0
TEXT
  5
14B
330
A
100
AcDbEntity
  8
ADPDIM
 62
     3
 48
0.0
100
AcDbText
 10
32.21394113781743
 20
-1.237829322544083
 30
0.0
 40
0.125
  1
4 1/2
 72
     5
 11
32.7556078044841
 21
-1.237829322544083
 31
0.0
100
AcDbText
  0
LWPOLYLINE
  5
14C
330
A
100
AcDbEntity
  8
ADPDIM
  6
CONTINUOUS
 62
     3
 48
0.125
100
AcDbPolyline
 90
        2
 70
   128
 43
0.0
 10
31.65140171761327
 20
1.723148978038094
 10
31.65140171761327
 20
2.175959401425139
  0
LWPOLYLINE
  5
150
330
A
100
AcDbEntity
  8
ADPDIM
  6
CONTINUOUS
 62
     3
 48
0.125
100
AcDbPolyline
 90
        2
 70
   128
 43
0.0
 10
33.33340171761328
 20
1.723148978038094
 10
33.33340171761328
 20
2.175959401425139
  0
LWPOLYLINE
  5
154
330
A
100
AcDbEntity
  8
ADPDIM
  6
CONTINUOUS
 62
     3
 48
0.125
100
AcDbPolyline
 90
        2
 70
   128
 43
0.0
 10
31.65140171761327
 20
1.995959401425139
 10
32.03406838427994
 20
1.995959401425139
  0
LWPOLYLINE
  5
158
330
A
100
AcDbEntity
  8
ADPDIM
  6
CONTINUOUS
 62
     3
 48
0.125
100
AcDbPolyline
 90
        2
 70
   128
 43
0.0
 10
33.33340171761328
 20
1.995959401425139
 10
32.95073505094661
 20
1.995959401425139
  0
LWPOLYLINE
  5
15C
330
A
100
AcDbEntity
  8
ADPDIM
  6
CONTINUOUS
 62
     3
 48
0.125
100
AcDbPolyline
 90
        2
 70
   128
 43
0.0
 10
31.52640171761327
 20
1.870959401425139
 10
31.77640171761327
 20
2.120959401425138
  0
LWPOLYLINE
  5
160
330
A
100
AcDbEntity
  8
ADPDIM
  6
CONTINUOUS
 62
     3
 48
0.125
100
AcDbPolyline
 90
        2
 70
   128
 43
0.0
 10
33.20840171761327
 20
1.870959401425139
 10
33.45840171761327
 20
2.120959401425138
  0
TEXT
  5
164
330
A
100
AcDbEntity
  8
ADPDIM
 62
     3
 48
0.0
100
AcDbText
 10
32.15906838427994
 20
1.933459401425139
 30
0.0
 40
0.125
  1
1 11/16
 72
     5
 11
32.82573505094661
 21
1.933459401425139
 31
0.0
100
AcDbText
  0
LWPOLYLINE
  5
165
330
A
100
AcDbEntity
  8
DEFPOINTS
  6
CONTINUOUS
 62
     3
 48
0.125
100
AcDbPolyline
 90
        2
 70
   128
 43
0.0
 10
33.20840171761327
 20
1.785648978038095
 10
33.20840171761327
 20
1.785648978038095
  0
LWPOLYLINE
  5
169
330
A
100
AcDbEntity
  8
DEFPOINTS
  6
CONTINUOUS
 62
     3
 48
0.125
100
AcDbPolyline
 90
        2
 70
   128
 43
0.0
 10
33.20840171761327
 20
1.785648978038095
 10
33.20840171761327
 20
1.785648978038095
  0
LWPOLYLINE
  5
16D
330
A
100
AcDbEntity
  8
DEFPOINTS
  6
CONTINUOUS
 62
     3
 48
0.125
100
AcDbPolyline
 90
        2
 70
   128
 43
0.0
 10
34.74240171761327
 20
-0.8293510219619054
 10
34.74240171761327
 20
-0.8293510219619054
  0
LWPOLYLINE
  5
171
330
A
100
AcDbEntity
  8
DEFPOINTS
  6
CONTINUOUS
 62
     3
 48
0.125
100
AcDbPolyline
 90
        2
 70
   128
 43
0.0
 10
34.74240171761327
 20
-0.8293510219619054
 10
34.74240171761327
 20
-0.8293510219619054
  0
LWPOLYLINE
  5
175
330
A
100
AcDbEntity
  8
DEFPOINTS
  6
CONTINUOUS
 62
     3
 48
0.125
100
AcDbPolyline
 90
        2
 70
   128
 43
0.0
 10
34.86053277292153
 20
-0.8293510219619054
 10
34.86053277292153
 20
-0.8293510219619054
  0
LWPOLYLINE
  5
179
330
A
100
AcDbEntity
  8
DEFPOINTS
  6
CONTINUOUS
 62
     3
 48
0.125
100
AcDbPolyline
 90
        2
 70
   128
 43
0.0
 10
34.86053277292153
 20
-0.8293510219619054
 10
34.86053277292153
 20
-0.8293510219619054
  0
LWPOLYLINE
  5
17D
330
A
100
AcDbEntity
  8
DEFPOINTS
  6
CONTINUOUS
 62
     3
 48
0.125
100
AcDbPolyline
 90
        2
 70
   128
 43
0.0
 10
31.54240171761327
 20
-0.2668510219619056
 10
31.54240171761327
 20
-0.2668510219619056
  0
LWPOLYLINE
  5
181
330
A
100
AcDbEntity
  8
DEFPOINTS
  6
CONTINUOUS
 62
     3
 48
0.125
100
AcDbPolyline
 90
        2
 70
   128
 43
0.0
 10
31.54240171761327
 20
-0.2668510219619056
 10
31.54240171761327
 20
-0.2668510219619056
  0
LWPOLYLINE
  5
185
330
A
100
AcDbEntity
  8
DEFPOINTS
  6
CONTINUOUS
 62
     3
 48
0.125
100
AcDbPolyline
 90
        2
 70
   128
 43
0.0
 10
30.24240171761328
 20
-0.8293510219619054
 10
30.24240171761328
 20
-0.8293510219619054
  0
LWPOLYLINE
  5
189
330
A
100
AcDbEntity
  8
DEFPOINTS
  6
CONTINUOUS
 62
     3
 48
0.125
100
AcDbPolyline
 90
        2
 70
   128
 43
0.0
 10
30.24240171761328
 20
-0.8293510219619054
 10
30.24240171761328
 20
-0.8293510219619054
  0
LWPOLYLINE
  5
18D
330
A
100
AcDbEntity
  8
DEFPOINTS
  6
CONTINUOUS
 62
     3
 48
0.125
100
AcDbPolyline
 90
        2
 70
   128
 43
0.0
 10
30.01071417679769
 20
-0.8293510219619054
 10
30.01071417679769
 20
-0.8293510219619054
  0
LWPOLYLINE
  5
191
330
A
100
AcDbEntity
  8
DEFPOINTS
  6
CONTINUOUS
 62
     3
 48
0.125
100
AcDbPolyline
 90
        2
 70
   128
 43
0.0
 10
30.01071417679769
 20
-0.8293510219619054
 10
30.01071417679769
 20
-0.8293510219619054
  0
LWPOLYLINE
  5
195
330
A
100
AcDbEntity
  8
DEFPOINTS
  6
CONTINUOUS
 62
     3
 48
0.125
100
AcDbPolyline
 90
        2
 70
   128
 43
0.0
 10
31.54240171761327
 20
-0.2668510219619056
 10
31.54240171761327
 20
-0.2668510219619056
  0
LWPOLYLINE
  5
199
330
A
100
AcDbEntity
  8
DEFPOINTS
  6
CONTINUOUS
 62
     3
 48
0.125
100
AcDbPolyline
 90
        2
 70
   128
 43
0.0
 10
31.54240171761327
 20
-0.2668510219619056
 10
31.54240171761327
 20
-0.2668510219619056
  0
LWPOLYLINE
  5
19D
330
A
100
AcDbEntity
  8
DEFPOINTS
  6
CONTINUOUS
 62
     3
 48
0.125
100
AcDbPolyline
 90
        2
 70
   128
 43
0.0
 10
33.44240171761327
 20
-0.2668510219619056
 10
33.44240171761327
 20
-0.2668510219619056
  0
LWPOLYLINE
  5
1A1
330
A
100
AcDbEntity
  8
DEFPOINTS
  6
CONTINUOUS
 62
     3
 48
0.125
100
AcDbPolyline
 90
        2
 70
   128
 43
0.0
 10
33.44240171761327
 20
-0.2668510219619056
 10
33.44240171761327
 20
-0.2668510219619056
  0
LWPOLYLINE
  5
1A5
330
A
100
AcDbEntity
  8
DEFPOINTS
  6
CONTINUOUS
 62
     3
 48
0.125
100
AcDbPolyline
 90
        2
 70
   128
 43
0.0
 10
33.44240171761327
 20
2.372614680940412
 10
33.44240171761327
 20
2.372614680940412
  0
LWPOLYLINE
  5
1A9
330
A
100
AcDbEntity
  8
DEFPOINTS
  6
CONTINUOUS
 62
     3
 48
0.125
100
AcDbPolyline
 90
        2
 70
   128
 43
0.0
 10
33.44240171761327
 20
2.372614680940412
 10
33.44240171761327
 20
2.372614680940412
  0
LWPOLYLINE
  5
1AD
330
A
100
AcDbEntity
  8
DEFPOINTS
  6
CONTINUOUS
 62
     3
 48
0.125
100
AcDbPolyline
 90
        2
 70
   128
 43
0.0
 10
30.24240171761328
 20
-0.8293510219619054
 10
30.24240171761328
 20
-0.8293510219619054
  0
LWPOLYLINE
  5
1B1
330
A
100
AcDbEntity
  8
DEFPOINTS
  6
CONTINUOUS
 62
     3
 48
0.125
100
AcDbPolyline
 90
        2
 70
   128
 43
0.0
 10
30.24240171761328
 20
-0.8293510219619054
 10
30.24240171761328
 20
-0.8293510219619054
  0
LWPOLYLINE
  5
1B5
330
A
100
AcDbEntity
  8
DEFPOINTS
  6
CONTINUOUS
 62
     3
 48
0.125
100
AcDbPolyline
 90
        2
 70
   128
 43
0.0
 10
34.72714722468825
 20
-0.8293510219619054
 10
34.72714722468825
 20
-0.8293510219619054
  0
LWPOLYLINE
  5
1B9
330
A
100
AcDbEntity
  8
DEFPOINTS
  6
CONTINUOUS
 62
     3
 48
0.125
100
AcDbPolyline
 90
        2
 70
   128
 43
0.0
 10
34.72714722468825
 20
-0.8293510219619054
 10
34.72714722468825
 20
-0.8293510219619054
  0
LWPOLYLINE
  5
1BD
330
A
100
AcDbEntity
  8
DEFPOINTS
  6
CONTINUOUS
 62
     3
 48
0.125
100
AcDbPolyline
 90
        2
 70
   128
 43
0.0
 10
34.72714722468825
 20
-1.175329322544084
 10
34.72714722468825
 20
-1.175329322544084
  0
LWPOLYLINE
  5
1C1
330
A
100
AcDbEntity
  8
DEFPOINTS
  6
CONTINUOUS
 62
     3
 48
0.125
100
AcDbPolyline
 90
        2
 70
   128
 43
0.0
 10
34.72714722468825
 20
-1.175329322544084
 10
34.72714722468825
 20
-1.175329322544084
  0
LWPOLYLINE
  5
1C5
330
A
100
AcDbEntity
  8
DEFPOINTS
  6
CONTINUOUS
 62
     3
 48
0.125
100
AcDbPolyline
 90
        2
 70
   128
 43
0.0
 10
31.65140171761327
 20
1.660648978038094
 10
31.65140171761327
 20
1.660648978038094
  0
LWPOLYLINE
  5
1C9
330
A
100
AcDbEntity
  8
DEFPOINTS
  6
CONTINUOUS
 62
     3
 48
0.125
100
AcDbPolyline
 90
        2
 70
   128
 43
0.0
 10
31.65140171761327
 20
1.660648978038094
 10
31.65140171761327
 20
1.660648978038094
  0
LWPOLYLINE
  5
1CD
330
A
100
AcDbEntity
  8
DEFPOINTS
  6
CONTINUOUS
 62
     3
 48
0.125
100
AcDbPolyline
 90
        2
 70
   128
 43
0.0
 10
33.33340171761328
 20
1.660648978038094
 10
33.33340171761328
 20
1.660648978038094
  0
LWPOLYLINE
  5
1D1
330
A
100
AcDbEntity
  8
DEFPOINTS
  6
CONTINUOUS
 62
     3
 48
0.125
100
AcDbPolyline
 90
        2
 70
   128
 43
0.0
 10
33.33340171761328
 20
1.660648978038094
 10
33.33340171761328
 20
1.660648978038094
  0
LWPOLYLINE
  5
1D5
330
A
100
AcDbEntity
  8
DEFPOINTS
  6
CONTINUOUS
 62
     3
 48
0.125
100
AcDbPolyline
 90
        2
 70
   128
 43
0.0
 10
33.33340171761328
 20
1.995959401425139
 10
33.33340171761328
 20
1.995959401425139
  0
LWPOLYLINE
  5
1D9
330
A
100
AcDbEntity
  8
DEFPOINTS
  6
CONTINUOUS
 62
     3
 48
0.125
100
AcDbPolyline
 90
        2
 70
   128
 43
0.0
 10
33.33340171761328
 20
1.995959401425139
 10
33.33340171761328
 20
1.995959401425139
  0
TEXT
  5
1EA
330
A
100
AcDbEntity
  8
ADPDIM
100
AcDbText
 10
22.69618093431585
 20
-6.768539066798552
 30
0.0
 40
0.1875
  1
J U L I U S  B L U M  &  C O . ,  I N C .      ( 8 0 0 )  5 2 6 - 6 2 9 3        W W W . J U L I U S B L U M . C O M        P A R T  N o .  7 2 7 0
 41
1.25
  7
ARIAL_WIDE
 72
     1
 11
32.48477447115077
 21
-6.581039066798552
 31
0.0
100
AcDbText
 73
     3
  0
ENDSEC
  0
SECTION
  2
OBJECTS
  0
DICTIONARY
  5
19
330
0
100
AcDbDictionary
  3
ACAD_GROUP
350
1A
  3
ACAD_LAYOUT
350
1E2
  3
ACAD_MLINESTYLE
350
1B
  3
ACAD_PLOTSETTINGS
350
1E3
  3
ACAD_PLOTSTYLENAME
350
1E0
  3
ACDBHEADERROUNDTRIPXREC
350
37D
  3
ACDBVARIABLEDICTIONARY
350
24C
  0
DICTIONARY
  5
240
330
A
100
AcDbDictionary
280
     1
  3
ACAD_LAYOUTSELFREF
360
39D
  0
DICTIONARY
  5
242
330
B
100
AcDbDictionary
280
     1
  3
ACAD_LAYOUTSELFREF
360
39E
  0
DICTIONARY
  5
1A
102
{ACAD_REACTORS
330
19
102
}
330
19
100
AcDbDictionary
  0
DICTIONARY
  5
1E2
102
{ACAD_REACTORS
330
19
102
}
330
19
100
AcDbDictionary
  0
DICTIONARY
  5
1B
102
{ACAD_REACTORS
330
19
102
}
330
19
100
AcDbDictionary
  3
STANDARD
350
1C
  0
DICTIONARY
  5
1E3
102
{ACAD_REACTORS
330
19
102
}
330
19
100
AcDbDictionary
  0
ACDBDICTIONARYWDFLT
  5
1E0
102
{ACAD_REACTORS
330
19
102
}
330
19
100
AcDbDictionary
281
     1
  3
Normal
350
1E1
100
AcDbDictionaryWithDefault
340
1E1
  0
DICTIONARY
  5
37D
102
{ACAD_REACTORS
330
19
102
}
330
19
100
AcDbDictionary
  3
CEPSNTYPE
350
387
  3
FINGERPRINTGUID
350
388
  3
HYPERLINKBASE
350
380
  3
INSUNITS
350
386
  3
LAYOUTDICT
350
382
  3
LWETCUNION
350
385
  3
PLOTSETDICT
350
383
  3
PLOTSTYLNAMDICT
350
384
  3
PSVPSCALE
350
38A
  3
PUCSBASE
350
38D
  3
PUCSORGBACK
350
393
  3
PUCSORGBOTTOM
350
38F
  3
PUCSORGFRONT
350
392
  3
PUCSORGLEFT
350
390
  3
PUCSORGRIGHT
350
391
  3
PUCSORGTOP
350
38E
  3
PUCSORTHOREF
350
38B
  3
PUCSORTHOVIEW
350
38C
  3
STYLESHEET
350
381
  3
TSTACKALIGN
350
37E
  3
TSTACKSIZE
350
37F
  3
UCSBASE
350
396
  3
UCSORGBACK
350
39C
  3
UCSORGBOTTOM
350
398
  3
UCSORGFRONT
350
39B
  3
UCSORGLEFT
350
399
  3
UCSORGRIGHT
350
39A
  3
UCSORGTOP
350
397
  3
UCSORTHOREF
350
394
  3
UCSORTHOVIEW
350
395
  3
VERSIONGUID
350
389
  0
DICTIONARY
  5
24C
102
{ACAD_REACTORS
330
19
102
}
330
19
100
AcDbDictionary
  3
DIMASSOC
350
24D
  0
XRECORD
  5
39D
102
{ACAD_REACTORS
330
240
102
}
330
240
100
AcDbXrecord
340
A
  0
XRECORD
  5
39E
102
{ACAD_REACTORS
330
242
102
}
330
242
100
AcDbXrecord
340
B
  0
MLINESTYLE
  5
1C
102
{ACAD_REACTORS
330
1B
102
}
330
1B
100
AcDbMlineStyle
  2
STANDARD
 70
     0
  3

 62
     0
 51
90.00000000000019
 52
90.00000000000019
 71
     2
 49
0.5
 62
   256
  6
BYLAYER
 49
-0.5
 62
   256
  6
BYLAYER
  0
ACDBPLACEHOLDER
  5
1E1
102
{ACAD_REACTORS
330
1E0
102
}
330
1E0
100
AcDbPlaceHolder
280
     0
  0
XRECORD
  5
387
102
{ACAD_REACTORS
330
37D
102
}
330
37D
100
AcDbXrecord
 90
        0
  0
XRECORD
  5
388
102
{ACAD_REACTORS
330
37D
102
}
330
37D
100
AcDbXrecord
  1
{94D7CFC6-A585-4BF2-97B3-65EDE47BD4F7}
  0
XRECORD
  5
380
102
{ACAD_REACTORS
330
37D
102
}
330
37D
100
AcDbXrecord
  1

  0
XRECORD
  5
386
102
{ACAD_REACTORS
330
37D
102
}
330
37D
100
AcDbXrecord
 90
        0
  0
XRECORD
  5
382
102
{ACAD_REACTORS
330
37D
102
}
330
37D
100
AcDbXrecord
340
1E2
  0
XRECORD
  5
385
102
{ACAD_REACTORS
330
37D
102
}
330
37D
100
AcDbXrecord
 90
    14877
  0
XRECORD
  5
383
102
{ACAD_REACTORS
330
37D
102
}
330
37D
100
AcDbXrecord
340
1E3
  0
XRECORD
  5
384
102
{ACAD_REACTORS
330
37D
102
}
330
37D
100
AcDbXrecord
340
1E0
  0
XRECORD
  5
38A
102
{ACAD_REACTORS
330
37D
102
}
330
37D
100
AcDbXrecord
 40
0.0
  0
XRECORD
  5
38D
102
{ACAD_REACTORS
330
37D
102
}
330
37D
100
AcDbXrecord
340
0
  0
XRECORD
  5
393
102
{ACAD_REACTORS
330
37D
102
}
330
37D
100
AcDbXrecord
 10
0.0
 20
0.0
 30
0.0
  0
XRECORD
  5
38F
102
{ACAD_REACTORS
330
37D
102
}
330
37D
100
AcDbXrecord
 10
0.0
 20
0.0
 30
0.0
  0
XRECORD
  5
392
102
{ACAD_REACTORS
330
37D
102
}
330
37D
100
AcDbXrecord
 10
0.0
 20
0.0
 30
0.0
  0
XRECORD
  5
390
102
{ACAD_REACTORS
330
37D
102
}
330
37D
100
AcDbXrecord
 10
0.0
 20
0.0
 30
0.0
  0
XRECORD
  5
391
102
{ACAD_REACTORS
330
37D
102
}
330
37D
100
AcDbXrecord
 10
0.0
 20
0.0
 30
0.0
  0
XRECORD
  5
38E
102
{ACAD_REACTORS
330
37D
102
}
330
37D
100
AcDbXrecord
 10
0.0
 20
0.0
 30
0.0
  0
XRECORD
  5
38B
102
{ACAD_REACTORS
330
37D
102
}
330
37D
100
AcDbXrecord
340
0
  0
XRECORD
  5
38C
102
{ACAD_REACTORS
330
37D
102
}
330
37D
100
AcDbXrecord
 70
     0
  0
XRECORD
  5
381
102
{ACAD_REACTORS
330
37D
102
}
330
37D
100
AcDbXrecord
  1

  0
XRECORD
  5
37E
102
{ACAD_REACTORS
330
37D
102
}
330
37D
100
AcDbXrecord
 90
        1
  0
XRECORD
  5
37F
102
{ACAD_REACTORS
330
37D
102
}
330
37D
100
AcDbXrecord
 90
       70
  0
XRECORD
  5
396
102
{ACAD_REACTORS
330
37D
102
}
330
37D
100
AcDbXrecord
340
0
  0
XRECORD
  5
39C
102
{ACAD_REACTORS
330
37D
102
}
330
37D
100
AcDbXrecord
 10
0.0
 20
0.0
 30
0.0
  0
XRECORD
  5
398
102
{ACAD_REACTORS
330
37D
102
}
330
37D
100
AcDbXrecord
 10
0.0
 20
0.0
 30
0.0
  0
XRECORD
  5
39B
102
{ACAD_REACTORS
330
37D
102
}
330
37D
100
AcDbXrecord
 10
0.0
 20
0.0
 30
0.0
  0
XRECORD
  5
399
102
{ACAD_REACTORS
330
37D
102
}
330
37D
100
AcDbXrecord
 10
0.0
 20
0.0
 30
0.0
  0
XRECORD
  5
39A
102
{ACAD_REACTORS
330
37D
102
}
330
37D
100
AcDbXrecord
 10
0.0
 20
0.0
 30
0.0
  0
XRECORD
  5
397
102
{ACAD_REACTORS
330
37D
102
}
330
37D
100
AcDbXrecord
 10
0.0
 20
0.0
 30
0.0
  0
XRECORD
  5
394
102
{ACAD_REACTORS
330
37D
102
}
330
37D
100
AcDbXrecord
340
0
  0
XRECORD
  5
395
102
{ACAD_REACTORS
330
37D
102
}
330
37D
100
AcDbXrecord
 70
     0
  0
XRECORD
  5
389
102
{ACAD_REACTORS
330
37D
102
}
330
37D
100
AcDbXrecord
  1
{9F3666B8-5EC4-450B-BF32-68C8DF9B1444}
  0
DICTIONARYVAR
  5
24D
102
{ACAD_REACTORS
330
24C
102
}
330
24C
100
DictionaryVariables
280
     0
  1
1
  0
ENDSEC
  0
EOF
