  0
SECTION
  2
HEADER
  9
$ACADVER
  1
AC1014
  9
$ACADMAINTVER
 70
     9
  9
$DWGCODEPAGE
  3
ANSI_1252
  9
$INSBASE
 10
0.0
 20
0.0
 30
0.0
  9
$EXTMIN
 10
20.68446820312761
 20
9.178602027650049
 30
0.0
  9
$EXTMAX
 10
39.98859081567877
 20
17.62462661891208
 30
0.0
  9
$LIMMIN
 10
0.0
 20
0.0
  9
$LIMMAX
 10
0.0
 20
0.0
  9
$ORTHOMODE
 70
     1
  9
$REGENMODE
 70
     1
  9
$FILLMODE
 70
     1
  9
$QTEXTMODE
 70
     0
  9
$MIRRTEXT
 70
     1
  9
$DRAGMODE
 70
     0
  9
$LTSCALE
 40
1.0
  9
$OSMODE
 70
    37
  9
$ATTMODE
 70
     1
  9
$TEXTSIZE
 40
0.0
  9
$TRACEWID
 40
0.05
  9
$TEXTSTYLE
  7
STANDARD
  9
$CLAYER
  8
0
  9
$CELTYPE
  6
CONTINUOUS
  9
$CECOLOR
 62
   256
  9
$CELTSCALE
 40
1.0
  9
$DELOBJ
 70
     1
  9
$DISPSILH
 70
     0
  9
$DIMSCALE
 40
1.0
  9
$DIMASZ
 40
0.18
  9
$DIMEXO
 40
0.0625
  9
$DIMDLI
 40
0.38
  9
$DIMRND
 40
0.0
  9
$DIMDLE
 40
0.0
  9
$DIMEXE
 40
0.18
  9
$DIMTP
 40
0.0
  9
$DIMTM
 40
0.0
  9
$DIMTXT
 40
0.18
  9
$DIMCEN
 40
0.09
  9
$DIMTSZ
 40
0.0
  9
$DIMTOL
 70
     0
  9
$DIMLIM
 70
     0
  9
$DIMTIH
 70
     1
  9
$DIMTOH
 70
     1
  9
$DIMSE1
 70
     0
  9
$DIMSE2
 70
     0
  9
$DIMTAD
 70
     0
  9
$DIMZIN
 70
     0
  9
$DIMBLK
  1

  9
$DIMASO
 70
     1
  9
$DIMSHO
 70
     1
  9
$DIMPOST
  1

  9
$DIMAPOST
  1

  9
$DIMALT
 70
     0
  9
$DIMALTD
 70
     2
  9
$DIMALTF
 40
25.4
  9
$DIMLFAC
 40
1.0
  9
$DIMTOFL
 70
     0
  9
$DIMTVP
 40
0.0
  9
$DIMTIX
 70
     0
  9
$DIMSOXD
 70
     0
  9
$DIMSAH
 70
     0
  9
$DIMBLK1
  1

  9
$DIMBLK2
  1

  9
$DIMSTYLE
  2
STANDARD
  9
$DIMCLRD
 70
     0
  9
$DIMCLRE
 70
     0
  9
$DIMCLRT
 70
     0
  9
$DIMTFAC
 40
1.0
  9
$DIMGAP
 40
0.09
  9
$DIMJUST
 70
     0
  9
$DIMSD1
 70
     0
  9
$DIMSD2
 70
     0
  9
$DIMTOLJ
 70
     1
  9
$DIMTZIN
 70
     0
  9
$DIMALTZ
 70
     0
  9
$DIMALTTZ
 70
     0
  9
$DIMFIT
 70
     3
  9
$DIMUPT
 70
     0
  9
$DIMUNIT
 70
     2
  9
$DIMDEC
 70
     4
  9
$DIMTDEC
 70
     4
  9
$DIMALTU
 70
     2
  9
$DIMALTTD
 70
     2
  9
$DIMTXSTY
  7
STANDARD
  9
$DIMAUNIT
 70
     0
  9
$LUNITS
 70
     2
  9
$LUPREC
 70
     4
  9
$SKETCHINC
 40
0.1
  9
$FILLETRAD
 40
0.0
  9
$AUNITS
 70
     0
  9
$AUPREC
 70
     0
  9
$MENU
  1
acad
  9
$ELEVATION
 40
0.0
  9
$PELEVATION
 40
0.0
  9
$THICKNESS
 40
0.0
  9
$LIMCHECK
 70
     0
  9
$BLIPMODE
 70
     0
  9
$CHAMFERA
 40
0.0
  9
$CHAMFERB
 40
0.0
  9
$CHAMFERC
 40
0.0
  9
$CHAMFERD
 40
0.0
  9
$SKPOLY
 70
     0
  9
$TDCREATE
 40
2444971.791666666
  9
$TDUPDATE
 40
2452297.075298206
  9
$TDINDWG
 40
0.0124898611
  9
$TDUSRTIMER
 40
0.0124898611
  9
$USRTIMER
 70
     1
  9
$ANGBASE
 50
0.0
  9
$ANGDIR
 70
     0
  9
$PDMODE
 70
     0
  9
$PDSIZE
 40
0.0
  9
$PLINEWID
 40
0.0
  9
$COORDS
 70
     2
  9
$SPLFRAME
 70
     0
  9
$SPLINETYPE
 70
     6
  9
$SPLINESEGS
 70
     8
  9
$ATTDIA
 70
     0
  9
$ATTREQ
 70
     1
  9
$HANDLING
 70
 22529
  9
$HANDSEED
  5
38F
  9
$SURFTAB1
 70
     6
  9
$SURFTAB2
 70
     6
  9
$SURFTYPE
 70
     6
  9
$SURFU
 70
     6
  9
$SURFV
 70
     6
  9
$UCSNAME
  2

  9
$UCSORG
 10
0.0
 20
0.0
 30
0.0
  9
$UCSXDIR
 10
1.0
 20
0.0
 30
0.0
  9
$UCSYDIR
 10
0.0
 20
1.0
 30
0.0
  9
$PUCSNAME
  2

  9
$PUCSORG
 10
0.0
 20
0.0
 30
0.0
  9
$PUCSXDIR
 10
1.0
 20
0.0
 30
0.0
  9
$PUCSYDIR
 10
0.0
 20
1.0
 30
0.0
  9
$USERI1
 70
     0
  9
$USERI2
 70
     0
  9
$USERI3
 70
     0
  9
$USERI4
 70
     0
  9
$USERI5
 70
     0
  9
$USERR1
 40
0.0
  9
$USERR2
 40
0.0
  9
$USERR3
 40
0.0
  9
$USERR4
 40
0.0
  9
$USERR5
 40
0.0
  9
$WORLDVIEW
 70
     1
  9
$SHADEDGE
 70
     3
  9
$SHADEDIF
 70
    70
  9
$TILEMODE
 70
     1
  9
$MAXACTVP
 70
    16
  9
$PINSBASE
 10
0.0
 20
0.0
 30
0.0
  9
$PLIMCHECK
 70
     0
  9
$PEXTMIN
 10
1.000000000000000E+20
 20
1.000000000000000E+20
 30
1.000000000000000E+20
  9
$PEXTMAX
 10
-1.000000000000000E+20
 20
-1.000000000000000E+20
 30
-1.000000000000000E+20
  9
$PLIMMIN
 10
0.0
 20
0.0
  9
$PLIMMAX
 10
12.0
 20
9.0
  9
$UNITMODE
 70
     0
  9
$VISRETAIN
 70
     0
  9
$PLINEGEN
 70
     0
  9
$PSLTSCALE
 70
     0
  9
$TREEDEPTH
 70
  3020
  9
$PICKSTYLE
 70
     1
  9
$CMLSTYLE
  2
STANDARD
  9
$CMLJUST
 70
     0
  9
$CMLSCALE
 40
1.0
  9
$PROXYGRAPHICS
 70
     1
  9
$MEASUREMENT
 70
     0
  0
ENDSEC
  0
SECTION
  2
CLASSES
  0
CLASS
  1
LWPOLYLINE
  2
AcDbPolyline
  3
AutoCAD 2000
 90
        0
280
     0
281
     1
  0
CLASS
  1
IMAGE
  2
AcDbRasterImage
  3
ISM
 90
      127
280
     0
281
     1
  0
CLASS
  1
OLE2FRAME
  2
AcDbOle2Frame
  3
AutoCAD 2000
 90
        0
280
     0
281
     1
  0
CLASS
  1
HATCH
  2
AcDbHatch
  3
AutoCAD 2000
 90
        0
280
     0
281
     1
  0
CLASS
  1
DICTIONARYVAR
  2
AcDbDictionaryVar
  3
AutoCAD 2000
 90
        0
280
     0
281
     0
  0
CLASS
  1
RASTERVARIABLES
  2
AcDbRasterVariables
  3
ISM
 90
        0
280
     0
281
     0
  0
CLASS
  1
IMAGEDEF
  2
AcDbRasterImageDef
  3
ISM
 90
        0
280
     0
281
     0
  0
CLASS
  1
IMAGEDEF_REACTOR
  2
AcDbRasterImageDefReactor
  3
ISM
 90
        1
280
     0
281
     0
  0
CLASS
  1
IDBUFFER
  2
AcDbIdBuffer
  3
AutoCAD 2000
 90
        0
280
     0
281
     0
  0
CLASS
  1
SPATIAL_FILTER
  2
AcDbSpatialFilter
  3
AutoCAD 2000
 90
        0
280
     0
281
     0
  0
CLASS
  1
XRECORD
  2
AcDbXrecord
  3
AutoCAD 2000
 90
        0
280
     0
281
     0
  0
CLASS
  1
SORTENTSTABLE
  2
AcDbSortentsTable
  3
AutoCAD 2000
 90
        0
280
     0
281
     0
  0
CLASS
  1
LAYER_INDEX
  2
AcDbLayerIndex
  3
AutoCAD 2000
 90
        0
280
     0
281
     0
  0
CLASS
  1
SPATIAL_INDEX
  2
AcDbSpatialIndex
  3
AutoCAD 2000
 90
        0
280
     0
281
     0
  0
CLASS
  1
OBJECT_PTR
  2
CAseDLPNTableRecord
  3
ASE-LPNTableRecord
 90
        1
280
     0
281
     0
  0
CLASS
  1
ACDBDICTIONARYWDFLT
  2
AcDbDictionaryWithDefault
  3
AutoCAD 2000
 90
        0
280
     0
281
     0
  0
CLASS
  1
ACDBPLACEHOLDER
  2
AcDbPlaceHolder
  3
AutoCAD 2000
 90
        0
280
     0
281
     0
  0
CLASS
  1
LAYOUT
  2
AcDbLayout
  3
AutoCAD 2000
 90
        0
280
     0
281
     0
  0
CLASS
  1
LONG_TRANSACTION
  2
AcDbLongTransaction
  3
AutoCAD 2000
 90
        0
280
     0
281
     0
  0
CLASS
  1
LWPOLYLINE
  2
AcDbPolyline
  3
AutoCAD 2000
 90
        0
280
     0
281
     1
  0
CLASS
  1
HATCH
  2
AcDbHatch
  3
AutoCAD 2000
 90
        0
280
     0
281
     1
  0
CLASS
  1
XRECORD
  2
AcDbXrecord
  3
AutoCAD 2000
 90
        0
280
     0
281
     0
  0
CLASS
  1
LONG_TRANSACTION
  2
AcDbLongTransaction
  3
AutoCAD 2000
 90
        0
280
     0
281
     0
  0
CLASS
  1
LWPOLYLINE
  2
AcDbPolyline
  3
AutoCAD 2000
 90
        0
280
     0
281
     1
  0
CLASS
  1
HATCH
  2
AcDbHatch
  3
AutoCAD 2000
 90
        0
280
     0
281
     1
  0
CLASS
  1
XRECORD
  2
AcDbXrecord
  3
AutoCAD 2000
 90
        0
280
     0
281
     0
  0
CLASS
  1
LONG_TRANSACTION
  2
AcDbLongTransaction
  3
AutoCAD 2000
 90
        0
280
     0
281
     0
  0
CLASS
  1
LWPOLYLINE
  2
AcDbPolyline
  3
AutoCAD 2000
 90
        0
280
     0
281
     1
  0
CLASS
  1
HATCH
  2
AcDbHatch
  3
AutoCAD 2000
 90
        0
280
     0
281
     1
  0
CLASS
  1
XRECORD
  2
AcDbXrecord
  3
AutoCAD 2000
 90
        0
280
     0
281
     0
  0
CLASS
  1
LONG_TRANSACTION
  2
AcDbLongTransaction
  3
AutoCAD 2000
 90
        0
280
     0
281
     0
  0
CLASS
  1
LWPOLYLINE
  2
AcDbPolyline
  3
AutoCAD 2000
 90
        0
280
     0
281
     1
  0
CLASS
  1
HATCH
  2
AcDbHatch
  3
AutoCAD 2000
 90
        0
280
     0
281
     1
  0
CLASS
  1
XRECORD
  2
AcDbXrecord
  3
AutoCAD 2000
 90
        0
280
     0
281
     0
  0
CLASS
  1
LONG_TRANSACTION
  2
AcDbLongTransaction
  3
AutoCAD 2000
 90
        0
280
     0
281
     0
  0
CLASS
  1
LWPOLYLINE
  2
AcDbPolyline
  3
AutoCAD 2000
 90
        0
280
     0
281
     1
  0
CLASS
  1
HATCH
  2
AcDbHatch
  3
AutoCAD 2000
 90
        0
280
     0
281
     1
  0
CLASS
  1
XRECORD
  2
AcDbXrecord
  3
AutoCAD 2000
 90
        0
280
     0
281
     0
  0
CLASS
  1
LONG_TRANSACTION
  2
AcDbLongTransaction
  3
AutoCAD 2000
 90
        0
280
     0
281
     0
  0
CLASS
  1
LWPOLYLINE
  2
AcDbPolyline
  3
AutoCAD 2000
 90
        0
280
     0
281
     1
  0
CLASS
  1
HATCH
  2
AcDbHatch
  3
AutoCAD 2000
 90
        0
280
     0
281
     1
  0
CLASS
  1
XRECORD
  2
AcDbXrecord
  3
AutoCAD 2000
 90
        0
280
     0
281
     0
  0
ENDSEC
  0
SECTION
  2
TABLES
  0
TABLE
  2
VPORT
  5
7
330
0
100
AcDbSymbolTable
 70
     3
  0
VPORT
  5
2E
330
7
100
AcDbSymbolTableRecord
100
AcDbViewportTableRecord
  2
DCADVPORT
 70
     0
 10
27.93246921505012
 20
10.00754358987067
 11
32.64228781117398
 21
17.62462661891208
 12
6.209999999999999
 22
9.019999999999999
 13
0.0
 23
0.0
 14
1.0
 24
1.0
 15
0.0
 25
0.0
 16
0.0
 26
0.0
 36
1.0
 17
0.0
 27
0.0
 37
0.0
 40
18.04
 41
0.688564
 42
50.0
 43
1.0
 44
1.0
 50
0.0
 51
0.0
 71
     0
 72
   100
 73
     1
 74
     1
 75
     0
 76
     0
 77
     0
 78
     0
  0
VPORT
  5
36C
330
7
100
AcDbSymbolTableRecord
100
AcDbViewportTableRecord
  2
*ACTIVE
 70
     0
 10
0.0
 20
0.0
 11
1.0
 21
1.0
 12
30.3533066254462
 22
13.40205206770723
 13
0.0
 23
0.0
 14
1.0
 24
1.0
 15
0.0
 25
0.0
 16
0.0
 26
0.0
 36
1.0
 17
0.0
 27
0.0
 37
0.0
 40
12.37704463346348
 41
1.570528967254408
 42
50.0
 43
0.0
 44
0.0
 50
0.0
 51
0.0
 71
     0
 72
   100
 73
     1
 74
     1
 75
     0
 76
     0
 77
     0
 78
     0
  0
ENDTAB
  0
TABLE
  2
LTYPE
  5
4
330
0
100
AcDbSymbolTable
 70
     2
  0
LTYPE
  5
11
330
4
100
AcDbSymbolTableRecord
100
AcDbLinetypeTableRecord
  2
BYBLOCK
 70
     0
  3

 72
    65
 73
     0
 40
0.0
  0
LTYPE
  5
12
330
4
100
AcDbSymbolTableRecord
100
AcDbLinetypeTableRecord
  2
BYLAYER
 70
     0
  3

 72
    65
 73
     0
 40
0.0
  0
LTYPE
  5
13
330
4
100
AcDbSymbolTableRecord
100
AcDbLinetypeTableRecord
  2
CONTINUOUS
 70
     0
  3
Solid line
 72
    65
 73
     0
 40
0.0
  0
LTYPE
  5
1E
330
4
100
AcDbSymbolTableRecord
100
AcDbLinetypeTableRecord
  2
CONTINUOUS
 70
     0
  3
Solid line
 72
    65
 73
     0
 40
0.0
  0
ENDTAB
  0
TABLE
  2
LAYER
  5
2
330
0
100
AcDbSymbolTable
 70
     5
  0
LAYER
  5
14
330
2
100
AcDbSymbolTableRecord
100
AcDbLayerTableRecord
  2
0
 70
     0
 62
     7
  6
CONTINUOUS
  0
LAYER
  5
2A
330
2
100
AcDbSymbolTableRecord
100
AcDbLayerTableRecord
  2
ADP1DETAIL
 70
     0
 62
   250
  6
CONTINUOUS
  0
LAYER
  5
2B
330
2
100
AcDbSymbolTableRecord
100
AcDbLayerTableRecord
  2
DEFPOINTS
 70
     0
 62
   250
  6
CONTINUOUS
  0
LAYER
  5
2C
330
2
100
AcDbSymbolTableRecord
100
AcDbLayerTableRecord
  2
ADP2DETAIL
 70
     0
 62
   250
  6
CONTINUOUS
  0
LAYER
  5
2D
330
2
100
AcDbSymbolTableRecord
100
AcDbLayerTableRecord
  2
ADPDIM
 70
     0
 62
     3
  6
CONTINUOUS
  0
ENDTAB
  0
TABLE
  2
STYLE
  5
3
330
0
100
AcDbSymbolTable
 70
     2
  0
STYLE
  5
17
330
3
100
AcDbSymbolTableRecord
100
AcDbTextStyleTableRecord
  2
STANDARD
 70
     0
 40
0.0
 41
1.0
 50
0.0
 71
     0
 42
0.0
  3
txt
  4

  0
STYLE
  5
1D9
330
3
100
AcDbSymbolTableRecord
100
AcDbTextStyleTableRecord
  2
ARIAL_WIDE
 70
     0
 40
0.0
 41
1.25
 50
0.0
 71
     0
 42
0.2
  3
ARIAL.TTF
  4

1001
ACAD
1000
Arial
1071
       34
  0
ENDTAB
  0
TABLE
  2
VIEW
  5
5
330
0
100
AcDbSymbolTable
 70
     0
  0
ENDTAB
  0
TABLE
  2
UCS
  5
6
330
0
100
AcDbSymbolTable
 70
     0
  0
ENDTAB
  0
TABLE
  2
APPID
  5
8
330
0
100
AcDbSymbolTable
 70
     1
  0
APPID
  5
16
330
8
100
AcDbSymbolTableRecord
100
AcDbRegAppTableRecord
  2
ACAD
 70
     0
  0
ENDTAB
  0
TABLE
  2
DIMSTYLE
  5
9
330
0
100
AcDbSymbolTable
 70
     1
  0
DIMSTYLE
105
18
330
9
100
AcDbSymbolTableRecord
100
AcDbDimStyleTableRecord
  2
STANDARD
 70
     0
  3

  4

  5

  6

  7

 40
1.0
 41
0.18
 42
0.0625
 43
0.38
 44
0.18
 45
0.0
 46
0.0
 47
0.0
 48
0.0
140
0.18
141
0.09
142
0.0
143
25.4
144
1.0
145
0.0
146
1.0
147
0.09
 71
     0
 72
     0
 73
     1
 74
     1
 75
     0
 76
     0
 77
     0
 78
     0
170
     0
171
     2
172
     0
173
     0
174
     0
175
     0
176
     0
177
     0
178
     0
270
     2
271
     4
272
     4
273
     2
274
     2
340
17
275
     0
280
     0
281
     0
282
     0
283
     1
284
     0
285
     0
286
     0
287
     0
288
     0
  0
ENDTAB
  0
TABLE
  2
BLOCK_RECORD
  5
1
330
0
100
AcDbSymbolTable
 70
     0
  0
BLOCK_RECORD
  5
A
102
{ACAD_XDICTIONARY
360
230
102
}
330
1
100
AcDbSymbolTableRecord
100
AcDbBlockTableRecord
  2
*MODEL_SPACE
  0
BLOCK_RECORD
  5
B
102
{ACAD_XDICTIONARY
360
232
102
}
330
1
100
AcDbSymbolTableRecord
100
AcDbBlockTableRecord
  2
*PAPER_SPACE
  0
ENDTAB
  0
ENDSEC
  0
SECTION
  2
BLOCKS
  0
BLOCK
  5
D
330
A
100
AcDbEntity
  8
0
100
AcDbBlockBegin
  2
*MODEL_SPACE
 70
     0
 10
0.0
 20
0.0
 30
0.0
  3
*MODEL_SPACE
  1

  0
ENDBLK
  5
E
330
A
100
AcDbEntity
  8
0
100
AcDbBlockEnd
  0
BLOCK
  5
F
330
B
100
AcDbEntity
 67
     1
  8
0
100
AcDbBlockBegin
  2
*PAPER_SPACE
 70
     0
 10
0.0
 20
0.0
 30
0.0
  3
*PAPER_SPACE
  1

  0
ENDBLK
  5
10
330
B
100
AcDbEntity
 67
     1
  8
0
100
AcDbBlockEnd
  0
ENDSEC
  0
SECTION
  2
ENTITIES
  0
CIRCLE
  5
2F
330
A
100
AcDbEntity
  8
ADP1DETAIL
  6
CONTINUOUS
 62
     7
100
AcDbCircle
 10
-30.3365295094032
 20
12.00754358987068
 30
0.0
 40
2.000000000000003
210
0.0
220
0.0
230
-1.0
  0
CIRCLE
  5
30
330
A
100
AcDbEntity
  8
ADP1DETAIL
  6
CONTINUOUS
 62
     7
100
AcDbCircle
 10
-30.3365295094032
 20
12.00754358987068
 30
0.0
 40
0.5659610629268102
210
0.0
220
0.0
230
-1.0
  0
CIRCLE
  5
31
330
A
100
AcDbEntity
  8
ADP1DETAIL
  6
CONTINUOUS
 62
     7
100
AcDbCircle
 10
-30.3365295094032
 20
12.00754358987068
 30
0.0
 40
0.6900000000000013
210
0.0
220
0.0
230
-1.0
  0
CIRCLE
  5
32
330
A
100
AcDbEntity
  8
ADP1DETAIL
  6
CONTINUOUS
 62
     7
100
AcDbCircle
 10
-30.3365295094032
 20
12.00754358987068
 30
0.0
 40
0.8299999999999982
210
0.0
220
0.0
230
-1.0
  0
CIRCLE
  5
33
330
A
100
AcDbEntity
  8
ADP1DETAIL
  6
CONTINUOUS
 62
     7
100
AcDbCircle
 10
-30.3365295094032
 20
12.00754358987068
 30
0.0
 40
0.265625
210
0.0
220
0.0
230
-1.0
  0
LWPOLYLINE
  5
34
330
A
100
AcDbEntity
  8
ADP1DETAIL
  6
CONTINUOUS
 62
     7
100
AcDbPolyline
 90
        2
 70
   128
 43
0.0
 10
28.46915675586571
 20
14.73266091600976
 10
29.42040675586571
 20
14.73266091600976
  0
LWPOLYLINE
  5
38
330
A
100
AcDbEntity
  8
ADP1DETAIL
  6
CONTINUOUS
 62
     7
100
AcDbPolyline
 90
        2
 70
   128
 43
0.0
 10
32.32890226294069
 20
14.48266091600976
 10
28.34415675586571
 20
14.48266091600976
  0
ARC
  5
3C
330
A
100
AcDbEntity
  8
ADP1DETAIL
  6
CONTINUOUS
 62
     7
100
AcDbCircle
 10
-28.46915675586571
 20
14.60766091600976
 30
0.0
 40
0.125
210
0.0
220
0.0
230
-1.0
100
AcDbArc
 50
0.0
 51
90.0
  0
LWPOLYLINE
  5
3D
330
A
100
AcDbEntity
  8
ADP1DETAIL
  6
CONTINUOUS
 62
     7
100
AcDbPolyline
 90
        2
 70
   128
 43
0.0
 10
28.34415675586571
 20
14.48266091600976
 10
28.34415675586571
 20
14.60766091600976
  0
LWPOLYLINE
  5
41
330
A
100
AcDbEntity
  8
ADP1DETAIL
  6
CONTINUOUS
 62
     7
100
AcDbPolyline
 90
        2
 70
   128
 43
0.0
 10
32.21915675586571
 20
14.73266091600976
 10
31.26790675586571
 20
14.73266091600976
  0
LWPOLYLINE
  5
45
330
A
100
AcDbEntity
  8
ADP1DETAIL
  6
CONTINUOUS
 62
     7
100
AcDbPolyline
 90
        2
 70
   128
 43
0.0
 10
31.03415675586571
 20
16.73266091600976
 10
29.65415675586571
 20
16.73266091600976
  0
LWPOLYLINE
  5
49
330
A
100
AcDbEntity
  8
ADP1DETAIL
  6
CONTINUOUS
 62
     7
100
AcDbPolyline
 90
        2
 70
   128
 43
0.0
 10
30.87955678332344
 20
16.85766091600976
 10
29.7791567558657
 20
16.85766091600976
  0
LWPOLYLINE
  5
4D
330
A
100
AcDbEntity
  8
ADP1DETAIL
  6
CONTINUOUS
 62
     7
100
AcDbPolyline
 90
        2
 70
   128
 43
0.0
 10
31.26790675586571
 20
14.73266091600976
 10
30.34415675586571
 20
14.73266091600976
  0
LWPOLYLINE
  5
51
330
A
100
AcDbEntity
  8
ADP1DETAIL
  6
CONTINUOUS
 62
     7
100
AcDbPolyline
 90
        2
 70
   128
 43
0.0
 10
30.34415675586571
 20
15.04516091600976
 10
31.1741567558657
 20
15.04516091600976
  0
LWPOLYLINE
  5
55
330
A
100
AcDbEntity
  8
ADP2DETAIL
  6
CONTINUOUS
 62
     5
100
AcDbPolyline
 90
        2
 70
   128
 43
0.0
 10
30.07853175586571
 20
16.85766091600976
 10
30.07853175586571
 20
14.48266091600976
  0
LWPOLYLINE
  5
59
330
A
100
AcDbEntity
  8
ADP2DETAIL
  6
CONTINUOUS
 62
     5
100
AcDbPolyline
 90
        2
 70
   128
 43
0.0
 10
30.60978175586571
 20
16.85766091600976
 10
30.60978175586571
 20
14.48266091600976
  0
LWPOLYLINE
  5
5D
330
A
100
AcDbEntity
  8
ADP1DETAIL
  6
CONTINUOUS
 62
     7
100
AcDbPolyline
 90
        2
 70
   128
 43
0.0
 10
29.65415675586571
 20
16.73266091600976
 10
29.65415675586571
 20
15.04516091600976
  0
LWPOLYLINE
  5
61
330
A
100
AcDbEntity
  8
ADP1DETAIL
  6
CONTINUOUS
 62
     7
100
AcDbPolyline
 90
        2
 70
   128
 43
0.0
 10
30.34415675586571
 20
15.04516091600976
 10
29.51415675586571
 20
15.04516091600976
  0
LWPOLYLINE
  5
65
330
A
100
AcDbEntity
  8
ADP1DETAIL
  6
CONTINUOUS
 62
     7
100
AcDbPolyline
 90
        2
 70
   128
 43
0.0
 10
29.42040675586571
 20
14.73266091600976
 10
30.34415675586571
 20
14.73266091600976
  0
LWPOLYLINE
  5
69
330
A
100
AcDbEntity
  8
ADP1DETAIL
  6
CONTINUOUS
 62
     7
100
AcDbPolyline
 90
        2
 70
   128
 43
0.0
 10
29.51415675586571
 20
15.04516091600976
 10
29.51415675586571
 20
14.82641091600976
  0
ARC
  5
6D
330
A
100
AcDbEntity
  8
ADP1DETAIL
  6
CONTINUOUS
 62
     7
100
AcDbCircle
 10
-29.42040675586571
 20
14.82641091600976
 30
0.0
 40
0.09375
210
0.0
220
0.0
230
-1.0
100
AcDbArc
 50
180.0
 51
270.0000000000008
  0
LWPOLYLINE
  5
6E
330
A
100
AcDbEntity
  8
ADP1DETAIL
  6
CONTINUOUS
 62
     7
100
AcDbPolyline
 90
        2
 70
   128
 43
0.0
 10
29.90415675586571
 20
15.73124442830146
 10
29.90415675586571
 20
15.91874442830146
  0
LWPOLYLINE
  5
72
330
A
100
AcDbEntity
  8
ADP1DETAIL
  6
CONTINUOUS
 62
     7
100
AcDbPolyline
 90
        2
 70
   128
 43
0.0
 10
29.8416567558657
 20
15.73124442830146
 10
29.8416567558657
 20
15.91874442830146
  0
LWPOLYLINE
  5
76
330
A
100
AcDbEntity
  8
ADP1DETAIL
  6
CONTINUOUS
 62
     7
100
AcDbPolyline
 90
        2
 70
   128
 43
0.0
 10
29.7791567558657
 20
15.73124442830146
 10
29.7791567558657
 20
15.91874442830146
  0
LWPOLYLINE
  5
7A
330
A
100
AcDbEntity
  8
ADP1DETAIL
  6
CONTINUOUS
 62
     7
100
AcDbPolyline
 90
        2
 70
   128
 43
0.0
 10
29.71665675586571
 20
15.73124442830146
 10
29.71665675586571
 20
15.91874442830146
  0
LWPOLYLINE
  5
7E
330
A
100
AcDbEntity
  8
ADP1DETAIL
  6
CONTINUOUS
 62
     7
100
AcDbPolyline
 90
        2
 70
   128
 43
0.0
 10
29.65415675586571
 20
16.73266091600976
 10
29.7791567558657
 20
16.85766091600976
  0
LWPOLYLINE
  5
82
330
A
100
AcDbEntity
  8
ADP1DETAIL
  6
CONTINUOUS
 62
     7
100
AcDbPolyline
 90
        2
 70
   128
 43
0.0
 10
30.27915675586571
 20
15.73124442830146
 10
30.27915675586571
 20
15.91874442830146
  0
LWPOLYLINE
  5
86
330
A
100
AcDbEntity
  8
ADP1DETAIL
  6
CONTINUOUS
 62
     7
100
AcDbPolyline
 90
        2
 70
   128
 43
0.0
 10
30.21665675586571
 20
15.73124442830146
 10
30.21665675586571
 20
15.91874442830146
  0
LWPOLYLINE
  5
8A
330
A
100
AcDbEntity
  8
ADP1DETAIL
  6
CONTINUOUS
 62
     7
100
AcDbPolyline
 90
        2
 70
   128
 43
0.0
 10
30.02915675586571
 20
15.73124442830146
 10
30.02915675586571
 20
15.91874442830146
  0
LWPOLYLINE
  5
8E
330
A
100
AcDbEntity
  8
ADP1DETAIL
  6
CONTINUOUS
 62
     7
100
AcDbPolyline
 90
        2
 70
   128
 43
0.0
 10
30.0916567558657
 20
15.73124442830146
 10
30.0916567558657
 20
15.91874442830146
  0
LWPOLYLINE
  5
92
330
A
100
AcDbEntity
  8
ADP1DETAIL
  6
CONTINUOUS
 62
     7
100
AcDbPolyline
 90
        2
 70
   128
 43
0.0
 10
30.15415675586571
 20
15.73124442830146
 10
30.15415675586571
 20
15.91874442830146
  0
LWPOLYLINE
  5
96
330
A
100
AcDbEntity
  8
ADP1DETAIL
  6
CONTINUOUS
 62
     7
100
AcDbPolyline
 90
        2
 70
   128
 43
0.0
 10
29.96665675586571
 20
15.73124442830146
 10
29.96665675586571
 20
15.91874442830146
  0
LWPOLYLINE
  5
9A
330
A
100
AcDbEntity
  8
ADP1DETAIL
  6
CONTINUOUS
 62
     7
100
AcDbPolyline
 90
        2
 70
   128
 43
0.0
 10
30.59415675586571
 20
15.73266091600976
 10
30.59415675586571
 20
15.92016091600976
  0
LWPOLYLINE
  5
9E
330
A
100
AcDbEntity
  8
ADP1DETAIL
  6
CONTINUOUS
 62
     7
100
AcDbPolyline
 90
        2
 70
   128
 43
0.0
 10
30.53165675586571
 20
15.73266091600976
 10
30.53165675586571
 20
15.92016091600976
  0
LWPOLYLINE
  5
A2
330
A
100
AcDbEntity
  8
ADP1DETAIL
  6
CONTINUOUS
 62
     7
100
AcDbPolyline
 90
        2
 70
   128
 43
0.0
 10
30.46915675586571
 20
15.73266091600976
 10
30.46915675586571
 20
15.92016091600976
  0
LWPOLYLINE
  5
A6
330
A
100
AcDbEntity
  8
ADP1DETAIL
  6
CONTINUOUS
 62
     7
100
AcDbPolyline
 90
        2
 70
   128
 43
0.0
 10
30.40665675586571
 20
15.73266091600976
 10
30.40665675586571
 20
15.92016091600976
  0
LWPOLYLINE
  5
AA
330
A
100
AcDbEntity
  8
ADP1DETAIL
  6
CONTINUOUS
 62
     7
100
AcDbPolyline
 90
        2
 70
   128
 43
0.0
 10
30.34415675586571
 20
15.73266091600976
 10
30.34415675586571
 20
15.92016091600976
  0
LWPOLYLINE
  5
AE
330
A
100
AcDbEntity
  8
ADP1DETAIL
  6
CONTINUOUS
 62
     7
100
AcDbPolyline
 90
        2
 70
   128
 43
0.0
 10
31.03415675586571
 20
16.73266091600976
 10
31.03415675586571
 20
15.04516091600976
  0
LWPOLYLINE
  5
B2
330
A
100
AcDbEntity
  8
ADP1DETAIL
  6
CONTINUOUS
 62
     7
100
AcDbPolyline
 90
        2
 70
   128
 43
0.0
 10
31.1741567558657
 20
15.04516091600976
 10
31.1741567558657
 20
14.82641091600976
  0
ARC
  5
B6
330
A
100
AcDbEntity
  8
ADP1DETAIL
  6
CONTINUOUS
 62
     7
100
AcDbCircle
 10
-31.26790675586571
 20
14.82641091600976
 30
0.0
 40
0.09375
210
0.0
220
0.0
230
-1.0
100
AcDbArc
 50
270.0000000000008
 51
360.0000000000008
  0
LWPOLYLINE
  5
B7
330
A
100
AcDbEntity
  8
ADP1DETAIL
  6
CONTINUOUS
 62
     7
100
AcDbPolyline
 90
        2
 70
   128
 43
0.0
 10
30.90665675586571
 20
15.73266091600976
 10
30.90665675586571
 20
15.92016091600976
  0
LWPOLYLINE
  5
BB
330
A
100
AcDbEntity
  8
ADP1DETAIL
  6
CONTINUOUS
 62
     7
100
AcDbPolyline
 90
        2
 70
   128
 43
0.0
 10
30.84415675586571
 20
15.73266091600976
 10
30.84415675586571
 20
15.92016091600976
  0
LWPOLYLINE
  5
BF
330
A
100
AcDbEntity
  8
ADP1DETAIL
  6
CONTINUOUS
 62
     7
100
AcDbPolyline
 90
        2
 70
   128
 43
0.0
 10
30.78165675586571
 20
15.73266091600976
 10
30.78165675586571
 20
15.92016091600976
  0
LWPOLYLINE
  5
C3
330
A
100
AcDbEntity
  8
ADP1DETAIL
  6
CONTINUOUS
 62
     7
100
AcDbPolyline
 90
        2
 70
   128
 43
0.0
 10
30.71915675586571
 20
15.73266091600976
 10
30.71915675586571
 20
15.92016091600976
  0
LWPOLYLINE
  5
C7
330
A
100
AcDbEntity
  8
ADP1DETAIL
  6
CONTINUOUS
 62
     7
100
AcDbPolyline
 90
        2
 70
   128
 43
0.0
 10
30.97165675586571
 20
15.73407740371806
 10
30.97165675586571
 20
15.92157740371806
  0
LWPOLYLINE
  5
CB
330
A
100
AcDbEntity
  8
ADP1DETAIL
  6
CONTINUOUS
 62
     7
100
AcDbPolyline
 90
        2
 70
   128
 43
0.0
 10
30.65665675586571
 20
15.73266091600976
 10
30.65665675586571
 20
15.92016091600976
  0
LWPOLYLINE
  5
CF
330
A
100
AcDbEntity
  8
ADP1DETAIL
  6
CONTINUOUS
 62
     7
100
AcDbPolyline
 90
        2
 70
   128
 43
0.0
 10
31.03415675586571
 20
16.73266091600976
 10
30.90915675586571
 20
16.85766091600976
  0
ARC
  5
D3
330
A
100
AcDbEntity
  8
ADP1DETAIL
  6
CONTINUOUS
 62
     7
100
AcDbCircle
 10
-32.21915675586571
 20
14.60766091600976
 30
0.0
 40
0.125
210
0.0
220
0.0
230
-1.0
100
AcDbArc
 50
90.0
 51
180.0
  0
LWPOLYLINE
  5
D4
330
A
100
AcDbEntity
  8
ADP1DETAIL
  6
CONTINUOUS
 62
     7
100
AcDbPolyline
 90
        2
 70
   128
 43
0.0
 10
32.34415675586571
 20
14.48266091600976
 10
32.34415675586571
 20
14.60766091600976
  0
LWPOLYLINE
  5
D8
330
A
100
AcDbEntity
  8
ADPDIM
  6
CONTINUOUS
 62
     3
 48
0.125
100
AcDbPolyline
 90
        2
 70
   128
 43
0.0
 10
29.45165675586571
 20
15.04516091600976
 10
27.93246921505012
 20
15.04516091600976
  0
LWPOLYLINE
  5
DC
330
A
100
AcDbEntity
  8
ADPDIM
  6
CONTINUOUS
 62
     3
 48
0.125
100
AcDbPolyline
 90
        2
 70
   128
 43
0.0
 10
28.28165675586571
 20
14.48266091600976
 10
27.93246921505012
 20
14.48266091600976
  0
LWPOLYLINE
  5
E0
330
A
100
AcDbEntity
  8
ADPDIM
  6
CONTINUOUS
 62
     3
 48
0.125
100
AcDbPolyline
 90
        2
 70
   128
 43
0.0
 10
28.11246921505012
 20
15.04516091600976
 10
28.11246921505012
 20
15.29516091600976
  0
LWPOLYLINE
  5
E4
330
A
100
AcDbEntity
  8
ADPDIM
  6
CONTINUOUS
 62
     3
 48
0.125
100
AcDbPolyline
 90
        2
 70
   128
 43
0.0
 10
28.11246921505012
 20
14.48266091600976
 10
28.11246921505012
 20
14.23266091600976
  0
LWPOLYLINE
  5
E8
330
A
100
AcDbEntity
  8
ADPDIM
  6
CONTINUOUS
 62
     3
 48
0.125
100
AcDbPolyline
 90
        2
 70
   128
 43
0.0
 10
28.23746921505012
 20
14.92016091600976
 10
27.98746921505012
 20
15.17016091600976
  0
LWPOLYLINE
  5
EC
330
A
100
AcDbEntity
  8
ADPDIM
  6
CONTINUOUS
 62
     3
 48
0.125
100
AcDbPolyline
 90
        2
 70
   128
 43
0.0
 10
28.23746921505012
 20
14.35766091600976
 10
27.98746921505012
 20
14.60766091600976
  0
TEXT
  5
F0
330
A
100
AcDbEntity
  8
ADPDIM
 62
     3
 48
0.0
100
AcDbText
 10
28.17496921505012
 20
13.69099424934309
 30
0.0
 40
0.125
  1
9/16
 50
90.0
 72
     5
 11
28.17496921505012
 21
14.10766091600976
 31
0.0
100
AcDbText
  0
LWPOLYLINE
  5
F1
330
A
100
AcDbEntity
  8
ADPDIM
  6
CONTINUOUS
 62
     3
 48
0.125
100
AcDbPolyline
 90
        2
 70
   128
 43
0.0
 10
28.34415675586571
 20
14.42016091600976
 10
28.34415675586571
 20
13.95668261542758
  0
LWPOLYLINE
  5
F5
330
A
100
AcDbEntity
  8
ADPDIM
  6
CONTINUOUS
 62
     3
 48
0.125
100
AcDbPolyline
 90
        2
 70
   128
 43
0.0
 10
32.32890226294069
 20
14.42016091600976
 10
32.32890226294069
 20
13.95668261542758
  0
LWPOLYLINE
  5
F9
330
A
100
AcDbEntity
  8
ADPDIM
  6
CONTINUOUS
 62
     3
 48
0.125
100
AcDbPolyline
 90
        2
 70
   128
 43
0.0
 10
28.34415675586571
 20
14.13668261542758
 10
30.16986284273653
 20
14.13668261542758
  0
LWPOLYLINE
  5
FD
330
A
100
AcDbEntity
  8
ADPDIM
  6
CONTINUOUS
 62
     3
 48
0.125
100
AcDbPolyline
 90
        2
 70
   128
 43
0.0
 10
32.32890226294069
 20
14.13668261542758
 10
30.50319617606986
 20
14.13668261542758
  0
LWPOLYLINE
  5
101
330
A
100
AcDbEntity
  8
ADPDIM
  6
CONTINUOUS
 62
     3
 48
0.125
100
AcDbPolyline
 90
        2
 70
   128
 43
0.0
 10
28.21915675586571
 20
14.01168261542758
 10
28.46915675586571
 20
14.26168261542758
  0
LWPOLYLINE
  5
105
330
A
100
AcDbEntity
  8
ADPDIM
  6
CONTINUOUS
 62
     3
 48
0.125
100
AcDbPolyline
 90
        2
 70
   128
 43
0.0
 10
32.20390226294068
 20
14.01168261542758
 10
32.45390226294068
 20
14.26168261542758
  0
TEXT
  5
109
330
A
100
AcDbEntity
  8
ADPDIM
 62
     3
 48
0.0
100
AcDbText
 10
30.29486284273653
 20
14.07418261542758
 30
0.0
 40
0.125
  1
4
 72
     5
 11
30.37819617606986
 21
14.07418261542758
 31
0.0
100
AcDbText
  0
LWPOLYLINE
  5
10A
330
A
100
AcDbEntity
  8
ADPDIM
  6
CONTINUOUS
 62
     3
 48
0.125
100
AcDbPolyline
 90
        2
 70
   128
 43
0.0
 10
30.97165675586571
 20
16.85766091600976
 10
32.64228781117398
 20
16.85766091600976
  0
LWPOLYLINE
  5
10E
330
A
100
AcDbEntity
  8
ADPDIM
  6
CONTINUOUS
 62
     3
 48
0.125
100
AcDbPolyline
 90
        2
 70
   128
 43
0.0
 10
32.40665675586571
 20
14.48266091600976
 10
32.64228781117398
 20
14.48266091600976
  0
LWPOLYLINE
  5
112
330
A
100
AcDbEntity
  8
ADPDIM
  6
CONTINUOUS
 62
     3
 48
0.125
100
AcDbPolyline
 90
        2
 70
   128
 43
0.0
 10
32.46228781117398
 20
16.85766091600976
 10
32.46228781117398
 20
16.08682758267642
  0
LWPOLYLINE
  5
116
330
A
100
AcDbEntity
  8
ADPDIM
  6
CONTINUOUS
 62
     3
 48
0.125
100
AcDbPolyline
 90
        2
 70
   128
 43
0.0
 10
32.46228781117398
 20
14.48266091600976
 10
32.46228781117398
 20
15.25349424934309
  0
LWPOLYLINE
  5
11A
330
A
100
AcDbEntity
  8
ADPDIM
  6
CONTINUOUS
 62
     3
 48
0.125
100
AcDbPolyline
 90
        2
 70
   128
 43
0.0
 10
32.58728781117397
 20
16.73266091600976
 10
32.33728781117398
 20
16.98266091600976
  0
LWPOLYLINE
  5
11E
330
A
100
AcDbEntity
  8
ADPDIM
  6
CONTINUOUS
 62
     3
 48
0.125
100
AcDbPolyline
 90
        2
 70
   128
 43
0.0
 10
32.58728781117397
 20
14.35766091600976
 10
32.33728781117398
 20
14.60766091600976
  0
TEXT
  5
122
330
A
100
AcDbEntity
  8
ADPDIM
 62
     3
 48
0.0
100
AcDbText
 10
32.52478781117398
 20
15.37849424934309
 30
0.0
 40
0.125
  1
2 3/8
 50
90.0
 72
     5
 11
32.52478781117398
 21
15.96182758267643
 31
0.0
100
AcDbText
  0
LWPOLYLINE
  5
123
330
A
100
AcDbEntity
  8
ADPDIM
  6
CONTINUOUS
 62
     3
 48
0.125
100
AcDbPolyline
 90
        2
 70
   128
 43
0.0
 10
29.51415675586571
 20
15.10766091600976
 10
29.51415675586571
 20
17.62462661891208
  0
LWPOLYLINE
  5
127
330
A
100
AcDbEntity
  8
ADPDIM
  6
CONTINUOUS
 62
     3
 48
0.125
100
AcDbPolyline
 90
        2
 70
   128
 43
0.0
 10
31.1741567558657
 20
15.10766091600976
 10
31.1741567558657
 20
17.62462661891208
  0
LWPOLYLINE
  5
12B
330
A
100
AcDbEntity
  8
ADPDIM
  6
CONTINUOUS
 62
     3
 48
0.125
100
AcDbPolyline
 90
        2
 70
   128
 43
0.0
 10
29.51415675586571
 20
17.44462661891208
 10
29.88582342253238
 20
17.44462661891208
  0
LWPOLYLINE
  5
12F
330
A
100
AcDbEntity
  8
ADPDIM
  6
CONTINUOUS
 62
     3
 48
0.125
100
AcDbPolyline
 90
        2
 70
   128
 43
0.0
 10
31.1741567558657
 20
17.44462661891208
 10
30.80249008919904
 20
17.44462661891208
  0
LWPOLYLINE
  5
133
330
A
100
AcDbEntity
  8
ADPDIM
  6
CONTINUOUS
 62
     3
 48
0.125
100
AcDbPolyline
 90
        2
 70
   128
 43
0.0
 10
29.38915675586571
 20
17.31962661891208
 10
29.63915675586571
 20
17.56962661891208
  0
LWPOLYLINE
  5
137
330
A
100
AcDbEntity
  8
ADPDIM
  6
CONTINUOUS
 62
     3
 48
0.125
100
AcDbPolyline
 90
        2
 70
   128
 43
0.0
 10
31.04915675586571
 20
17.31962661891208
 10
31.29915675586571
 20
17.56962661891208
  0
TEXT
  5
13B
330
A
100
AcDbEntity
  8
ADPDIM
 62
     3
 48
0.0
100
AcDbText
 10
30.01082342253238
 20
17.38212661891208
 30
0.0
 40
0.125
  1
1 11/16
 72
     5
 11
30.67749008919904
 21
17.38212661891208
 31
0.0
100
AcDbText
  0
LWPOLYLINE
  5
13C
330
A
100
AcDbEntity
  8
ADPDIM
  6
CONTINUOUS
 62
     3
 48
0.125
100
AcDbPolyline
 90
        2
 70
   128
 43
0.0
 10
29.65415675586571
 20
16.79516091600976
 10
29.65415675586571
 20
17.2479713393968
  0
LWPOLYLINE
  5
140
330
A
100
AcDbEntity
  8
ADPDIM
  6
CONTINUOUS
 62
     3
 48
0.125
100
AcDbPolyline
 90
        2
 70
   128
 43
0.0
 10
31.03415675586571
 20
16.79516091600976
 10
31.03415675586571
 20
17.2479713393968
  0
LWPOLYLINE
  5
144
330
A
100
AcDbEntity
  8
ADPDIM
  6
CONTINUOUS
 62
     3
 48
0.125
100
AcDbPolyline
 90
        2
 70
   128
 43
0.0
 10
29.65415675586571
 20
17.0679713393968
 10
29.94832342253237
 20
17.0679713393968
  0
LWPOLYLINE
  5
148
330
A
100
AcDbEntity
  8
ADPDIM
  6
CONTINUOUS
 62
     3
 48
0.125
100
AcDbPolyline
 90
        2
 70
   128
 43
0.0
 10
31.03415675586571
 20
17.0679713393968
 10
30.73999008919904
 20
17.0679713393968
  0
LWPOLYLINE
  5
14C
330
A
100
AcDbEntity
  8
ADPDIM
  6
CONTINUOUS
 62
     3
 48
0.125
100
AcDbPolyline
 90
        2
 70
   128
 43
0.0
 10
29.5291567558657
 20
16.9429713393968
 10
29.7791567558657
 20
17.1929713393968
  0
LWPOLYLINE
  5
150
330
A
100
AcDbEntity
  8
ADPDIM
  6
CONTINUOUS
 62
     3
 48
0.125
100
AcDbPolyline
 90
        2
 70
   128
 43
0.0
 10
30.90915675586571
 20
16.9429713393968
 10
31.15915675586571
 20
17.1929713393968
  0
TEXT
  5
154
330
A
100
AcDbEntity
  8
ADPDIM
 62
     3
 48
0.0
100
AcDbText
 10
30.07332342253238
 20
17.0054713393968
 30
0.0
 40
0.125
  1
1 3/8
 72
     5
 11
30.61499008919904
 21
17.0054713393968
 31
0.0
100
AcDbText
  0
LWPOLYLINE
  5
155
330
A
100
AcDbEntity
  8
DEFPOINTS
  6
CONTINUOUS
 62
     3
 48
0.125
100
AcDbPolyline
 90
        2
 70
   128
 43
0.0
 10
29.51415675586571
 20
15.04516091600976
 10
29.51415675586571
 20
15.04516091600976
  0
LWPOLYLINE
  5
159
330
A
100
AcDbEntity
  8
DEFPOINTS
  6
CONTINUOUS
 62
     3
 48
0.125
100
AcDbPolyline
 90
        2
 70
   128
 43
0.0
 10
29.51415675586571
 20
15.04516091600976
 10
29.51415675586571
 20
15.04516091600976
  0
LWPOLYLINE
  5
15D
330
A
100
AcDbEntity
  8
DEFPOINTS
  6
CONTINUOUS
 62
     3
 48
0.125
100
AcDbPolyline
 90
        2
 70
   128
 43
0.0
 10
28.34415675586571
 20
14.48266091600976
 10
28.34415675586571
 20
14.48266091600976
  0
LWPOLYLINE
  5
161
330
A
100
AcDbEntity
  8
DEFPOINTS
  6
CONTINUOUS
 62
     3
 48
0.125
100
AcDbPolyline
 90
        2
 70
   128
 43
0.0
 10
28.34415675586571
 20
14.48266091600976
 10
28.34415675586571
 20
14.48266091600976
  0
LWPOLYLINE
  5
165
330
A
100
AcDbEntity
  8
DEFPOINTS
  6
CONTINUOUS
 62
     3
 48
0.125
100
AcDbPolyline
 90
        2
 70
   128
 43
0.0
 10
28.11246921505013
 20
14.48266091600976
 10
28.11246921505013
 20
14.48266091600976
  0
LWPOLYLINE
  5
169
330
A
100
AcDbEntity
  8
DEFPOINTS
  6
CONTINUOUS
 62
     3
 48
0.125
100
AcDbPolyline
 90
        2
 70
   128
 43
0.0
 10
28.11246921505013
 20
14.48266091600976
 10
28.11246921505013
 20
14.48266091600976
  0
LWPOLYLINE
  5
16D
330
A
100
AcDbEntity
  8
DEFPOINTS
  6
CONTINUOUS
 62
     3
 48
0.125
100
AcDbPolyline
 90
        2
 70
   128
 43
0.0
 10
28.34415675586571
 20
14.48266091600976
 10
28.34415675586571
 20
14.48266091600976
  0
LWPOLYLINE
  5
171
330
A
100
AcDbEntity
  8
DEFPOINTS
  6
CONTINUOUS
 62
     3
 48
0.125
100
AcDbPolyline
 90
        2
 70
   128
 43
0.0
 10
28.34415675586571
 20
14.48266091600976
 10
28.34415675586571
 20
14.48266091600976
  0
LWPOLYLINE
  5
175
330
A
100
AcDbEntity
  8
DEFPOINTS
  6
CONTINUOUS
 62
     3
 48
0.125
100
AcDbPolyline
 90
        2
 70
   128
 43
0.0
 10
32.32890226294069
 20
14.48266091600976
 10
32.32890226294069
 20
14.48266091600976
  0
LWPOLYLINE
  5
179
330
A
100
AcDbEntity
  8
DEFPOINTS
  6
CONTINUOUS
 62
     3
 48
0.125
100
AcDbPolyline
 90
        2
 70
   128
 43
0.0
 10
32.32890226294069
 20
14.48266091600976
 10
32.32890226294069
 20
14.48266091600976
  0
LWPOLYLINE
  5
17D
330
A
100
AcDbEntity
  8
DEFPOINTS
  6
CONTINUOUS
 62
     3
 48
0.125
100
AcDbPolyline
 90
        2
 70
   128
 43
0.0
 10
32.32890226294069
 20
14.13668261542758
 10
32.32890226294069
 20
14.13668261542758
  0
LWPOLYLINE
  5
181
330
A
100
AcDbEntity
  8
DEFPOINTS
  6
CONTINUOUS
 62
     3
 48
0.125
100
AcDbPolyline
 90
        2
 70
   128
 43
0.0
 10
32.32890226294069
 20
14.13668261542758
 10
32.32890226294069
 20
14.13668261542758
  0
LWPOLYLINE
  5
185
330
A
100
AcDbEntity
  8
DEFPOINTS
  6
CONTINUOUS
 62
     3
 48
0.125
100
AcDbPolyline
 90
        2
 70
   128
 43
0.0
 10
30.90915675586572
 20
16.85766091600976
 10
30.90915675586572
 20
16.85766091600976
  0
LWPOLYLINE
  5
189
330
A
100
AcDbEntity
  8
DEFPOINTS
  6
CONTINUOUS
 62
     3
 48
0.125
100
AcDbPolyline
 90
        2
 70
   128
 43
0.0
 10
30.90915675586572
 20
16.85766091600976
 10
30.90915675586572
 20
16.85766091600976
  0
LWPOLYLINE
  5
18D
330
A
100
AcDbEntity
  8
DEFPOINTS
  6
CONTINUOUS
 62
     3
 48
0.125
100
AcDbPolyline
 90
        2
 70
   128
 43
0.0
 10
32.3441567558657
 20
14.48266091600976
 10
32.3441567558657
 20
14.48266091600976
  0
LWPOLYLINE
  5
191
330
A
100
AcDbEntity
  8
DEFPOINTS
  6
CONTINUOUS
 62
     3
 48
0.125
100
AcDbPolyline
 90
        2
 70
   128
 43
0.0
 10
32.3441567558657
 20
14.48266091600976
 10
32.3441567558657
 20
14.48266091600976
  0
LWPOLYLINE
  5
195
330
A
100
AcDbEntity
  8
DEFPOINTS
  6
CONTINUOUS
 62
     3
 48
0.125
100
AcDbPolyline
 90
        2
 70
   128
 43
0.0
 10
32.46228781117398
 20
14.48266091600976
 10
32.46228781117398
 20
14.48266091600976
  0
LWPOLYLINE
  5
199
330
A
100
AcDbEntity
  8
DEFPOINTS
  6
CONTINUOUS
 62
     3
 48
0.125
100
AcDbPolyline
 90
        2
 70
   128
 43
0.0
 10
32.46228781117398
 20
14.48266091600976
 10
32.46228781117398
 20
14.48266091600976
  0
LWPOLYLINE
  5
19D
330
A
100
AcDbEntity
  8
DEFPOINTS
  6
CONTINUOUS
 62
     3
 48
0.125
100
AcDbPolyline
 90
        2
 70
   128
 43
0.0
 10
29.51415675586571
 20
15.04516091600976
 10
29.51415675586571
 20
15.04516091600976
  0
LWPOLYLINE
  5
1A1
330
A
100
AcDbEntity
  8
DEFPOINTS
  6
CONTINUOUS
 62
     3
 48
0.125
100
AcDbPolyline
 90
        2
 70
   128
 43
0.0
 10
29.51415675586571
 20
15.04516091600976
 10
29.51415675586571
 20
15.04516091600976
  0
LWPOLYLINE
  5
1A5
330
A
100
AcDbEntity
  8
DEFPOINTS
  6
CONTINUOUS
 62
     3
 48
0.125
100
AcDbPolyline
 90
        2
 70
   128
 43
0.0
 10
31.17415675586571
 20
15.04516091600976
 10
31.17415675586571
 20
15.04516091600976
  0
LWPOLYLINE
  5
1A9
330
A
100
AcDbEntity
  8
DEFPOINTS
  6
CONTINUOUS
 62
     3
 48
0.125
100
AcDbPolyline
 90
        2
 70
   128
 43
0.0
 10
31.17415675586571
 20
15.04516091600976
 10
31.17415675586571
 20
15.04516091600976
  0
LWPOLYLINE
  5
1AD
330
A
100
AcDbEntity
  8
DEFPOINTS
  6
CONTINUOUS
 62
     3
 48
0.125
100
AcDbPolyline
 90
        2
 70
   128
 43
0.0
 10
31.17415675586571
 20
17.44462661891208
 10
31.17415675586571
 20
17.44462661891208
  0
LWPOLYLINE
  5
1B1
330
A
100
AcDbEntity
  8
DEFPOINTS
  6
CONTINUOUS
 62
     3
 48
0.125
100
AcDbPolyline
 90
        2
 70
   128
 43
0.0
 10
31.17415675586571
 20
17.44462661891208
 10
31.17415675586571
 20
17.44462661891208
  0
LWPOLYLINE
  5
1B5
330
A
100
AcDbEntity
  8
DEFPOINTS
  6
CONTINUOUS
 62
     3
 48
0.125
100
AcDbPolyline
 90
        2
 70
   128
 43
0.0
 10
29.65415675586571
 20
16.73266091600976
 10
29.65415675586571
 20
16.73266091600976
  0
LWPOLYLINE
  5
1B9
330
A
100
AcDbEntity
  8
DEFPOINTS
  6
CONTINUOUS
 62
     3
 48
0.125
100
AcDbPolyline
 90
        2
 70
   128
 43
0.0
 10
29.65415675586571
 20
16.73266091600976
 10
29.65415675586571
 20
16.73266091600976
  0
LWPOLYLINE
  5
1BD
330
A
100
AcDbEntity
  8
DEFPOINTS
  6
CONTINUOUS
 62
     3
 48
0.125
100
AcDbPolyline
 90
        2
 70
   128
 43
0.0
 10
31.03415675586572
 20
16.73266091600976
 10
31.03415675586572
 20
16.73266091600976
  0
LWPOLYLINE
  5
1C1
330
A
100
AcDbEntity
  8
DEFPOINTS
  6
CONTINUOUS
 62
     3
 48
0.125
100
AcDbPolyline
 90
        2
 70
   128
 43
0.0
 10
31.03415675586572
 20
16.73266091600976
 10
31.03415675586572
 20
16.73266091600976
  0
LWPOLYLINE
  5
1C5
330
A
100
AcDbEntity
  8
DEFPOINTS
  6
CONTINUOUS
 62
     3
 48
0.125
100
AcDbPolyline
 90
        2
 70
   128
 43
0.0
 10
31.03415675586572
 20
17.06797133939681
 10
31.03415675586572
 20
17.06797133939681
  0
LWPOLYLINE
  5
1C9
330
A
100
AcDbEntity
  8
DEFPOINTS
  6
CONTINUOUS
 62
     3
 48
0.125
100
AcDbPolyline
 90
        2
 70
   128
 43
0.0
 10
31.03415675586572
 20
17.06797133939681
 10
31.03415675586572
 20
17.06797133939681
  0
TEXT
  5
1DA
330
A
100
AcDbEntity
  8
ADPDIM
100
AcDbText
 10
20.68446820312761
 20
9.23411021318893
 30
0.0
 40
0.1875
  1
J U L I U S  B L U M  &  C O . ,  I N C .      ( 8 0 0 )  5 2 6 - 6 2 9 3        W W W . J U L I U S B L U M . C O M        P A R T  N o .  7 2 7
 41
1.25
  7
ARIAL_WIDE
 72
     1
 11
30.3365295094032
 21
9.42161021318893
 31
0.0
100
AcDbText
 73
     3
  0
ENDSEC
  0
SECTION
  2
OBJECTS
  0
DICTIONARY
  5
19
330
0
100
AcDbDictionary
  3
ACAD_GROUP
350
1A
  3
ACAD_LAYOUT
350
1D2
  3
ACAD_MLINESTYLE
350
1B
  3
ACAD_PLOTSETTINGS
350
1D3
  3
ACAD_PLOTSTYLENAME
350
1D0
  3
ACDBHEADERROUNDTRIPXREC
350
36D
  3
ACDBVARIABLEDICTIONARY
350
23C
  0
DICTIONARY
  5
230
330
A
100
AcDbDictionary
280
     1
  3
ACAD_LAYOUTSELFREF
360
38D
  0
DICTIONARY
  5
232
330
B
100
AcDbDictionary
280
     1
  3
ACAD_LAYOUTSELFREF
360
38E
  0
DICTIONARY
  5
1A
102
{ACAD_REACTORS
330
19
102
}
330
19
100
AcDbDictionary
  0
DICTIONARY
  5
1D2
102
{ACAD_REACTORS
330
19
102
}
330
19
100
AcDbDictionary
  0
DICTIONARY
  5
1B
102
{ACAD_REACTORS
330
19
102
}
330
19
100
AcDbDictionary
  3
STANDARD
350
1C
  0
DICTIONARY
  5
1D3
102
{ACAD_REACTORS
330
19
102
}
330
19
100
AcDbDictionary
  0
ACDBDICTIONARYWDFLT
  5
1D0
102
{ACAD_REACTORS
330
19
102
}
330
19
100
AcDbDictionary
281
     1
  3
Normal
350
1D1
100
AcDbDictionaryWithDefault
340
1D1
  0
DICTIONARY
  5
36D
102
{ACAD_REACTORS
330
19
102
}
330
19
100
AcDbDictionary
  3
CEPSNTYPE
350
377
  3
FINGERPRINTGUID
350
378
  3
HYPERLINKBASE
350
370
  3
INSUNITS
350
376
  3
LAYOUTDICT
350
372
  3
LWETCUNION
350
375
  3
PLOTSETDICT
350
373
  3
PLOTSTYLNAMDICT
350
374
  3
PSVPSCALE
350
37A
  3
PUCSBASE
350
37D
  3
PUCSORGBACK
350
383
  3
PUCSORGBOTTOM
350
37F
  3
PUCSORGFRONT
350
382
  3
PUCSORGLEFT
350
380
  3
PUCSORGRIGHT
350
381
  3
PUCSORGTOP
350
37E
  3
PUCSORTHOREF
350
37B
  3
PUCSORTHOVIEW
350
37C
  3
STYLESHEET
350
371
  3
TSTACKALIGN
350
36E
  3
TSTACKSIZE
350
36F
  3
UCSBASE
350
386
  3
UCSORGBACK
350
38C
  3
UCSORGBOTTOM
350
388
  3
UCSORGFRONT
350
38B
  3
UCSORGLEFT
350
389
  3
UCSORGRIGHT
350
38A
  3
UCSORGTOP
350
387
  3
UCSORTHOREF
350
384
  3
UCSORTHOVIEW
350
385
  3
VERSIONGUID
350
379
  0
DICTIONARY
  5
23C
102
{ACAD_REACTORS
330
19
102
}
330
19
100
AcDbDictionary
  3
DIMASSOC
350
23D
  0
XRECORD
  5
38D
102
{ACAD_REACTORS
330
230
102
}
330
230
100
AcDbXrecord
340
A
  0
XRECORD
  5
38E
102
{ACAD_REACTORS
330
232
102
}
330
232
100
AcDbXrecord
340
B
  0
MLINESTYLE
  5
1C
102
{ACAD_REACTORS
330
1B
102
}
330
1B
100
AcDbMlineStyle
  2
STANDARD
 70
     0
  3

 62
     0
 51
90.00000000000019
 52
90.00000000000019
 71
     2
 49
0.5
 62
   256
  6
BYLAYER
 49
-0.5
 62
   256
  6
BYLAYER
  0
ACDBPLACEHOLDER
  5
1D1
102
{ACAD_REACTORS
330
1D0
102
}
330
1D0
100
AcDbPlaceHolder
280
     0
  0
XRECORD
  5
377
102
{ACAD_REACTORS
330
36D
102
}
330
36D
100
AcDbXrecord
 90
        0
  0
XRECORD
  5
378
102
{ACAD_REACTORS
330
36D
102
}
330
36D
100
AcDbXrecord
  1
{05D8BB4B-0B3E-4E09-80AD-DDAE77080E93}
  0
XRECORD
  5
370
102
{ACAD_REACTORS
330
36D
102
}
330
36D
100
AcDbXrecord
  1

  0
XRECORD
  5
376
102
{ACAD_REACTORS
330
36D
102
}
330
36D
100
AcDbXrecord
 90
        0
  0
XRECORD
  5
372
102
{ACAD_REACTORS
330
36D
102
}
330
36D
100
AcDbXrecord
340
1D2
  0
XRECORD
  5
375
102
{ACAD_REACTORS
330
36D
102
}
330
36D
100
AcDbXrecord
 90
    14877
  0
XRECORD
  5
373
102
{ACAD_REACTORS
330
36D
102
}
330
36D
100
AcDbXrecord
340
1D3
  0
XRECORD
  5
374
102
{ACAD_REACTORS
330
36D
102
}
330
36D
100
AcDbXrecord
340
1D0
  0
XRECORD
  5
37A
102
{ACAD_REACTORS
330
36D
102
}
330
36D
100
AcDbXrecord
 40
0.0
  0
XRECORD
  5
37D
102
{ACAD_REACTORS
330
36D
102
}
330
36D
100
AcDbXrecord
340
0
  0
XRECORD
  5
383
102
{ACAD_REACTORS
330
36D
102
}
330
36D
100
AcDbXrecord
 10
0.0
 20
0.0
 30
0.0
  0
XRECORD
  5
37F
102
{ACAD_REACTORS
330
36D
102
}
330
36D
100
AcDbXrecord
 10
0.0
 20
0.0
 30
0.0
  0
XRECORD
  5
382
102
{ACAD_REACTORS
330
36D
102
}
330
36D
100
AcDbXrecord
 10
0.0
 20
0.0
 30
0.0
  0
XRECORD
  5
380
102
{ACAD_REACTORS
330
36D
102
}
330
36D
100
AcDbXrecord
 10
0.0
 20
0.0
 30
0.0
  0
XRECORD
  5
381
102
{ACAD_REACTORS
330
36D
102
}
330
36D
100
AcDbXrecord
 10
0.0
 20
0.0
 30
0.0
  0
XRECORD
  5
37E
102
{ACAD_REACTORS
330
36D
102
}
330
36D
100
AcDbXrecord
 10
0.0
 20
0.0
 30
0.0
  0
XRECORD
  5
37B
102
{ACAD_REACTORS
330
36D
102
}
330
36D
100
AcDbXrecord
340
0
  0
XRECORD
  5
37C
102
{ACAD_REACTORS
330
36D
102
}
330
36D
100
AcDbXrecord
 70
     0
  0
XRECORD
  5
371
102
{ACAD_REACTORS
330
36D
102
}
330
36D
100
AcDbXrecord
  1

  0
XRECORD
  5
36E
102
{ACAD_REACTORS
330
36D
102
}
330
36D
100
AcDbXrecord
 90
        1
  0
XRECORD
  5
36F
102
{ACAD_REACTORS
330
36D
102
}
330
36D
100
AcDbXrecord
 90
       70
  0
XRECORD
  5
386
102
{ACAD_REACTORS
330
36D
102
}
330
36D
100
AcDbXrecord
340
0
  0
XRECORD
  5
38C
102
{ACAD_REACTORS
330
36D
102
}
330
36D
100
AcDbXrecord
 10
0.0
 20
0.0
 30
0.0
  0
XRECORD
  5
388
102
{ACAD_REACTORS
330
36D
102
}
330
36D
100
AcDbXrecord
 10
0.0
 20
0.0
 30
0.0
  0
XRECORD
  5
38B
102
{ACAD_REACTORS
330
36D
102
}
330
36D
100
AcDbXrecord
 10
0.0
 20
0.0
 30
0.0
  0
XRECORD
  5
389
102
{ACAD_REACTORS
330
36D
102
}
330
36D
100
AcDbXrecord
 10
0.0
 20
0.0
 30
0.0
  0
XRECORD
  5
38A
102
{ACAD_REACTORS
330
36D
102
}
330
36D
100
AcDbXrecord
 10
0.0
 20
0.0
 30
0.0
  0
XRECORD
  5
387
102
{ACAD_REACTORS
330
36D
102
}
330
36D
100
AcDbXrecord
 10
0.0
 20
0.0
 30
0.0
  0
XRECORD
  5
384
102
{ACAD_REACTORS
330
36D
102
}
330
36D
100
AcDbXrecord
340
0
  0
XRECORD
  5
385
102
{ACAD_REACTORS
330
36D
102
}
330
36D
100
AcDbXrecord
 70
     0
  0
XRECORD
  5
379
102
{ACAD_REACTORS
330
36D
102
}
330
36D
100
AcDbXrecord
  1
{5CF5A5D5-5D15-481B-A36E-E5B18D12B2F4}
  0
DICTIONARYVAR
  5
23D
102
{ACAD_REACTORS
330
23C
102
}
330
23C
100
DictionaryVariables
280
     0
  1
1
  0
ENDSEC
  0
EOF
