  0
SECTION
  2
HEADER
  9
$ACADVER
  1
AC1015
  9
$ACADMAINTVER
 70
    18
  9
$DWGCODEPAGE
  3
ANSI_1252
  9
$INSBASE
 10
0.0
 20
0.0
 30
0.0
  9
$EXTMIN
 10
1.000000000000000E+20
 20
1.000000000000000E+20
 30
1.000000000000000E+20
  9
$EXTMAX
 10
0.0
 20
0.0
 30
0.0
  9
$LIMMIN
 10
0.0
 20
0.0
  9
$LIMMAX
 10
0.0
 20
0.0
  9
$ORTHOMODE
 70
     1
  9
$REGENMODE
 70
     1
  9
$FILLMODE
 70
     1
  9
$QTEXTMODE
 70
     0
  9
$MIRRTEXT
 70
     1
  9
$LTSCALE
 40
1.0
  9
$ATTMODE
 70
     1
  9
$TEXTSIZE
 40
0.0
  9
$TRACEWID
 40
0.05
  9
$TEXTSTYLE
  7
STANDARD
  9
$CLAYER
  8
0
  9
$CELTYPE
  6
CONTINUOUS
  9
$CECOLOR
 62
   256
  9
$CELTSCALE
 40
1.0
  9
$DISPSILH
 70
     0
  9
$DIMSCALE
 40
1.0
  9
$DIMASZ
 40
0.18
  9
$DIMEXO
 40
0.0625
  9
$DIMDLI
 40
0.38
  9
$DIMRND
 40
0.0
  9
$DIMDLE
 40
0.0
  9
$DIMEXE
 40
0.18
  9
$DIMTP
 40
0.0
  9
$DIMTM
 40
0.0
  9
$DIMTXT
 40
0.18
  9
$DIMCEN
 40
0.09
  9
$DIMTSZ
 40
0.0
  9
$DIMTOL
 70
     0
  9
$DIMLIM
 70
     0
  9
$DIMTIH
 70
     1
  9
$DIMTOH
 70
     1
  9
$DIMSE1
 70
     0
  9
$DIMSE2
 70
     0
  9
$DIMTAD
 70
     0
  9
$DIMZIN
 70
     0
  9
$DIMBLK
  1

  9
$DIMASO
 70
     1
  9
$DIMSHO
 70
     1
  9
$DIMPOST
  1

  9
$DIMAPOST
  1

  9
$DIMALT
 70
     0
  9
$DIMALTD
 70
     2
  9
$DIMALTF
 40
25.4
  9
$DIMLFAC
 40
1.0
  9
$DIMTOFL
 70
     0
  9
$DIMTVP
 40
0.0
  9
$DIMTIX
 70
     0
  9
$DIMSOXD
 70
     0
  9
$DIMSAH
 70
     0
  9
$DIMBLK1
  1

  9
$DIMBLK2
  1

  9
$DIMSTYLE
  2
STANDARD
  9
$DIMCLRD
 70
     0
  9
$DIMCLRE
 70
     0
  9
$DIMCLRT
 70
     0
  9
$DIMTFAC
 40
1.0
  9
$DIMGAP
 40
0.09
  9
$DIMJUST
 70
     0
  9
$DIMSD1
 70
     0
  9
$DIMSD2
 70
     0
  9
$DIMTOLJ
 70
     1
  9
$DIMTZIN
 70
     0
  9
$DIMALTZ
 70
     0
  9
$DIMALTTZ
 70
     0
  9
$DIMUPT
 70
     0
  9
$DIMDEC
 70
     4
  9
$DIMTDEC
 70
     4
  9
$DIMALTU
 70
     2
  9
$DIMALTTD
 70
     2
  9
$DIMTXSTY
  7
STANDARD
  9
$DIMAUNIT
 70
     0
  9
$DIMADEC
 70
     0
  9
$DIMALTRND
 40
0.0
  9
$DIMAZIN
 70
     0
  9
$DIMDSEP
 70
    46
  9
$DIMATFIT
 70
     3
  9
$DIMFRAC
 70
     0
  9
$DIMLDRBLK
  1

  9
$DIMLUNIT
 70
     2
  9
$DIMLWD
 70
    -2
  9
$DIMLWE
 70
    -2
  9
$DIMTMOVE
 70
     0
  9
$LUNITS
 70
     4
  9
$LUPREC
 70
     4
  9
$SKETCHINC
 40
0.1
  9
$FILLETRAD
 40
0.0
  9
$AUNITS
 70
     0
  9
$AUPREC
 70
     0
  9
$MENU
  1
acad
  9
$ELEVATION
 40
0.0
  9
$PELEVATION
 40
0.0
  9
$THICKNESS
 40
0.0
  9
$LIMCHECK
 70
     0
  9
$CHAMFERA
 40
0.0
  9
$CHAMFERB
 40
0.0
  9
$CHAMFERC
 40
0.0
  9
$CHAMFERD
 40
0.0
  9
$SKPOLY
 70
     0
  9
$TDCREATE
 40
2452292.670072338
  9
$TDUCREATE
 40
2452292.836739005
  9
$TDUPDATE
 40
2453937.696239954
  9
$TDUUPDATE
 40
2453937.862906620
  9
$TDINDWG
 40
0.0169706713
  9
$TDUSRTIMER
 40
0.0169706713
  9
$USRTIMER
 70
     1
  9
$ANGBASE
 50
0.0
  9
$ANGDIR
 70
     0
  9
$PDMODE
 70
     0
  9
$PDSIZE
 40
0.0
  9
$PLINEWID
 40
0.0
  9
$SPLFRAME
 70
     0
  9
$SPLINETYPE
 70
     6
  9
$SPLINESEGS
 70
     8
  9
$HANDSEED
  5
FA
  9
$SURFTAB1
 70
     6
  9
$SURFTAB2
 70
     6
  9
$SURFTYPE
 70
     6
  9
$SURFU
 70
     6
  9
$SURFV
 70
     6
  9
$UCSBASE
  2

  9
$UCSNAME
  2

  9
$UCSORG
 10
0.0
 20
0.0
 30
0.0
  9
$UCSXDIR
 10
1.0
 20
0.0
 30
0.0
  9
$UCSYDIR
 10
0.0
 20
1.0
 30
0.0
  9
$UCSORTHOREF
  2

  9
$UCSORTHOVIEW
 70
     0
  9
$UCSORGTOP
 10
0.0
 20
0.0
 30
0.0
  9
$UCSORGBOTTOM
 10
0.0
 20
0.0
 30
0.0
  9
$UCSORGLEFT
 10
0.0
 20
0.0
 30
0.0
  9
$UCSORGRIGHT
 10
0.0
 20
0.0
 30
0.0
  9
$UCSORGFRONT
 10
0.0
 20
0.0
 30
0.0
  9
$UCSORGBACK
 10
0.0
 20
0.0
 30
0.0
  9
$PUCSBASE
  2

  9
$PUCSNAME
  2

  9
$PUCSORG
 10
0.0
 20
0.0
 30
0.0
  9
$PUCSXDIR
 10
1.0
 20
0.0
 30
0.0
  9
$PUCSYDIR
 10
0.0
 20
1.0
 30
0.0
  9
$PUCSORTHOREF
  2

  9
$PUCSORTHOVIEW
 70
     0
  9
$PUCSORGTOP
 10
0.0
 20
0.0
 30
0.0
  9
$PUCSORGBOTTOM
 10
0.0
 20
0.0
 30
0.0
  9
$PUCSORGLEFT
 10
0.0
 20
0.0
 30
0.0
  9
$PUCSORGRIGHT
 10
0.0
 20
0.0
 30
0.0
  9
$PUCSORGFRONT
 10
0.0
 20
0.0
 30
0.0
  9
$PUCSORGBACK
 10
0.0
 20
0.0
 30
0.0
  9
$USERI1
 70
     0
  9
$USERI2
 70
     0
  9
$USERI3
 70
     0
  9
$USERI4
 70
     0
  9
$USERI5
 70
     0
  9
$USERR1
 40
0.0
  9
$USERR2
 40
0.0
  9
$USERR3
 40
0.0
  9
$USERR4
 40
0.0
  9
$USERR5
 40
0.0
  9
$WORLDVIEW
 70
     1
  9
$SHADEDGE
 70
     3
  9
$SHADEDIF
 70
    70
  9
$TILEMODE
 70
     1
  9
$MAXACTVP
 70
    16
  9
$PINSBASE
 10
0.0
 20
0.0
 30
0.0
  9
$PLIMCHECK
 70
     0
  9
$PEXTMIN
 10
1.000000000000000E+20
 20
1.000000000000000E+20
 30
1.000000000000000E+20
  9
$PEXTMAX
 10
-1.000000000000000E+20
 20
-1.000000000000000E+20
 30
-1.000000000000000E+20
  9
$PLIMMIN
 10
0.0
 20
0.0
  9
$PLIMMAX
 10
12.0
 20
9.0
  9
$UNITMODE
 70
     0
  9
$VISRETAIN
 70
     0
  9
$PLINEGEN
 70
     0
  9
$PSLTSCALE
 70
     0
  9
$TREEDEPTH
 70
  3020
  9
$CMLSTYLE
  2
STANDARD
  9
$CMLJUST
 70
     0
  9
$CMLSCALE
 40
1.0
  9
$PROXYGRAPHICS
 70
     1
  9
$MEASUREMENT
 70
     0
  9
$CELWEIGHT
370
    -1
  9
$ENDCAPS
280
     0
  9
$JOINSTYLE
280
     0
  9
$LWDISPLAY
290
     0
  9
$INSUNITS
 70
     0
  9
$HYPERLINKBASE
  1

  9
$STYLESHEET
  1

  9
$XEDIT
290
     1
  9
$CEPSNTYPE
380
     0
  9
$PSTYLEMODE
290
     1
  9
$FINGERPRINTGUID
  2
{BA10E683-01EB-48C7-BD3C-FBC5F6A67BF8}
  9
$VERSIONGUID
  2
{52545E1C-7692-4B52-8F56-103BBF0A6B77}
  9
$EXTNAMES
290
     1
  9
$PSVPSCALE
 40
0.0
  9
$OLESTARTUP
290
     0
  0
ENDSEC
  0
SECTION
  2
CLASSES
  0
CLASS
  1
IMAGE
  2
AcDbRasterImage
  3
ISM
 90
    32895
280
     0
281
     1
  0
CLASS
  1
DICTIONARYVAR
  2
AcDbDictionaryVar
  3
ObjectDBX Classes
 90
        0
280
     0
281
     0
  0
CLASS
  1
RASTERVARIABLES
  2
AcDbRasterVariables
  3
ISM
 90
    32768
280
     0
281
     0
  0
CLASS
  1
IMAGEDEF
  2
AcDbRasterImageDef
  3
ISM
 90
    32768
280
     0
281
     0
  0
CLASS
  1
IMAGEDEF_REACTOR
  2
AcDbRasterImageDefReactor
  3
ISM
 90
    32769
280
     0
281
     0
  0
CLASS
  1
IDBUFFER
  2
AcDbIdBuffer
  3
ObjectDBX Classes
 90
    32768
280
     0
281
     0
  0
CLASS
  1
SPATIAL_FILTER
  2
AcDbSpatialFilter
  3
ObjectDBX Classes
 90
    32768
280
     0
281
     0
  0
CLASS
  1
SORTENTSTABLE
  2
AcDbSortentsTable
  3
ObjectDBX Classes
 90
    32768
280
     0
281
     0
  0
CLASS
  1
LAYER_INDEX
  2
AcDbLayerIndex
  3
ObjectDBX Classes
 90
    32768
280
     0
281
     0
  0
CLASS
  1
SPATIAL_INDEX
  2
AcDbSpatialIndex
  3
ObjectDBX Classes
 90
    32768
280
     0
281
     0
  0
CLASS
  1
OBJECT_PTR
  2
CAseDLPNTableRecord
  3
ASE-LPNTableRecord
 90
    32769
280
     0
281
     0
  0
CLASS
  1
ACDBDICTIONARYWDFLT
  2
AcDbDictionaryWithDefault
  3
ObjectDBX Classes
 90
        0
280
     0
281
     0
  0
CLASS
  1
ACDBPLACEHOLDER
  2
AcDbPlaceHolder
  3
ObjectDBX Classes
 90
        0
280
     0
281
     0
  0
CLASS
  1
LAYOUT
  2
AcDbLayout
  3
ObjectDBX Classes
 90
        0
280
     0
281
     0
  0
CLASS
  1
AEC_VARS_DWG_SETUP
  2
AecDbVarsDwgSetup
  3
AecBase40|Product Desc: Autodesk Architectural Desktop 2004 |Company: Autodesk,Inc. |WEB Address: www.autodesk.com
 90
    32897
280
     0
281
     0
  0
CLASS
  1
AEC_VARS_ARCHBASE
  2
AecDbVarsArchBase
  3
AecArchBase40|Product Desc: Autodesk Architectural Desktop 2004 |Company: Autodesk,Inc. |WEB Address: www.autodesk.com
 90
    32897
280
     0
281
     0
  0
CLASS
  1
AEC_VARS_MUNICH
  2
AecDbVarsMunich
  3
AecArchDACHBase40|Product Desc: Autodesk Architectural Desktop 2004 |Company: Autodesk,Inc. |WEB Address: www.autodesk.com
 90
    32897
280
     0
281
     0
  0
ENDSEC
  0
SECTION
  2
TABLES
  0
TABLE
  2
VPORT
  5
E3
330
0
100
AcDbSymbolTable
 70
     1
  0
VPORT
  5
E4
330
E3
100
AcDbSymbolTableRecord
100
AcDbViewportTableRecord
  2
*Active
 70
     0
 10
0.0
 20
0.0
 11
1.0
 21
1.0
 12
-2.457995228727231
 22
-1.549530909732711
 13
0.0
 23
0.0
 14
1.0
 24
1.0
 15
0.0
 25
0.0
 16
0.0
 26
0.0
 36
1.0
 17
0.0
 27
0.0
 37
0.0
 40
11.12671729389994
 41
1.64558629776021
 42
50.0
 43
0.0
 44
0.0
 50
0.0
 51
0.0
 71
     0
 72
   100
 73
     1
 74
     1
 75
     0
 76
     0
 77
     0
 78
     0
281
     0
 65
     1
110
0.0
120
0.0
130
0.0
111
1.0
121
0.0
131
0.0
112
0.0
122
1.0
132
0.0
 79
     0
146
0.0
  0
ENDTAB
  0
TABLE
  2
LTYPE
  5
DE
330
0
100
AcDbSymbolTable
 70
     1
  0
LTYPE
  5
DF
330
DE
100
AcDbSymbolTableRecord
100
AcDbLinetypeTableRecord
  2
BYBLOCK
 70
     0
  3

 72
    65
 73
     0
 40
0.0
  0
LTYPE
  5
E0
330
DE
100
AcDbSymbolTableRecord
100
AcDbLinetypeTableRecord
  2
BYLAYER
 70
     0
  3

 72
    65
 73
     0
 40
0.0
  0
LTYPE
  5
A
330
DE
100
AcDbSymbolTableRecord
100
AcDbLinetypeTableRecord
  2
CONTINUOUS
 70
     0
  3
Solid line
 72
    65
 73
     0
 40
0.0
  0
ENDTAB
  0
TABLE
  2
LAYER
  5
D9
102
{ACAD_XDICTIONARY
360
DA
102
}
330
0
100
AcDbSymbolTable
 70
     6
  0
LAYER
  5
68
330
D9
100
AcDbSymbolTableRecord
100
AcDbLayerTableRecord
  2
0
 70
     0
 62
     7
  6
CONTINUOUS
370
    -3
390
7
  0
LAYER
  5
6
330
D9
100
AcDbSymbolTableRecord
100
AcDbLayerTableRecord
  2
0
 70
     0
 62
   250
  6
CONTINUOUS
370
    -3
390
7
  0
LAYER
  5
C
330
D9
100
AcDbSymbolTableRecord
100
AcDbLayerTableRecord
  2
ADP1DETAIL
 70
     0
 62
   250
  6
CONTINUOUS
370
    -3
390
7
  0
LAYER
  5
A9
330
D9
100
AcDbSymbolTableRecord
100
AcDbLayerTableRecord
  2
DEFPOINTS
 70
     0
 62
   250
  6
CONTINUOUS
290
     0
370
    -3
390
7
  0
LAYER
  5
13
330
D9
100
AcDbSymbolTableRecord
100
AcDbLayerTableRecord
  2
ADP2DETAIL
 70
     0
 62
   250
  6
CONTINUOUS
370
    -3
390
7
  0
LAYER
  5
53
330
D9
100
AcDbSymbolTableRecord
100
AcDbLayerTableRecord
  2
ADPDIM
 70
     0
 62
     3
  6
CONTINUOUS
370
    -3
390
7
  0
ENDTAB
  0
TABLE
  2
STYLE
  5
DC
330
0
100
AcDbSymbolTable
 70
     2
  0
STYLE
  5
5A
330
DC
100
AcDbSymbolTableRecord
100
AcDbTextStyleTableRecord
  2
STANDARD
 70
     0
 40
0.0
 41
1.0
 50
0.0
 71
     0
 42
0.0
  3
txt
  4

  0
STYLE
  5
BA
330
DC
100
AcDbSymbolTableRecord
100
AcDbTextStyleTableRecord
  2
ARIAL_WIDE
 70
     0
 40
0.0
 41
1.25
 50
0.0
 71
     0
 42
0.2
  3
ARIAL.TTF
  4

1001
ACAD
1000
Arial
1071
       34
  0
ENDTAB
  0
TABLE
  2
VIEW
  5
E1
330
0
100
AcDbSymbolTable
 70
     0
  0
ENDTAB
  0
TABLE
  2
UCS
  5
E2
330
0
100
AcDbSymbolTable
 70
     0
  0
ENDTAB
  0
TABLE
  2
APPID
  5
E5
330
0
100
AcDbSymbolTable
 70
     1
  0
APPID
  5
BB
330
E5
100
AcDbSymbolTableRecord
100
AcDbRegAppTableRecord
  2
ACAD
 70
     0
  0
ENDTAB
  0
TABLE
  2
DIMSTYLE
  5
E6
330
0
100
AcDbSymbolTable
 70
     1
100
AcDbDimStyleTable
 71
     0
  0
DIMSTYLE
105
EE
330
E6
100
AcDbSymbolTableRecord
100
AcDbDimStyleTableRecord
  2
STANDARD
 70
     0
289
     0
340
5A
  0
ENDTAB
  0
TABLE
  2
BLOCK_RECORD
  5
1
330
0
100
AcDbSymbolTable
 70
     0
  0
BLOCK_RECORD
  5
2
102
{ACAD_XDICTIONARY
360
3
102
}
330
1
100
AcDbSymbolTableRecord
100
AcDbBlockTableRecord
  2
*MODEL_SPACE
340
D1
  0
BLOCK_RECORD
  5
D3
102
{ACAD_XDICTIONARY
360
D4
102
}
330
1
100
AcDbSymbolTableRecord
100
AcDbBlockTableRecord
  2
*PAPER_SPACE
340
D8
  0
ENDTAB
  0
ENDSEC
  0
SECTION
  2
BLOCKS
  0
BLOCK
  5
5
330
2
100
AcDbEntity
  8
0
100
AcDbBlockBegin
  2
*MODEL_SPACE
 70
     0
 10
0.0
 20
0.0
 30
0.0
  3
*MODEL_SPACE
  1

  0
ENDBLK
  5
D0
330
2
100
AcDbEntity
  8
0
100
AcDbBlockEnd
  0
BLOCK
  5
D6
330
D3
100
AcDbEntity
 67
     1
  8
0
100
AcDbBlockBegin
  2
*PAPER_SPACE
 70
     0
 10
0.0
 20
0.0
 30
0.0
  3
*PAPER_SPACE
  1

  0
ENDBLK
  5
D7
330
D3
100
AcDbEntity
 67
     1
  8
0
100
AcDbBlockEnd
  0
ENDSEC
  0
SECTION
  2
ENTITIES
  0
CIRCLE
  5
B
330
2
100
AcDbEntity
  8
ADP1DETAIL
  6
Continuous
 62
     7
100
AcDbCircle
 10
-2.034453781911178
 20
-1.561002125025722
 30
0.0
 40
1.51006711409396
210
0.0
220
0.0
230
-1.0
  0
CIRCLE
  5
D
330
2
100
AcDbEntity
  8
ADP1DETAIL
  6
Continuous
 62
     7
100
AcDbCircle
 10
-2.034453781911178
 20
-1.561002125025722
 30
0.0
 40
1.411764542521451
210
0.0
220
0.0
230
-1.0
  0
LWPOLYLINE
  5
E
330
2
100
AcDbEntity
  8
ADP1DETAIL
  6
Continuous
 62
     7
100
AcDbPolyline
 90
        2
 70
   128
 43
0.0
 10
-3.452576682583778
 20
-3.057028022771431
 10
-3.452576682583778
 20
-1.560383727469418
  0
LWPOLYLINE
  5
F
330
2
100
AcDbEntity
  8
ADP1DETAIL
  6
Continuous
 62
     7
100
AcDbPolyline
 90
        2
 70
   128
 43
0.0
 10
-3.204254534932772
 20
-2.184544801294922
 10
-3.204254534932772
 20
-2.90056093381726
  0
LWPOLYLINE
  5
10
330
2
100
AcDbEntity
  8
ADP1DETAIL
  6
Continuous
 62
     7
100
AcDbPolyline
 90
        2
 70
   128
 43
0.0
 10
-3.240094048772586
 20
-2.957036195095577
 10
-3.452576682583778
 20
-3.057028022771431
  0
ARC
  5
11
330
2
100
AcDbEntity
  8
ADP1DETAIL
  6
Continuous
 62
     7
100
AcDbCircle
 10
3.266670642315321
 20
-2.90056093381726
 30
0.0
 40
0.0624161073825506
210
0.0
220
0.0
230
-1.0
100
AcDbArc
 50
180.0
 51
244.7988763545262
  0
LWPOLYLINE
  5
12
330
2
100
AcDbEntity
  8
ADP2DETAIL
  6
Continuous
 62
     5
100
AcDbPolyline
 90
        2
 70
   128
 43
0.0
 10
-2.704909613346738
 20
-1.743745549991133
 10
-0.9179212561553409
 20
-1.750213304113816
  0
LWPOLYLINE
  5
14
330
2
100
AcDbEntity
  8
ADP2DETAIL
  6
Continuous
 62
     5
100
AcDbPolyline
 90
        2
 70
   128
 43
0.0
 10
-0.9355081064193942
 20
-1.360722356703041
 10
-2.700197306327953
 20
-1.360722356703041
  0
LWPOLYLINE
  5
15
330
2
100
AcDbEntity
  8
ADP1DETAIL
  6
Continuous
 62
     7
100
AcDbPolyline
 90
        2
 70
   128
 43
0.0
 10
-2.707610239630759
 20
-1.996625338207673
 10
-0.9347210859867228
 20
-1.996625338207673
  0
LWPOLYLINE
  5
16
330
2
100
AcDbEntity
  8
ADP1DETAIL
  6
Continuous
 62
     7
100
AcDbPolyline
 90
        2
 70
   128
 43
0.0
 10
-0.9287884012739869
 20
-1.11209326632305
 10
-2.707610239630759
 20
-1.11209326632305
  0
LWPOLYLINE
  5
17
330
2
100
AcDbEntity
  8
ADP1DETAIL
  6
Continuous
 62
     7
100
AcDbPolyline
 90
        2
 70
   128
 43
0.0
 10
-3.452576682583778
 20
-1.560383727469418
 10
-3.452576682583778
 20
-0.0570280227714308
  0
LWPOLYLINE
  5
18
330
2
100
AcDbEntity
  8
ADP1DETAIL
  6
Continuous
 62
     7
100
AcDbPolyline
 90
        2
 70
   128
 43
0.0
 10
-3.204254534932772
 20
-0.9295112442479428
 10
-3.204254534932772
 20
-2.184544801294922
  0
LWPOLYLINE
  5
19
330
2
100
AcDbEntity
  8
ADP1DETAIL
  6
Continuous
 62
     7
100
AcDbPolyline
 90
        2
 70
   128
 43
0.0
 10
-2.707610239630759
 20
-1.057028022771431
 10
-2.707610239630759
 20
-2.044662280986571
  0
LWPOLYLINE
  5
1A
330
2
100
AcDbEntity
  8
ADP1DETAIL
  6
Continuous
 62
     7
100
AcDbPolyline
 90
        2
 70
   128
 43
0.0
 10
-2.707610239630759
 20
-2.063739432167404
 10
-3.177408897348878
 20
-2.164410573107002
  0
LWPOLYLINE
  5
1B
330
2
100
AcDbEntity
  8
ADP1DETAIL
  6
Continuous
 62
     7
100
AcDbPolyline
 90
        2
 70
   128
 43
0.0
 10
-3.177408897348878
 20
-2.164410573107002
 10
-3.190831716140827
 20
-2.171121982502976
  0
LWPOLYLINE
  5
1C
330
2
100
AcDbEntity
  8
ADP1DETAIL
  6
Continuous
 62
     7
100
AcDbPolyline
 90
        2
 70
   128
 43
0.0
 10
-3.190831716140827
 20
-2.171121982502976
 10
-3.204254534932772
 20
-2.184544801294922
  0
LWPOLYLINE
  5
1D
330
2
100
AcDbEntity
  8
ADP2DETAIL
  6
Continuous
 62
     5
100
AcDbPolyline
 90
        2
 70
   128
 43
0.0
 10
-1.775471249595038
 20
-1.360722356703041
 10
-1.775471249595038
 20
-1.743745549991133
  0
LWPOLYLINE
  5
1E
330
2
100
AcDbEntity
  8
ADP1DETAIL
  6
Continuous
 62
     7
100
AcDbPolyline
 90
        2
 70
   128
 43
0.0
 10
-3.204254534932772
 20
-0.213495111725607
 10
-3.204254534932772
 20
-0.9295112442479428
  0
LWPOLYLINE
  5
1F
330
2
100
AcDbEntity
  8
ADP1DETAIL
  6
Continuous
 62
     7
100
AcDbPolyline
 90
        2
 70
   128
 43
0.0
 10
-3.177408897348878
 20
-0.9496454724358628
 10
-2.707610239630759
 20
-1.057028022771431
  0
LWPOLYLINE
  5
20
330
2
100
AcDbEntity
  8
ADP1DETAIL
  6
Continuous
 62
     7
100
AcDbPolyline
 90
        2
 70
   128
 43
0.0
 10
-3.190831716140827
 20
-0.9496454724358628
 10
-3.177408897348878
 20
-0.9496454724358628
  0
LWPOLYLINE
  5
21
330
2
100
AcDbEntity
  8
ADP1DETAIL
  6
Continuous
 62
     7
100
AcDbPolyline
 90
        2
 70
   128
 43
0.0
 10
-3.204254534932772
 20
-0.9295112442479428
 10
-3.190831716140827
 20
-0.9496454724358628
  0
LWPOLYLINE
  5
22
330
2
100
AcDbEntity
  8
ADP1DETAIL
  6
Continuous
 62
     7
100
AcDbPolyline
 90
        2
 70
   128
 43
0.0
 10
-3.452576682583778
 20
-0.0570280227714308
 10
-3.240094048772586
 20
-0.1570198504472899
  0
ARC
  5
23
330
2
100
AcDbEntity
  8
ADP1DETAIL
  6
Continuous
 62
     7
100
AcDbCircle
 10
3.266670642315321
 20
-0.213495111725607
 30
0.0
 40
0.0624161073825502
210
0.0
220
0.0
230
-1.0
100
AcDbArc
 50
115.2011236454752
 51
180.0
  0
ARC
  5
24
330
2
100
AcDbEntity
  8
ADP1DETAIL
  6
Continuous
 62
     7
100
AcDbCircle
 10
0.912927592324905
 20
-1.550977312811346
 30
0.0
 40
0.5937105666172124
210
0.0
220
0.0
230
-1.0
100
AcDbArc
 50
132.6439677928446
 51
175.5803845135488
  0
LWPOLYLINE
  5
25
330
2
100
AcDbEntity
  8
ADP1DETAIL
  6
Continuous
 62
     7
100
AcDbPolyline
 90
        2
 70
   128
 43
0.0
 10
-0.7339169520572387
 20
-1.11209326632305
 10
-0.7339169520572387
 20
-1.992374640371125
  0
LWPOLYLINE
  5
26
330
2
100
AcDbEntity
  8
ADP1DETAIL
  6
Continuous
 62
     7
100
AcDbPolyline
 90
        2
 70
   128
 43
0.0
 10
-0.6734396057485941
 20
-1.992374640371125
 10
-0.6734396057485941
 20
-1.11209326632305
  0
LWPOLYLINE
  5
27
330
2
100
AcDbEntity
  8
ADP1DETAIL
  6
Continuous
 62
     7
100
AcDbPolyline
 90
        2
 70
   128
 43
0.0
 10
-0.4852878616772496
 20
-1.958776114644098
 10
-0.4852878616772496
 20
-1.15241149719548
  0
LWPOLYLINE
  5
28
330
2
100
AcDbEntity
  8
ADP1DETAIL
  6
Continuous
 62
     7
100
AcDbPolyline
 90
        2
 70
   128
 43
0.0
 10
-0.5121666822588718
 20
-1.11209326632305
 10
-0.5121666822588718
 20
-1.992374640371125
  0
LWPOLYLINE
  5
29
330
2
100
AcDbEntity
  8
ADP1DETAIL
  6
Continuous
 62
     7
100
AcDbPolyline
 90
        2
 70
   128
 43
0.0
 10
-0.9287884012739869
 20
-1.992374640371125
 10
-0.9287884012739869
 20
-1.11209326632305
  0
LWPOLYLINE
  5
2A
330
2
100
AcDbEntity
  8
ADP2DETAIL
  6
Continuous
 62
     5
100
AcDbPolyline
 90
        2
 70
   128
 43
0.0
 10
-1.719525695971339
 20
-1.387538670075452
 10
-1.719525695971339
 20
-1.696645106764087
  0
LWPOLYLINE
  5
2B
330
2
100
AcDbEntity
  8
ADP2DETAIL
  6
Continuous
 62
     5
100
AcDbPolyline
 90
        2
 70
   128
 43
0.0
 10
-1.652328644517284
 20
-1.387538670075452
 10
-1.652328644517284
 20
-1.696645106764087
  0
LWPOLYLINE
  5
2C
330
2
100
AcDbEntity
  8
ADP1DETAIL
  6
Continuous
 62
     7
100
AcDbPolyline
 90
        2
 70
   128
 43
0.0
 10
-0.9287884012739869
 20
-1.992374640371125
 10
-0.9287884012739869
 20
-1.992374640371125
  0
LWPOLYLINE
  5
2D
330
2
100
AcDbEntity
  8
ADP1DETAIL
  6
Continuous
 62
     7
100
AcDbPolyline
 90
        2
 70
   128
 43
0.0
 10
-0.9234626696997448
 20
-1.996625338207673
 10
-0.9234626696997448
 20
-1.996625338207673
  0
LWPOLYLINE
  5
2E
330
2
100
AcDbEntity
  8
ADP2DETAIL
  6
Continuous
 62
     5
100
AcDbPolyline
 90
        2
 70
   128
 43
0.0
 10
-1.623230757956934
 20
-1.368160914771618
 10
-1.623230757956934
 20
-1.731024992623498
  0
LWPOLYLINE
  5
2F
330
2
100
AcDbEntity
  8
ADP2DETAIL
  6
Continuous
 62
     5
100
AcDbPolyline
 90
        2
 70
   128
 43
0.0
 10
-1.690427809410986
 20
-1.368160914771618
 10
-1.690427809410986
 20
-1.731024992623498
  0
ARC
  5
30
330
2
100
AcDbEntity
  8
ADP1DETAIL
  6
Continuous
 62
     7
100
AcDbCircle
 10
0.912927592324905
 20
-1.550977312811346
 30
0.0
 40
0.5937105666172125
210
0.0
220
0.0
230
-1.0
100
AcDbArc
 50
185.2252541121395
 51
227.3560322071561
  0
LWPOLYLINE
  5
31
330
2
100
AcDbEntity
  8
ADP2DETAIL
  6
Continuous
 62
     5
100
AcDbPolyline
 90
        2
 70
   128
 43
0.0
 10
-1.591851298208639
 20
-1.387538670075452
 10
-1.591851298208639
 20
-1.696645106764087
  0
LWPOLYLINE
  5
32
330
2
100
AcDbEntity
  8
ADP1DETAIL
  6
Continuous
 62
     7
100
AcDbPolyline
 90
        3
 70
   128
 43
0.0
 10
-0.3941634029082333
 20
-1.505225757205838
 10
-0.3941634029082333
 20
-1.605047439381225
 10
-0.321684276653897
 20
-1.605047439381225
  0
LWPOLYLINE
  5
33
330
2
100
AcDbEntity
  8
ADP1DETAIL
  6
Continuous
 62
     7
100
AcDbPolyline
 90
        2
 70
   128
 43
0.0
 10
-0.3209824664284215
 20
-1.505225757205838
 10
-0.3941634029082333
 20
-1.505225757205838
  0
LWPOLYLINE
  5
34
330
2
100
AcDbEntity
  8
ADP2DETAIL
  6
Continuous
 62
     5
100
AcDbPolyline
 90
        2
 70
   128
 43
0.0
 10
-1.591695010168351
 20
-1.398040161464357
 10
-1.591695010168351
 20
-1.707146598152992
  0
LWPOLYLINE
  5
35
330
2
100
AcDbEntity
  8
ADP2DETAIL
  6
Continuous
 62
     5
100
AcDbPolyline
 90
        2
 70
   128
 43
0.0
 10
-1.524497958714299
 20
-1.398040161464357
 10
-1.524497958714299
 20
-1.707146598152992
  0
LWPOLYLINE
  5
36
330
2
100
AcDbEntity
  8
ADP1DETAIL
  6
Continuous
 62
     7
100
AcDbPolyline
 90
        2
 70
   128
 43
0.0
 10
-0.5121666822588718
 20
-1.743745549991133
 10
-0.5121666822588718
 20
-1.360722356703041
  0
LWPOLYLINE
  5
37
330
2
100
AcDbEntity
  8
ADP2DETAIL
  6
Continuous
 62
     5
100
AcDbPolyline
 90
        2
 70
   128
 43
0.0
 10
-1.558096484441325
 20
-1.371161340882734
 10
-1.558096484441325
 20
-1.734025418734614
  0
LWPOLYLINE
  5
38
330
2
100
AcDbEntity
  8
ADP1DETAIL
  6
Continuous
 62
     7
100
AcDbPolyline
 90
        2
 70
   128
 43
0.0
 10
-0.6734396057485941
 20
-1.11209326632305
 10
-0.7339169520572387
 20
-1.11209326632305
  0
CIRCLE
  5
39
330
2
100
AcDbEntity
  8
ADP1DETAIL
  6
Continuous
 62
     7
100
AcDbCircle
 10
-2.034453781911178
 20
-1.55967262452907
 30
0.0
 40
0.4404362416107386
210
0.0
220
0.0
230
-1.0
  0
CIRCLE
  5
3A
330
2
100
AcDbEntity
  8
ADP1DETAIL
  6
Continuous
 62
     7
100
AcDbCircle
 10
-2.034453781911178
 20
-1.55967262452907
 30
0.0
 40
0.3695416396422315
210
0.0
220
0.0
230
-1.0
  0
CIRCLE
  5
3B
330
2
100
AcDbEntity
  8
ADP1DETAIL
  6
Continuous
 62
     7
100
AcDbCircle
 10
-2.034453781911178
 20
-1.561002125025722
 30
0.0
 40
0.5098039113020687
210
0.0
220
0.0
230
-1.0
  0
LWPOLYLINE
  5
3C
330
2
100
AcDbEntity
  8
ADP1DETAIL
  6
Continuous
 62
     7
100
AcDbPolyline
 90
        2
 70
   128
 43
0.0
 10
2.076082497594879
 20
-1.509761848407879
 10
2.076082497594879
 20
-1.399555754900933
  0
ARC
  5
3D
330
2
100
AcDbEntity
  8
ADP1DETAIL
  6
Continuous
 62
     7
100
AcDbCircle
 10
-2.044874443903603
 20
-1.399555754900934
 30
0.0
 40
0.0312080536912753
210
0.0
220
0.0
230
-1.0
100
AcDbArc
 50
89.99999999999836
 51
179.9999999999979
  0
LWPOLYLINE
  5
3E
330
2
100
AcDbEntity
  8
ADP1DETAIL
  6
Continuous
 62
     7
100
AcDbPolyline
 90
        2
 70
   128
 43
0.0
 10
2.044874443903602
 20
-1.368347701209658
 10
2.015707296683665
 20
-1.368347701209658
  0
ARC
  5
3F
330
2
100
AcDbEntity
  8
ADP1DETAIL
  6
Continuous
 62
     7
100
AcDbCircle
 10
-2.015707296683663
 20
-1.399555754900936
 30
0.0
 40
0.0312080536912778
210
0.0
220
0.0
230
-1.0
100
AcDbArc
 50
0.0000000000048919
 51
90.00000000000326
  0
LWPOLYLINE
  5
40
330
2
100
AcDbEntity
  8
ADP1DETAIL
  6
Continuous
 62
     7
100
AcDbPolyline
 90
        2
 70
   128
 43
0.0
 10
1.984499242992385
 20
-1.609583530583267
 10
1.984499242992385
 20
-1.719789624090213
  0
ARC
  5
41
330
2
100
AcDbEntity
  8
ADP1DETAIL
  6
Continuous
 62
     7
100
AcDbCircle
 10
-2.015707296683662
 20
-1.71978962409021
 30
0.0
 40
0.0312080536912776
210
0.0
220
0.0
230
-1.0
100
AcDbArc
 50
269.9999999999959
 51
359.9999999999951
  0
LWPOLYLINE
  5
42
330
2
100
AcDbEntity
  8
ADP1DETAIL
  6
Continuous
 62
     7
100
AcDbPolyline
 90
        2
 70
   128
 43
0.0
 10
2.015707296683665
 20
-1.750997677781488
 10
2.044874443903602
 20
-1.750997677781488
  0
ARC
  5
43
330
2
100
AcDbEntity
  8
ADP1DETAIL
  6
Continuous
 62
     7
100
AcDbCircle
 10
-2.044874443903603
 20
-1.719789624090212
 30
0.0
 40
0.031208053691276
210
0.0
220
0.0
230
-1.0
100
AcDbArc
 50
180.0000000000024
 51
270.0000000000025
  0
LWPOLYLINE
  5
44
330
2
100
AcDbEntity
  8
ADP1DETAIL
  6
Continuous
 62
     7
100
AcDbPolyline
 90
        2
 70
   128
 43
0.0
 10
2.076082497594879
 20
-1.719789624090213
 10
2.076082497594879
 20
-1.609583530583267
  0
LWPOLYLINE
  5
45
330
2
100
AcDbEntity
  8
ADP1DETAIL
  6
Continuous
 62
     7
100
AcDbPolyline
 90
        2
 70
   128
 43
0.0
 10
1.984499242992385
 20
-1.399555754900933
 10
1.984499242992385
 20
-1.509761848407879
  0
LWPOLYLINE
  5
46
330
2
100
AcDbEntity
  8
ADP1DETAIL
  6
Continuous
 62
     7
100
AcDbPolyline
 90
        2
 70
   128
 43
0.0
 10
2.066468633440483
 20
-1.365258447905083
 10
1.999271581986427
 20
-1.365258447905083
  0
LWPOLYLINE
  5
47
330
2
100
AcDbEntity
  8
ADP1DETAIL
  6
Continuous
 62
     7
100
AcDbPolyline
 90
        2
 70
   128
 43
0.0
 10
1.984499242992385
 20
-1.509761848407879
 10
1.874169503162378
 20
-1.509761848407879
  0
ARC
  5
48
330
2
100
AcDbEntity
  8
ADP1DETAIL
  6
Continuous
 62
     7
100
AcDbCircle
 10
-1.874169503162379
 20
-1.540969902099153
 30
0.0
 40
0.0312080536912742
210
0.0
220
0.0
230
-1.0
100
AcDbArc
 50
359.9999999999992
 51
89.99999999999714
  0
LWPOLYLINE
  5
49
330
2
100
AcDbEntity
  8
ADP1DETAIL
  6
Continuous
 62
     7
100
AcDbPolyline
 90
        2
 70
   128
 43
0.0
 10
1.842961449471104
 20
-1.540969902099154
 10
1.842961449471104
 20
-1.578375476891992
  0
ARC
  5
4A
330
2
100
AcDbEntity
  8
ADP1DETAIL
  6
Continuous
 62
     7
100
AcDbCircle
 10
-1.874169503162382
 20
-1.578375476891989
 30
0.0
 40
0.0312080536912773
210
0.0
220
0.0
230
-1.0
100
AcDbArc
 50
269.9999999999959
 51
359.9999999999951
  0
LWPOLYLINE
  5
4B
330
2
100
AcDbEntity
  8
ADP1DETAIL
  6
Continuous
 62
     7
100
AcDbPolyline
 90
        2
 70
   128
 43
0.0
 10
1.874169503162385
 20
-1.609583530583267
 10
1.984499242992385
 20
-1.609583530583267
  0
LWPOLYLINE
  5
4C
330
2
100
AcDbEntity
  8
ADP1DETAIL
  6
Continuous
 62
     7
100
AcDbPolyline
 90
        2
 70
   128
 43
0.0
 10
1.999271581986427
 20
-1.748281641193175
 10
2.066468633440483
 20
-1.748281641193175
  0
LWPOLYLINE
  5
4D
330
2
100
AcDbEntity
  8
ADP1DETAIL
  6
Continuous
 62
     7
100
AcDbPolyline
 90
        2
 70
   128
 43
0.0
 10
2.076082497594879
 20
-1.609583530583267
 10
2.186412237424886
 20
-1.609583530583267
  0
ARC
  5
4E
330
2
100
AcDbEntity
  8
ADP1DETAIL
  6
Continuous
 62
     7
100
AcDbCircle
 10
-2.186412237424885
 20
-1.578375476891993
 30
0.0
 40
0.031208053691274
210
0.0
220
0.0
230
-1.0
100
AcDbArc
 50
179.9999999999988
 51
269.9999999999992
  0
LWPOLYLINE
  5
4F
330
2
100
AcDbEntity
  8
ADP1DETAIL
  6
Continuous
 62
     7
100
AcDbPolyline
 90
        2
 70
   128
 43
0.0
 10
2.217620291116159
 20
-1.578375476891992
 10
2.217620291116159
 20
-1.540969902099154
  0
ARC
  5
50
330
2
100
AcDbEntity
  8
ADP1DETAIL
  6
Continuous
 62
     7
100
AcDbCircle
 10
-2.186412237424883
 20
-1.540969902099155
 30
0.0
 40
0.0312080536912762
210
0.0
220
0.0
230
-1.0
100
AcDbArc
 50
89.9999999999992
 51
179.9999999999988
  0
LWPOLYLINE
  5
51
330
2
100
AcDbEntity
  8
ADP1DETAIL
  6
Continuous
 62
     7
100
AcDbPolyline
 90
        2
 70
   128
 43
0.0
 10
2.186412237424882
 20
-1.509761848407879
 10
2.076082497594879
 20
-1.509761848407879
  0
LWPOLYLINE
  5
52
330
2
100
AcDbEntity
  8
ADPDIM
  6
Continuous
 62
     3
 48
0.125
100
AcDbPolyline
 90
        2
 70
   128
 43
0.0
 10
-3.452576682583778
 20
-3.119528022771431
 10
-3.452576682583778
 20
-3.489550682191898
  0
LWPOLYLINE
  5
54
330
2
100
AcDbEntity
  8
ADPDIM
  6
Continuous
 62
     3
 48
0.125
100
AcDbPolyline
 90
        2
 70
   128
 43
0.0
 10
-0.9347210859867228
 20
-2.059125338207673
 10
-0.9347210859867228
 20
-3.489550682191898
  0
LWPOLYLINE
  5
55
330
2
100
AcDbEntity
  8
ADPDIM
  6
Continuous
 62
     3
 48
0.125
100
AcDbPolyline
 90
        2
 70
   128
 43
0.0
 10
-3.452576682583778
 20
-3.309550682191898
 10
-2.589482217618583
 20
-3.309550682191898
  0
LWPOLYLINE
  5
56
330
2
100
AcDbEntity
  8
ADPDIM
  6
Continuous
 62
     3
 48
0.125
100
AcDbPolyline
 90
        2
 70
   128
 43
0.0
 10
-0.9347210859867228
 20
-3.309550682191898
 10
-1.797815550951917
 20
-3.309550682191898
  0
LWPOLYLINE
  5
57
330
2
100
AcDbEntity
  8
ADPDIM
  6
Continuous
 62
     3
 48
0.125
100
AcDbPolyline
 90
        2
 70
   128
 43
0.0
 10
-3.577576682583778
 20
-3.434550682191898
 10
-3.327576682583778
 20
-3.184550682191898
  0
LWPOLYLINE
  5
58
330
2
100
AcDbEntity
  8
ADPDIM
  6
Continuous
 62
     3
 48
0.125
100
AcDbPolyline
 90
        2
 70
   128
 43
0.0
 10
-1.059721085986722
 20
-3.434550682191898
 10
-0.8097210859867228
 20
-3.184550682191898
  0
TEXT
  5
59
330
2
100
AcDbEntity
  8
ADPDIM
 62
     3
 48
0.0
100
AcDbText
 10
-2.464482217618583
 20
-3.372050682191898
 30
0.0
 40
0.125
  1
2 1/2
 72
     5
 11
-1.922815550951916
 21
-3.372050682191898
 31
0.0
100
AcDbText
  0
LWPOLYLINE
  5
5B
330
2
100
AcDbEntity
  8
ADPDIM
  6
Continuous
 62
     3
 48
0.125
100
AcDbPolyline
 90
        2
 70
   128
 43
0.0
 10
0.8689563608351958
 20
-2.521167970353137
 10
0.6760017877903954
 20
-2.680128760301787
  0
LWPOLYLINE
  5
5C
330
2
100
AcDbEntity
  8
ADPDIM
  6
Continuous
 62
     3
 48
0.125
100
AcDbPolyline
 90
        2
 70
   128
 43
0.0
 10
0.8519594692871205
 20
-2.697125651849862
 10
0.8859532523832712
 20
-2.345210288856412
  0
LWPOLYLINE
  5
5D
330
2
100
AcDbEntity
  8
ADPDIM
  6
Continuous
 62
     3
 48
0.125
100
AcDbPolyline
 90
        2
 70
   128
 43
0.0
 10
1.846953781911174
 20
-1.561002125025721
 10
2.221953781911174
 20
-1.561002125025721
  0
LWPOLYLINE
  5
5E
330
2
100
AcDbEntity
  8
ADPDIM
  6
Continuous
 62
     3
 48
0.125
100
AcDbPolyline
 90
        2
 70
   128
 43
0.0
 10
2.034453781911174
 20
-1.748502125025721
 10
2.034453781911174
 20
-1.373502125025721
  0
TEXT
  5
5F
330
2
100
AcDbEntity
  8
ADPDIM
 62
     3
 48
0.0
100
AcDbText
 10
0.4584692212178237
 20
-2.94031512349452
 30
0.0
 40
0.1249999999999999
  1
%%c3
 50
39.4825481412694
 72
     5
 11
0.6192646987551575
 21
-2.807847798537312
 31
0.0
100
AcDbText
  0
LWPOLYLINE
  5
60
330
2
100
AcDbEntity
  8
ADPDIM
  6
Continuous
 62
     3
 48
0.125
100
AcDbPolyline
 90
        2
 70
   128
 43
0.0
 10
-2.707610239630759
 20
-0.9945280227714315
 10
-2.707610239630759
 20
-0.5839903535409972
  0
LWPOLYLINE
  5
61
330
2
100
AcDbEntity
  8
ADPDIM
  6
Continuous
 62
     3
 48
0.125
100
AcDbPolyline
 90
        2
 70
   128
 43
0.0
 10
-0.9287884012739869
 20
-1.04959326632305
 10
-0.9287884012739869
 20
-0.5839903535409972
  0
LWPOLYLINE
  5
62
330
2
100
AcDbEntity
  8
ADPDIM
  6
Continuous
 62
     3
 48
0.125
100
AcDbPolyline
 90
        2
 70
   128
 43
0.0
 10
-2.707610239630759
 20
-0.7639903535409971
 10
-2.214032653785706
 20
-0.7639903535409971
  0
LWPOLYLINE
  5
63
330
2
100
AcDbEntity
  8
ADPDIM
  6
Continuous
 62
     3
 48
0.125
100
AcDbPolyline
 90
        2
 70
   128
 43
0.0
 10
-0.9287884012739869
 20
-0.7639903535409971
 10
-1.42236598711904
 20
-0.7639903535409971
  0
LWPOLYLINE
  5
64
330
2
100
AcDbEntity
  8
ADPDIM
  6
Continuous
 62
     3
 48
0.125
100
AcDbPolyline
 90
        2
 70
   128
 43
0.0
 10
-2.83261023963076
 20
-0.888990353540997
 10
-2.582610239630759
 20
-0.6389903535409971
  0
LWPOLYLINE
  5
65
330
2
100
AcDbEntity
  8
ADPDIM
  6
Continuous
 62
     3
 48
0.125
100
AcDbPolyline
 90
        2
 70
   128
 43
0.0
 10
-1.053788401273986
 20
-0.888990353540997
 10
-0.8037884012739869
 20
-0.6389903535409971
  0
TEXT
  5
66
330
2
100
AcDbEntity
  8
ADPDIM
 62
     3
 48
0.0
100
AcDbText
 10
-2.089032653785706
 20
-0.826490353540997
 30
0.0
 40
0.125
  1
1 3/4
 72
     5
 11
-1.547365987119039
 21
-0.826490353540997
 31
0.0
100
AcDbText
  0
LWPOLYLINE
  5
67
330
2
100
AcDbEntity
  8
0
  6
Continuous
 62
     7
 48
2.0
100
AcDbPolyline
 90
        2
 70
   128
 43
0.0
 10
-0.9179212561553409
 20
-1.311203389601525
 10
-0.9179212561553409
 20
-1.750213304113816
  0
LWPOLYLINE
  5
69
330
2
100
AcDbEntity
  8
0
  6
Continuous
 62
     7
 48
2.0
100
AcDbPolyline
 90
        2
 70
   128
 43
0.0
 10
-0.7634165739531963
 20
-1.373203389601525
 10
-0.7331414659204548
 20
-1.749203389601526
  0
LWPOLYLINE
  5
6A
330
2
100
AcDbEntity
  8
0
  6
Continuous
 62
     7
 48
2.0
100
AcDbPolyline
 90
        2
 70
   128
 43
0.0
 10
-0.821149511168598
 20
-1.373203389601525
 10
-0.7908744031358566
 20
-1.749203389601526
  0
LWPOLYLINE
  5
6B
330
2
100
AcDbEntity
  8
0
  6
Continuous
 62
     7
 48
2.0
100
AcDbPolyline
 90
        2
 70
   128
 43
0.0
 10
-0.8846557514685898
 20
-1.373203389601525
 10
-0.8543806434358483
 20
-1.749203389601526
  0
LWPOLYLINE
  5
6C
330
2
100
AcDbEntity
  8
0
  6
Continuous
 62
     7
 48
2.0
100
AcDbPolyline
 90
        2
 70
   128
 43
0.0
 10
-0.7641414659204554
 20
-1.811203389601525
 10
-0.7908744031358566
 20
-1.749203389601526
  0
LWPOLYLINE
  5
6D
330
2
100
AcDbEntity
  8
0
  6
Continuous
 62
     7
 48
2.0
100
AcDbPolyline
 90
        2
 70
   128
 43
0.0
 10
-0.9179212561553409
 20
-1.750213304113816
 10
-0.8853806434358489
 20
-1.811203389601525
  0
LWPOLYLINE
  5
6E
330
2
100
AcDbEntity
  8
0
  6
Continuous
 62
     7
 48
2.0
100
AcDbPolyline
 90
        2
 70
   128
 43
0.0
 10
-0.8233806434358495
 20
-1.811203389601525
 10
-0.8543806434358483
 20
-1.749203389601526
  0
LWPOLYLINE
  5
6F
330
2
100
AcDbEntity
  8
0
  6
Continuous
 62
     7
 48
2.0
100
AcDbPolyline
 90
        2
 70
   128
 43
0.0
 10
-0.8543806434358483
 20
-1.749203389601526
 10
-0.8853806434358489
 20
-1.811203389601525
  0
LWPOLYLINE
  5
70
330
2
100
AcDbEntity
  8
0
  6
Continuous
 62
     7
 48
2.0
100
AcDbPolyline
 90
        2
 70
   128
 43
0.0
 10
-0.7908744031358566
 20
-1.749203389601526
 10
-0.8218744031358571
 20
-1.811203389601525
  0
LWPOLYLINE
  5
71
330
2
100
AcDbEntity
  8
0
  6
Continuous
 62
     7
 48
2.0
100
AcDbPolyline
 90
        2
 70
   128
 43
0.0
 10
-0.7331414659204548
 20
-1.749203389601526
 10
-0.7641414659204554
 20
-1.811203389601525
  0
LWPOLYLINE
  5
72
330
2
100
AcDbEntity
  8
0
  6
Continuous
 62
     7
 48
2.0
100
AcDbPolyline
 90
        2
 70
   128
 43
0.0
 10
-0.7634165739531963
 20
-1.373203389601525
 10
-0.7944165739531968
 20
-1.311203389601525
  0
LWPOLYLINE
  5
73
330
2
100
AcDbEntity
  8
0
  6
Continuous
 62
     7
 48
2.0
100
AcDbPolyline
 90
        2
 70
   128
 43
0.0
 10
-0.8846557514685898
 20
-1.373203389601525
 10
-0.9156557514685903
 20
-1.311203389601525
  0
LWPOLYLINE
  5
74
330
2
100
AcDbEntity
  8
0
  6
Continuous
 62
     7
 48
2.0
100
AcDbPolyline
 90
        2
 70
   128
 43
0.0
 10
-0.821149511168598
 20
-1.373203389601525
 10
-0.8521495111685986
 20
-1.311203389601525
  0
LWPOLYLINE
  5
75
330
2
100
AcDbEntity
  8
0
  6
Continuous
 62
     7
 48
2.0
100
AcDbPolyline
 90
        2
 70
   128
 43
0.0
 10
-0.7944165739531968
 20
-1.311203389601525
 10
-0.821149511168598
 20
-1.373203389601525
  0
LWPOLYLINE
  5
76
330
2
100
AcDbEntity
  8
0
  6
Continuous
 62
     7
 48
2.0
100
AcDbPolyline
 90
        2
 70
   128
 43
0.0
 10
-0.853655751468591
 20
-1.311203389601525
 10
-0.8846557514685898
 20
-1.373203389601525
  0
LWPOLYLINE
  5
77
330
2
100
AcDbEntity
  8
0
  6
Continuous
 62
     7
 48
2.0
100
AcDbPolyline
 90
        2
 70
   128
 43
0.0
 10
-0.7324165739531975
 20
-1.311203389601525
 10
-0.7634165739531963
 20
-1.373203389601525
  0
LWPOLYLINE
  5
78
330
2
100
AcDbEntity
  8
ADP2DETAIL
  6
Continuous
 62
     5
100
AcDbPolyline
 90
        2
 70
   128
 43
0.0
 10
-1.524497998748832
 20
-1.396539948408799
 10
-1.524497998748832
 20
-1.705646385097434
  0
LWPOLYLINE
  5
79
330
2
100
AcDbEntity
  8
ADP2DETAIL
  6
Continuous
 62
     5
100
AcDbPolyline
 90
        2
 70
   128
 43
0.0
 10
-1.457300947294777
 20
-1.396539948408799
 10
-1.457300947294777
 20
-1.705646385097434
  0
LWPOLYLINE
  5
7A
330
2
100
AcDbEntity
  8
ADP2DETAIL
  6
Continuous
 62
     5
100
AcDbPolyline
 90
        2
 70
   128
 43
0.0
 10
-1.428203060734428
 20
-1.377162193104965
 10
-1.428203060734428
 20
-1.740026270956844
  0
LWPOLYLINE
  5
7B
330
2
100
AcDbEntity
  8
ADP2DETAIL
  6
Continuous
 62
     5
100
AcDbPolyline
 90
        2
 70
   128
 43
0.0
 10
-1.495400112188479
 20
-1.377162193104965
 10
-1.495400112188479
 20
-1.740026270956844
  0
LWPOLYLINE
  5
7C
330
2
100
AcDbEntity
  8
ADP2DETAIL
  6
Continuous
 62
     5
100
AcDbPolyline
 90
        2
 70
   128
 43
0.0
 10
-1.396823600986132
 20
-1.396539948408799
 10
-1.396823600986132
 20
-1.705646385097434
  0
LWPOLYLINE
  5
7D
330
2
100
AcDbEntity
  8
ADP2DETAIL
  6
Continuous
 62
     5
100
AcDbPolyline
 90
        2
 70
   128
 43
0.0
 10
-1.396667312945844
 20
-1.407041439797703
 10
-1.396667312945844
 20
-1.716147876486338
  0
LWPOLYLINE
  5
7E
330
2
100
AcDbEntity
  8
ADP2DETAIL
  6
Continuous
 62
     5
100
AcDbPolyline
 90
        2
 70
   128
 43
0.0
 10
-1.329470261491792
 20
-1.407041439797703
 10
-1.329470261491792
 20
-1.716147876486338
  0
LWPOLYLINE
  5
7F
330
2
100
AcDbEntity
  8
ADP2DETAIL
  6
Continuous
 62
     5
100
AcDbPolyline
 90
        2
 70
   128
 43
0.0
 10
-1.363068787218818
 20
-1.38016261921608
 10
-1.363068787218818
 20
-1.74302669706796
  0
LWPOLYLINE
  5
80
330
2
100
AcDbEntity
  8
ADP2DETAIL
  6
Continuous
 62
     5
100
AcDbPolyline
 90
        2
 70
   128
 43
0.0
 10
-1.329470301526325
 20
-1.408541652853261
 10
-1.329470301526325
 20
-1.717648089541896
  0
LWPOLYLINE
  5
81
330
2
100
AcDbEntity
  8
ADP2DETAIL
  6
Continuous
 62
     5
100
AcDbPolyline
 90
        2
 70
   128
 43
0.0
 10
-1.26227325007227
 20
-1.408541652853261
 10
-1.26227325007227
 20
-1.717648089541896
  0
LWPOLYLINE
  5
82
330
2
100
AcDbEntity
  8
ADP2DETAIL
  6
Continuous
 62
     5
100
AcDbPolyline
 90
        2
 70
   128
 43
0.0
 10
-1.233175363511921
 20
-1.389163897549427
 10
-1.233175363511921
 20
-1.752027975401306
  0
LWPOLYLINE
  5
83
330
2
100
AcDbEntity
  8
ADP2DETAIL
  6
Continuous
 62
     5
100
AcDbPolyline
 90
        2
 70
   128
 43
0.0
 10
-1.300372414965973
 20
-1.389163897549427
 10
-1.300372414965973
 20
-1.752027975401306
  0
LWPOLYLINE
  5
84
330
2
100
AcDbEntity
  8
ADP2DETAIL
  6
Continuous
 62
     5
100
AcDbPolyline
 90
        2
 70
   128
 43
0.0
 10
-1.201795903763625
 20
-1.408541652853261
 10
-1.201795903763625
 20
-1.717648089541896
  0
LWPOLYLINE
  5
85
330
2
100
AcDbEntity
  8
ADP2DETAIL
  6
Continuous
 62
     5
100
AcDbPolyline
 90
        2
 70
   128
 43
0.0
 10
-1.201639615723337
 20
-1.419043144242165
 10
-1.201639615723337
 20
-1.7281495809308
  0
LWPOLYLINE
  5
86
330
2
100
AcDbEntity
  8
ADP2DETAIL
  6
Continuous
 62
     5
100
AcDbPolyline
 90
        2
 70
   128
 43
0.0
 10
-1.134442564269285
 20
-1.419043144242165
 10
-1.134442564269285
 20
-1.7281495809308
  0
LWPOLYLINE
  5
87
330
2
100
AcDbEntity
  8
ADP2DETAIL
  6
Continuous
 62
     5
100
AcDbPolyline
 90
        2
 70
   128
 43
0.0
 10
-1.168041089996311
 20
-1.392164323660542
 10
-1.168041089996311
 20
-1.755028401512422
  0
LWPOLYLINE
  5
88
330
2
100
AcDbEntity
  8
ADP2DETAIL
  6
Continuous
 62
     5
100
AcDbPolyline
 90
        2
 70
   128
 43
0.0
 10
-1.134442604303819
 20
-1.393539522297683
 10
-1.134442604303819
 20
-1.702645958986318
  0
LWPOLYLINE
  5
89
330
2
100
AcDbEntity
  8
ADP2DETAIL
  6
Continuous
 62
     5
100
AcDbPolyline
 90
        2
 70
   128
 43
0.0
 10
-1.067245552849763
 20
-1.393539522297683
 10
-1.067245552849763
 20
-1.702645958986318
  0
LWPOLYLINE
  5
8A
330
2
100
AcDbEntity
  8
ADP2DETAIL
  6
Continuous
 62
     5
100
AcDbPolyline
 90
        2
 70
   128
 43
0.0
 10
-1.038147666289414
 20
-1.374161766993849
 10
-1.038147666289414
 20
-1.737025844845728
  0
LWPOLYLINE
  5
8B
330
2
100
AcDbEntity
  8
ADP2DETAIL
  6
Continuous
 62
     5
100
AcDbPolyline
 90
        2
 70
   128
 43
0.0
 10
-1.105344717743466
 20
-1.374161766993849
 10
-1.105344717743466
 20
-1.737025844845728
  0
LWPOLYLINE
  5
8C
330
2
100
AcDbEntity
  8
ADP2DETAIL
  6
Continuous
 62
     5
100
AcDbPolyline
 90
        2
 70
   128
 43
0.0
 10
-1.006768206541119
 20
-1.393539522297683
 10
-1.006768206541119
 20
-1.702645958986318
  0
LWPOLYLINE
  5
8D
330
2
100
AcDbEntity
  8
ADP2DETAIL
  6
Continuous
 62
     5
100
AcDbPolyline
 90
        2
 70
   128
 43
0.0
 10
-1.00661191850083
 20
-1.404041013686588
 10
-1.00661191850083
 20
-1.713147450375223
  0
LWPOLYLINE
  5
8E
330
2
100
AcDbEntity
  8
ADP2DETAIL
  6
Continuous
 62
     5
100
AcDbPolyline
 90
        2
 70
   128
 43
0.0
 10
-0.9394148670467789
 20
-1.404041013686588
 10
-0.9394148670467789
 20
-1.713147450375223
  0
LWPOLYLINE
  5
8F
330
2
100
AcDbEntity
  8
ADP2DETAIL
  6
Continuous
 62
     5
100
AcDbPolyline
 90
        2
 70
   128
 43
0.0
 10
-0.9730133927738048
 20
-1.377162193104965
 10
-0.9730133927738048
 20
-1.740026270956844
  0
LWPOLYLINE
  5
90
330
2
100
AcDbEntity
  8
ADP1DETAIL
  6
Continuous
 62
     7
100
AcDbPolyline
 90
        2
 70
   128
 43
0.0
 10
-0.9355081064193942
 20
-1.743745549991133
 10
-0.9210516145860767
 20
-1.743745549991133
  0
LWPOLYLINE
  5
91
330
2
100
AcDbEntity
  8
ADP1DETAIL
  6
Continuous
 62
     7
100
AcDbPolyline
 90
        2
 70
   128
 43
0.0
 10
-0.7447765805580417
 20
-1.743745549991133
 10
-0.7339169520572387
 20
-1.743745549991133
  0
LWPOLYLINE
  5
92
330
2
100
AcDbEntity
  8
ADP1DETAIL
  6
Continuous
 62
     7
100
AcDbPolyline
 90
        2
 70
   128
 43
0.0
 10
-0.7339169520572387
 20
-1.360722356703041
 10
-0.7447765805580417
 20
-1.360722356703041
  0
LWPOLYLINE
  5
93
330
2
100
AcDbEntity
  8
ADP1DETAIL
  6
Continuous
 62
     7
100
AcDbPolyline
 90
        2
 70
   128
 43
0.0
 10
-0.9210516145860767
 20
-1.360722356703041
 10
-0.9355081064193942
 20
-1.360722356703041
  0
LWPOLYLINE
  5
94
330
2
100
AcDbEntity
  8
ADP1DETAIL
  6
Continuous
 62
     7
100
AcDbPolyline
 90
        2
 70
   128
 43
0.0
 10
-0.5121666822588718
 20
-1.360722356703041
 10
-0.5197446222243799
 20
-1.360722356703041
  0
LWPOLYLINE
  5
95
330
2
100
AcDbEntity
  8
ADP1DETAIL
  6
Continuous
 62
     7
100
AcDbPolyline
 90
        2
 70
   128
 43
0.0
 10
-0.6585143298634712
 20
-1.360722356703041
 10
-0.6734396057485941
 20
-1.360722356703041
  0
LWPOLYLINE
  5
96
330
2
100
AcDbEntity
  8
ADP1DETAIL
  6
Continuous
 62
     7
100
AcDbPolyline
 90
        2
 70
   128
 43
0.0
 10
-0.6734396057485941
 20
-1.743745549991133
 10
-0.6585143298634712
 20
-1.743745549991133
  0
LWPOLYLINE
  5
97
330
2
100
AcDbEntity
  8
ADP1DETAIL
  6
Continuous
 62
     7
100
AcDbPolyline
 90
        2
 70
   128
 43
0.0
 10
-0.5197446222243799
 20
-1.743745549991133
 10
-0.5121666822588718
 20
-1.743745549991133
  0
LWPOLYLINE
  5
98
330
2
100
AcDbEntity
  8
0
  6
Continuous
 62
     7
 48
2.0
100
AcDbPolyline
 90
        2
 70
   128
 43
0.0
 10
-0.6516334387938412
 20
-1.320579721198761
 10
-0.6516334387938412
 20
-1.759589635711052
  0
LWPOLYLINE
  5
99
330
2
100
AcDbEntity
  8
0
  6
Continuous
 62
     7
 48
2.0
100
AcDbPolyline
 90
        2
 70
   128
 43
0.0
 10
-0.5548616938070983
 20
-1.382579721198761
 10
-0.5245865857743568
 20
-1.758579721198762
  0
LWPOLYLINE
  5
9A
330
2
100
AcDbEntity
  8
0
  6
Continuous
 62
     7
 48
2.0
100
AcDbPolyline
 90
        2
 70
   128
 43
0.0
 10
-0.6183679341070901
 20
-1.382579721198761
 10
-0.5880928260743486
 20
-1.758579721198762
  0
LWPOLYLINE
  5
9B
330
2
100
AcDbEntity
  8
0
  6
Continuous
 62
     7
 48
2.0
100
AcDbPolyline
 90
        2
 70
   128
 43
0.0
 10
-0.4978536485589556
 20
-1.820579721198761
 10
-0.5245865857743568
 20
-1.758579721198762
  0
LWPOLYLINE
  5
9C
330
2
100
AcDbEntity
  8
0
  6
Continuous
 62
     7
 48
2.0
100
AcDbPolyline
 90
        2
 70
   128
 43
0.0
 10
-0.6516334387938412
 20
-1.759589635711052
 10
-0.6190928260743492
 20
-1.820579721198761
  0
LWPOLYLINE
  5
9D
330
2
100
AcDbEntity
  8
0
  6
Continuous
 62
     7
 48
2.0
100
AcDbPolyline
 90
        2
 70
   128
 43
0.0
 10
-0.5570928260743498
 20
-1.820579721198761
 10
-0.5880928260743486
 20
-1.758579721198762
  0
LWPOLYLINE
  5
9E
330
2
100
AcDbEntity
  8
0
  6
Continuous
 62
     7
 48
2.0
100
AcDbPolyline
 90
        2
 70
   128
 43
0.0
 10
-0.5880928260743486
 20
-1.758579721198762
 10
-0.6190928260743492
 20
-1.820579721198761
  0
LWPOLYLINE
  5
9F
330
2
100
AcDbEntity
  8
0
  6
Continuous
 62
     7
 48
2.0
100
AcDbPolyline
 90
        2
 70
   128
 43
0.0
 10
-0.5245865857743568
 20
-1.758579721198762
 10
-0.5555865857743574
 20
-1.820579721198761
  0
LWPOLYLINE
  5
A0
330
2
100
AcDbEntity
  8
0
  6
Continuous
 62
     7
 48
2.0
100
AcDbPolyline
 90
        2
 70
   128
 43
0.0
 10
-0.6183679341070901
 20
-1.382579721198761
 10
-0.6493679341070906
 20
-1.320579721198761
  0
LWPOLYLINE
  5
A1
330
2
100
AcDbEntity
  8
0
  6
Continuous
 62
     7
 48
2.0
100
AcDbPolyline
 90
        2
 70
   128
 43
0.0
 10
-0.5548616938070983
 20
-1.382579721198761
 10
-0.5858616938070989
 20
-1.320579721198761
  0
LWPOLYLINE
  5
A2
330
2
100
AcDbEntity
  8
0
  6
Continuous
 62
     7
 48
2.0
100
AcDbPolyline
 90
        2
 70
   128
 43
0.0
 10
-0.528128756591697
 20
-1.320579721198761
 10
-0.5548616938070983
 20
-1.382579721198761
  0
LWPOLYLINE
  5
A3
330
2
100
AcDbEntity
  8
0
  6
Continuous
 62
     7
 48
2.0
100
AcDbPolyline
 90
        2
 70
   128
 43
0.0
 10
-0.5873679341070912
 20
-1.320579721198761
 10
-0.6183679341070901
 20
-1.382579721198761
  0
LWPOLYLINE
  5
A4
330
2
100
AcDbEntity
  8
ADP1DETAIL
  6
Continuous
 62
     7
100
AcDbPolyline
 90
        2
 70
   128
 43
0.0
 10
-0.6731270496852792
 20
-1.413417345283823
 10
-0.6731270496852792
 20
-1.722523781972459
  0
LWPOLYLINE
  5
A5
330
2
100
AcDbEntity
  8
ADP1DETAIL
  6
Continuous
 62
     7
100
AcDbPolyline
 90
        2
 70
   128
 43
0.0
 10
-0.6692202890578944
 20
-1.753121881588369
 10
-0.654763797224577
 20
-1.753121881588369
  0
LWPOLYLINE
  5
A6
330
2
100
AcDbEntity
  8
ADP1DETAIL
  6
Continuous
 62
     7
100
AcDbPolyline
 90
        2
 70
   128
 43
0.0
 10
-0.654763797224577
 20
-1.370098688300277
 10
-0.6692202890578944
 20
-1.370098688300277
  0
LWPOLYLINE
  5
A7
330
2
100
AcDbEntity
  8
0
  6
Continuous
 62
   250
 48
2.0
100
AcDbPolyline
 90
        2
 70
   128
 43
0.0
 10
-0.7344251104746934
 20
-1.997181423323718
 10
-0.6744165882523835
 20
-1.997181423323718
  0
LWPOLYLINE
  5
A8
330
2
100
AcDbEntity
  8
DEFPOINTS
  6
Continuous
 62
     3
 48
0.125
100
AcDbPolyline
 90
        2
 70
   128
 43
0.0
 10
-3.452576682583778
 20
-3.057028022771431
 10
-3.452576682583778
 20
-3.057028022771431
  0
LWPOLYLINE
  5
AA
330
2
100
AcDbEntity
  8
DEFPOINTS
  6
Continuous
 62
     3
 48
0.125
100
AcDbPolyline
 90
        2
 70
   128
 43
0.0
 10
-3.452576682583778
 20
-3.057028022771431
 10
-3.452576682583778
 20
-3.057028022771431
  0
LWPOLYLINE
  5
AB
330
2
100
AcDbEntity
  8
DEFPOINTS
  6
Continuous
 62
     3
 48
0.125
100
AcDbPolyline
 90
        2
 70
   128
 43
0.0
 10
-0.9347210859867232
 20
-1.996625338207674
 10
-0.9347210859867232
 20
-1.996625338207674
  0
LWPOLYLINE
  5
AC
330
2
100
AcDbEntity
  8
DEFPOINTS
  6
Continuous
 62
     3
 48
0.125
100
AcDbPolyline
 90
        2
 70
   128
 43
0.0
 10
-0.9347210859867232
 20
-1.996625338207674
 10
-0.9347210859867232
 20
-1.996625338207674
  0
LWPOLYLINE
  5
AD
330
2
100
AcDbEntity
  8
DEFPOINTS
  6
Continuous
 62
     3
 48
0.125
100
AcDbPolyline
 90
        2
 70
   128
 43
0.0
 10
-0.9347210859867232
 20
-3.309550682191899
 10
-0.9347210859867232
 20
-3.309550682191899
  0
LWPOLYLINE
  5
AE
330
2
100
AcDbEntity
  8
DEFPOINTS
  6
Continuous
 62
     3
 48
0.125
100
AcDbPolyline
 90
        2
 70
   128
 43
0.0
 10
-0.9347210859867232
 20
-3.309550682191899
 10
-0.9347210859867232
 20
-3.309550682191899
  0
LWPOLYLINE
  5
AF
330
2
100
AcDbEntity
  8
DEFPOINTS
  6
Continuous
 62
     3
 48
0.125
100
AcDbPolyline
 90
        2
 70
   128
 43
0.0
 10
0.8689563608351962
 20
-2.521167970353137
 10
0.8689563608351962
 20
-2.521167970353137
  0
LWPOLYLINE
  5
B0
330
2
100
AcDbEntity
  8
DEFPOINTS
  6
Continuous
 62
     3
 48
0.125
100
AcDbPolyline
 90
        2
 70
   128
 43
0.0
 10
0.8689563608351962
 20
-2.521167970353137
 10
0.8689563608351962
 20
-2.521167970353137
  0
LWPOLYLINE
  5
B1
330
2
100
AcDbEntity
  8
DEFPOINTS
  6
Continuous
 62
     3
 48
0.125
100
AcDbPolyline
 90
        2
 70
   128
 43
0.0
 10
3.199951202987152
 20
-0.6008362796983065
 10
3.199951202987152
 20
-0.6008362796983065
  0
LWPOLYLINE
  5
B2
330
2
100
AcDbEntity
  8
DEFPOINTS
  6
Continuous
 62
     3
 48
0.125
100
AcDbPolyline
 90
        2
 70
   128
 43
0.0
 10
3.199951202987152
 20
-0.6008362796983065
 10
3.199951202987152
 20
-0.6008362796983065
  0
LWPOLYLINE
  5
B3
330
2
100
AcDbEntity
  8
DEFPOINTS
  6
Continuous
 62
     3
 48
0.125
100
AcDbPolyline
 90
        2
 70
   128
 43
0.0
 10
-2.707610239630759
 20
-1.057028022771431
 10
-2.707610239630759
 20
-1.057028022771431
  0
LWPOLYLINE
  5
B4
330
2
100
AcDbEntity
  8
DEFPOINTS
  6
Continuous
 62
     3
 48
0.125
100
AcDbPolyline
 90
        2
 70
   128
 43
0.0
 10
-2.707610239630759
 20
-1.057028022771431
 10
-2.707610239630759
 20
-1.057028022771431
  0
LWPOLYLINE
  5
B5
330
2
100
AcDbEntity
  8
DEFPOINTS
  6
Continuous
 62
     3
 48
0.125
100
AcDbPolyline
 90
        2
 70
   128
 43
0.0
 10
-0.9287884012739855
 20
-1.11209326632305
 10
-0.9287884012739855
 20
-1.11209326632305
  0
LWPOLYLINE
  5
B6
330
2
100
AcDbEntity
  8
DEFPOINTS
  6
Continuous
 62
     3
 48
0.125
100
AcDbPolyline
 90
        2
 70
   128
 43
0.0
 10
-0.9287884012739855
 20
-1.11209326632305
 10
-0.9287884012739855
 20
-1.11209326632305
  0
LWPOLYLINE
  5
B7
330
2
100
AcDbEntity
  8
DEFPOINTS
  6
Continuous
 62
     3
 48
0.125
100
AcDbPolyline
 90
        2
 70
   128
 43
0.0
 10
-0.9287884012739855
 20
-0.7639903535409976
 10
-0.9287884012739855
 20
-0.7639903535409976
  0
LWPOLYLINE
  5
B8
330
2
100
AcDbEntity
  8
DEFPOINTS
  6
Continuous
 62
     3
 48
0.125
100
AcDbPolyline
 90
        2
 70
   128
 43
0.0
 10
-0.9287884012739855
 20
-0.7639903535409976
 10
-0.9287884012739855
 20
-0.7639903535409976
  0
TEXT
  5
B9
330
2
100
AcDbEntity
  8
ADPDIM
100
AcDbText
 10
-6.67439228283801
 20
-4.97476090633829
 30
0.0
 40
0.125
  1
J U L I U S  B L U M  &  C O . ,  I N C .      ( 8 0 0 )  5 2 6 - 6 2 9 3        W W W . J U L I U S B L U M . C O M        P A R T  N O .  6 4
 41
1.25
  7
ARIAL_WIDE
 72
     1
 11
-0.3065119963441496
 21
-4.84976090633829
 31
0.0
100
AcDbText
 73
     3
  0
LWPOLYLINE
  5
BC
330
2
100
AcDbEntity
  8
ADP2DETAIL
  6
Continuous
 62
     5
100
AcDbPolyline
 90
        2
 70
   128
 43
0.0
 10
-3.174109427429624
 20
-1.390045589535893
 10
-3.174109427429624
 20
-1.752909667387773
  0
LWPOLYLINE
  5
BD
330
2
100
AcDbEntity
  8
ADP2DETAIL
  6
Continuous
 62
     5
100
AcDbPolyline
 90
        2
 70
   128
 43
0.0
 10
-3.024731552529104
 20
-1.362475077473583
 10
-3.024731552529104
 20
-1.754662388158316
  0
LWPOLYLINE
  5
BE
330
2
100
AcDbEntity
  8
ADP2DETAIL
  6
Continuous
 62
     5
100
AcDbPolyline
 90
        2
 70
   128
 43
0.0
 10
-3.136010262535921
 20
-1.409423344839727
 10
-3.136010262535921
 20
-1.718529781528363
  0
LWPOLYLINE
  5
BF
330
2
100
AcDbEntity
  8
ADP2DETAIL
  6
Continuous
 62
     5
100
AcDbPolyline
 90
        2
 70
   128
 43
0.0
 10
-3.203207313989977
 20
-1.409423344839727
 10
-3.203207313989977
 20
-1.718529781528363
  0
LWPOLYLINE
  5
C0
330
2
100
AcDbEntity
  8
ADP2DETAIL
  6
Continuous
 62
     5
100
AcDbPolyline
 90
        2
 70
   128
 43
0.0
 10
-3.236805799682469
 20
-1.384044737313662
 10
-3.236805799682469
 20
-1.746908815165542
  0
LWPOLYLINE
  5
C1
330
2
100
AcDbEntity
  8
ADP2DETAIL
  6
Continuous
 62
     5
100
AcDbPolyline
 90
        2
 70
   128
 43
0.0
 10
-3.203207273955443
 20
-1.410923557895285
 10
-3.203207273955443
 20
-1.72002999458392
  0
LWPOLYLINE
  5
C2
330
2
100
AcDbEntity
  8
ADP2DETAIL
  6
Continuous
 62
     5
100
AcDbPolyline
 90
        2
 70
   128
 43
0.0
 10
-3.270404325409495
 20
-1.410923557895285
 10
-3.270404325409495
 20
-1.72002999458392
  0
LWPOLYLINE
  5
C3
330
2
100
AcDbEntity
  8
ADP2DETAIL
  6
Continuous
 62
     5
100
AcDbPolyline
 90
        2
 70
   128
 43
0.0
 10
-3.270560613449783
 20
-1.400422066506381
 10
-3.270560613449783
 20
-1.709528503195016
  0
LWPOLYLINE
  5
C4
330
2
100
AcDbEntity
  8
ADP2DETAIL
  6
Continuous
 62
     5
100
AcDbPolyline
 90
        2
 70
   128
 43
0.0
 10
-3.369137124652131
 20
-1.381044311202547
 10
-3.369137124652131
 20
-1.743908389054426
  0
LWPOLYLINE
  5
C5
330
2
100
AcDbEntity
  8
ADP2DETAIL
  6
Continuous
 62
     5
100
AcDbPolyline
 90
        2
 70
   128
 43
0.0
 10
-3.301940073198079
 20
-1.381044311202547
 10
-3.301940073198079
 20
-1.743908389054426
  0
LWPOLYLINE
  5
C6
330
2
100
AcDbEntity
  8
ADP2DETAIL
  6
Continuous
 62
     5
100
AcDbPolyline
 90
        2
 70
   128
 43
0.0
 10
-3.331037959758428
 20
-1.400422066506381
 10
-3.331037959758428
 20
-1.709528503195016
  0
LWPOLYLINE
  5
C7
330
2
100
AcDbEntity
  8
ADP2DETAIL
  6
Continuous
 62
     5
100
AcDbPolyline
 90
        2
 70
   128
 43
0.0
 10
-3.398235011212483
 20
-1.400422066506381
 10
-3.398235011212483
 20
-1.709528503195016
  0
LWPOLYLINE
  5
C8
330
2
100
AcDbEntity
  8
ADP2DETAIL
  6
Continuous
 62
     5
100
AcDbPolyline
 90
        2
 70
   128
 43
0.0
 10
-3.454180564836183
 20
-1.373605753133969
 10
-3.454180564836183
 20
-1.756628946422061
  0
LWPOLYLINE
  5
C9
330
2
100
AcDbEntity
  8
ADP2DETAIL
  6
Continuous
 62
     5
100
AcDbPolyline
 90
        2
 70
   128
 43
0.0
 10
-3.023719618720417
 20
-1.36072235670304
 10
-3.455187758758488
 20
-1.36072235670304
  0
LWPOLYLINE
  5
CA
330
2
100
AcDbEntity
  8
ADP2DETAIL
  6
Continuous
 62
     5
100
AcDbPolyline
 90
        2
 70
   128
 43
0.0
 10
-3.454746397708579
 20
-1.75149969069513
 10
-3.024731552529104
 20
-1.754662388158316
  0
LWPOLYLINE
  5
CB
330
2
100
AcDbEntity
  8
ADP2DETAIL
  6
Continuous
 62
     5
100
AcDbPolyline
 90
        2
 70
   128
 43
0.0
 10
-3.096514971832974
 20
-1.390045589535893
 10
-3.096514971832974
 20
-1.752909667387773
  0
LWPOLYLINE
  5
CC
330
2
100
AcDbEntity
  8
ADP2DETAIL
  6
Continuous
 62
     5
100
AcDbPolyline
 90
        2
 70
   128
 43
0.0
 10
-3.060604404232498
 20
-1.409423344839727
 10
-3.060604404232498
 20
-1.718529781528363
  0
TEXT
  5
CD
330
2
100
AcDbEntity
  8
ADPDIM
 62
     3
 48
0.0
100
AcDbText
 10
-3.998506979389516
 20
-1.62785557849542
 30
0.0
 40
0.125
  1
3/8
 72
     1
 11
-3.831840312722849
 21
-1.62785557849542
 31
0.0
100
AcDbText
  0
LINE
  5
CE
330
2
100
AcDbEntity
  8
ADPDIM
  6
Continuous
100
AcDbLine
 10
-3.909830306098911
 20
-1.74575998778249
 30
0.0
 11
-3.520383919087901
 21
-1.745759987782488
 31
0.0
  0
LINE
  5
CF
330
2
100
AcDbEntity
  8
ADPDIM
  6
Continuous
100
AcDbLine
 10
-3.909830306098911
 20
-1.367184484565064
 30
0.0
 11
-3.520383919087901
 21
-1.367184484565061
 31
0.0
  0
ENDSEC
  0
SECTION
  2
OBJECTS
  0
DICTIONARY
  5
9
330
0
100
AcDbDictionary
281
     1
  3
ACAD_COLOR
350
EC
  3
ACAD_GROUP
350
E8
  3
ACAD_LAYOUT
350
D2
  3
ACAD_MATERIAL
350
EB
  3
ACAD_MLINESTYLE
350
E9
  3
ACAD_PLOTSETTINGS
350
EA
  3
ACAD_PLOTSTYLENAME
350
8
  3
ACDBHEADERROUNDTRIPXREC
350
F3
  3
AcDbVariableDictionary
350
EF
  0
DICTIONARY
  5
DA
330
D9
100
AcDbDictionary
280
     1
281
     1
  3
ACAD_LAYERSTATES
360
DB
  0
DICTIONARY
  5
3
330
2
100
AcDbDictionary
280
     1
281
     1
  3
ACAD_LAYOUTSELFREF
360
4
  0
DICTIONARY
  5
D4
330
D3
100
AcDbDictionary
280
     1
281
     1
  3
ACAD_LAYOUTSELFREF
360
D5
  0
DICTIONARY
  5
EC
102
{ACAD_REACTORS
330
9
102
}
330
9
100
AcDbDictionary
281
     1
  0
DICTIONARY
  5
E8
102
{ACAD_REACTORS
330
9
102
}
330
9
100
AcDbDictionary
281
     1
  0
DICTIONARY
  5
D2
102
{ACAD_REACTORS
330
9
102
}
330
9
100
AcDbDictionary
281
     1
  3
Layout1
350
D8
  3
Model
350
D1
  0
DICTIONARY
  5
EB
102
{ACAD_REACTORS
330
9
102
}
330
9
100
AcDbDictionary
281
     1
  0
DICTIONARY
  5
E9
102
{ACAD_REACTORS
330
9
102
}
330
9
100
AcDbDictionary
281
     1
  3
STANDARD
350
ED
  0
DICTIONARY
  5
EA
102
{ACAD_REACTORS
330
9
102
}
330
9
100
AcDbDictionary
281
     1
  0
ACDBDICTIONARYWDFLT
  5
8
102
{ACAD_REACTORS
330
9
102
}
330
9
100
AcDbDictionary
281
     1
  3
Normal
350
7
100
AcDbDictionaryWithDefault
340
7
  0
DICTIONARY
  5
F3
102
{ACAD_REACTORS
330
9
102
}
330
9
100
AcDbDictionary
281
     1
  3
COLORDICT
350
F5
  3
MATERIALDICT
350
F4
  0
DICTIONARY
  5
EF
102
{ACAD_REACTORS
330
9
102
}
330
9
100
AcDbDictionary
281
     1
  3
DIMASSOC
350
F1
  3
HIDETEXT
350
F0
  3
PROJECTNAME
350
F2
  0
DICTIONARY
  5
DB
102
{ACAD_REACTORS
330
DA
102
}
330
DA
100
AcDbDictionary
281
     1
  0
XRECORD
  5
4
102
{ACAD_REACTORS
330
3
102
}
330
3
100
AcDbXrecord
280
     1
340
2
  0
XRECORD
  5
D5
102
{ACAD_REACTORS
330
D4
102
}
330
D4
100
AcDbXrecord
280
     1
340
D3
  0
LAYOUT
  5
D8
102
{ACAD_XDICTIONARY
360
F8
102
}
102
{ACAD_REACTORS
330
D2
102
}
330
D2
100
AcDbPlotSettings
  1

  2
Fax
  4

  6

 40
0.0
 41
0.0
 42
0.0
 43
0.0
 44
0.0
 45
0.0
 46
0.0
 47
0.0
 48
0.0
 49
0.0
140
0.0
141
0.0
142
1.0
143
1.0
 70
   688
 72
     0
 73
     0
 74
     5
  7
Default R14 pen assignments.ctb
 75
    16
147
1.0
148
0.0
149
0.0
100
AcDbLayout
  1
Layout1
 70
     0
 71
     1
 10
0.0
 20
0.0
 11
12.0
 21
9.0
 12
0.0
 22
0.0
 32
0.0
 14
1.000000000000000E+20
 24
1.000000000000000E+20
 34
1.000000000000000E+20
 15
-1.000000000000000E+20
 25
-1.000000000000000E+20
 35
-1.000000000000000E+20
146
0.0
 13
0.0
 23
0.0
 33
0.0
 16
1.0
 26
0.0
 36
0.0
 17
0.0
 27
1.0
 37
0.0
 76
     0
330
D3
  0
LAYOUT
  5
D1
102
{ACAD_XDICTIONARY
360
F6
102
}
102
{ACAD_REACTORS
330
D2
102
}
330
D2
100
AcDbPlotSettings
  1

  2
Fax
  4

  6

 40
0.0
 41
0.0
 42
0.0
 43
0.0
 44
0.0
 45
0.0
 46
0.0
 47
0.0
 48
0.0
 49
0.0
140
0.0
141
0.0
142
1.0
143
1.0
 70
  1712
 72
     0
 73
     0
 74
     0
  7
Default R14 pen assignments.ctb
 75
     0
147
1.0
148
0.0
149
0.0
100
AcDbLayout
  1
Model
 70
     1
 71
     0
 10
0.0
 20
0.0
 11
12.0
 21
9.0
 12
0.0
 22
0.0
 32
0.0
 14
0.0
 24
0.0
 34
0.0
 15
0.0
 25
0.0
 35
0.0
146
0.0
 13
0.0
 23
0.0
 33
0.0
 16
1.0
 26
0.0
 36
0.0
 17
0.0
 27
1.0
 37
0.0
 76
     0
330
2
  0
MLINESTYLE
  5
ED
102
{ACAD_REACTORS
330
E9
102
}
330
E9
100
AcDbMlineStyle
  2
STANDARD
 70
     0
  3

 62
     0
 51
90.00000000000019
 52
90.00000000000019
 71
     2
 49
0.5
 62
   256
  6
BYLAYER
 49
-0.5
 62
   256
  6
BYLAYER
  0
ACDBPLACEHOLDER
  5
7
102
{ACAD_REACTORS
330
8
102
}
330
8
  0
XRECORD
  5
F5
102
{ACAD_REACTORS
330
F3
102
}
330
F3
100
AcDbXrecord
280
     1
340
EC
  0
XRECORD
  5
F4
102
{ACAD_REACTORS
330
F3
102
}
330
F3
100
AcDbXrecord
280
     1
340
EB
  0
DICTIONARYVAR
  5
F1
102
{ACAD_REACTORS
330
EF
102
}
330
EF
100
DictionaryVariables
280
     0
  1
1
  0
DICTIONARYVAR
  5
F0
102
{ACAD_REACTORS
330
EF
102
}
330
EF
100
DictionaryVariables
280
     0
  1
1
  0
DICTIONARYVAR
  5
F2
102
{ACAD_REACTORS
330
EF
102
}
330
EF
100
DictionaryVariables
280
     0
  1

  0
DICTIONARY
  5
F8
330
D8
100
AcDbDictionary
280
     1
281
     1
  3
ACAD_XREC_ROUNDTRIP
360
F9
  0
DICTIONARY
  5
F6
330
D1
100
AcDbDictionary
280
     1
281
     1
  3
ACAD_XREC_ROUNDTRIP
360
F7
  0
XRECORD
  5
F9
102
{ACAD_REACTORS
330
F8
102
}
330
F8
100
AcDbXrecord
280
     1
102
SHADEPLOT
 70
     0
102
SHADEPLOTRESLEVEL
 70
     2
102
SHADEPLOTCUSTOMDPI
 70
   300
  0
XRECORD
  5
F7
102
{ACAD_REACTORS
330
F6
102
}
330
F6
100
AcDbXrecord
280
     1
102
SHADEPLOT
 70
     0
102
SHADEPLOTRESLEVEL
 70
     2
102
SHADEPLOTCUSTOMDPI
 70
   300
  0
ENDSEC
  0
EOF
