  0
SECTION
  2
HEADER
  9
$ACADVER
  1
AC1014
  9
$ACADMAINTVER
 70
     9
  9
$DWGCODEPAGE
  3
ANSI_1252
  9
$INSBASE
 10
0.0
 20
0.0
 30
0.0
  9
$EXTMIN
 10
-9.251472051894266
 20
-2.068229755289485
 30
0.0
  9
$EXTMAX
 10
4.187839851243522
 20
5.297744477089045
 30
0.0
  9
$LIMMIN
 10
0.0
 20
0.0
  9
$LIMMAX
 10
0.0
 20
0.0
  9
$ORTHOMODE
 70
     1
  9
$REGENMODE
 70
     1
  9
$FILLMODE
 70
     1
  9
$QTEXTMODE
 70
     0
  9
$MIRRTEXT
 70
     1
  9
$DRAGMODE
 70
     0
  9
$LTSCALE
 40
1.0
  9
$OSMODE
 70
    37
  9
$ATTMODE
 70
     1
  9
$TEXTSIZE
 40
0.0
  9
$TRACEWID
 40
0.05
  9
$TEXTSTYLE
  7
STANDARD
  9
$CLAYER
  8
0
  9
$CELTYPE
  6
CONTINUOUS
  9
$CECOLOR
 62
   256
  9
$CELTSCALE
 40
1.0
  9
$DELOBJ
 70
     1
  9
$DISPSILH
 70
     0
  9
$DIMSCALE
 40
1.0
  9
$DIMASZ
 40
0.18
  9
$DIMEXO
 40
0.0625
  9
$DIMDLI
 40
0.38
  9
$DIMRND
 40
0.0
  9
$DIMDLE
 40
0.0
  9
$DIMEXE
 40
0.18
  9
$DIMTP
 40
0.0
  9
$DIMTM
 40
0.0
  9
$DIMTXT
 40
0.18
  9
$DIMCEN
 40
0.09
  9
$DIMTSZ
 40
0.0
  9
$DIMTOL
 70
     0
  9
$DIMLIM
 70
     0
  9
$DIMTIH
 70
     1
  9
$DIMTOH
 70
     1
  9
$DIMSE1
 70
     0
  9
$DIMSE2
 70
     0
  9
$DIMTAD
 70
     0
  9
$DIMZIN
 70
     0
  9
$DIMBLK
  1

  9
$DIMASO
 70
     1
  9
$DIMSHO
 70
     1
  9
$DIMPOST
  1

  9
$DIMAPOST
  1

  9
$DIMALT
 70
     0
  9
$DIMALTD
 70
     2
  9
$DIMALTF
 40
25.4
  9
$DIMLFAC
 40
1.0
  9
$DIMTOFL
 70
     0
  9
$DIMTVP
 40
0.0
  9
$DIMTIX
 70
     0
  9
$DIMSOXD
 70
     0
  9
$DIMSAH
 70
     0
  9
$DIMBLK1
  1

  9
$DIMBLK2
  1

  9
$DIMSTYLE
  2
STANDARD
  9
$DIMCLRD
 70
     0
  9
$DIMCLRE
 70
     0
  9
$DIMCLRT
 70
     0
  9
$DIMTFAC
 40
1.0
  9
$DIMGAP
 40
0.09
  9
$DIMJUST
 70
     0
  9
$DIMSD1
 70
     0
  9
$DIMSD2
 70
     0
  9
$DIMTOLJ
 70
     1
  9
$DIMTZIN
 70
     0
  9
$DIMALTZ
 70
     0
  9
$DIMALTTZ
 70
     0
  9
$DIMFIT
 70
     3
  9
$DIMUPT
 70
     0
  9
$DIMUNIT
 70
     2
  9
$DIMDEC
 70
     4
  9
$DIMTDEC
 70
     4
  9
$DIMALTU
 70
     2
  9
$DIMALTTD
 70
     2
  9
$DIMTXSTY
  7
STANDARD
  9
$DIMAUNIT
 70
     0
  9
$LUNITS
 70
     2
  9
$LUPREC
 70
     4
  9
$SKETCHINC
 40
0.1
  9
$FILLETRAD
 40
0.0
  9
$AUNITS
 70
     0
  9
$AUPREC
 70
     0
  9
$MENU
  1
acad
  9
$ELEVATION
 40
0.0
  9
$PELEVATION
 40
0.0
  9
$THICKNESS
 40
0.0
  9
$LIMCHECK
 70
     0
  9
$BLIPMODE
 70
     0
  9
$CHAMFERA
 40
0.0
  9
$CHAMFERB
 40
0.0
  9
$CHAMFERC
 40
0.0
  9
$CHAMFERD
 40
0.0
  9
$SKPOLY
 70
     0
  9
$TDCREATE
 40
2444971.791666666
  9
$TDUPDATE
 40
2452297.074413148
  9
$TDINDWG
 40
0.0263371644
  9
$TDUSRTIMER
 40
0.0263371644
  9
$USRTIMER
 70
     1
  9
$ANGBASE
 50
0.0
  9
$ANGDIR
 70
     0
  9
$PDMODE
 70
     0
  9
$PDSIZE
 40
0.0
  9
$PLINEWID
 40
0.0
  9
$COORDS
 70
     2
  9
$SPLFRAME
 70
     0
  9
$SPLINETYPE
 70
     6
  9
$SPLINESEGS
 70
     8
  9
$ATTDIA
 70
     0
  9
$ATTREQ
 70
     1
  9
$HANDLING
 70
 22529
  9
$HANDSEED
  5
302
  9
$SURFTAB1
 70
     6
  9
$SURFTAB2
 70
     6
  9
$SURFTYPE
 70
     6
  9
$SURFU
 70
     6
  9
$SURFV
 70
     6
  9
$UCSNAME
  2

  9
$UCSORG
 10
0.0
 20
0.0
 30
0.0
  9
$UCSXDIR
 10
1.0
 20
0.0
 30
0.0
  9
$UCSYDIR
 10
0.0
 20
1.0
 30
0.0
  9
$PUCSNAME
  2

  9
$PUCSORG
 10
0.0
 20
0.0
 30
0.0
  9
$PUCSXDIR
 10
1.0
 20
0.0
 30
0.0
  9
$PUCSYDIR
 10
0.0
 20
1.0
 30
0.0
  9
$USERI1
 70
     0
  9
$USERI2
 70
     0
  9
$USERI3
 70
     0
  9
$USERI4
 70
     0
  9
$USERI5
 70
     0
  9
$USERR1
 40
0.0
  9
$USERR2
 40
0.0
  9
$USERR3
 40
0.0
  9
$USERR4
 40
0.0
  9
$USERR5
 40
0.0
  9
$WORLDVIEW
 70
     1
  9
$SHADEDGE
 70
     3
  9
$SHADEDIF
 70
    70
  9
$TILEMODE
 70
     1
  9
$MAXACTVP
 70
    16
  9
$PINSBASE
 10
0.0
 20
0.0
 30
0.0
  9
$PLIMCHECK
 70
     0
  9
$PEXTMIN
 10
1.000000000000000E+20
 20
1.000000000000000E+20
 30
1.000000000000000E+20
  9
$PEXTMAX
 10
-1.000000000000000E+20
 20
-1.000000000000000E+20
 30
-1.000000000000000E+20
  9
$PLIMMIN
 10
0.0
 20
0.0
  9
$PLIMMAX
 10
12.0
 20
9.0
  9
$UNITMODE
 70
     0
  9
$VISRETAIN
 70
     0
  9
$PLINEGEN
 70
     0
  9
$PSLTSCALE
 70
     0
  9
$TREEDEPTH
 70
  3020
  9
$PICKSTYLE
 70
     1
  9
$CMLSTYLE
  2
STANDARD
  9
$CMLJUST
 70
     0
  9
$CMLSCALE
 40
1.0
  9
$PROXYGRAPHICS
 70
     1
  9
$MEASUREMENT
 70
     0
  0
ENDSEC
  0
SECTION
  2
CLASSES
  0
CLASS
  1
LWPOLYLINE
  2
AcDbPolyline
  3
AutoCAD 2000
 90
        0
280
     0
281
     1
  0
CLASS
  1
IMAGE
  2
AcDbRasterImage
  3
ISM
 90
      127
280
     0
281
     1
  0
CLASS
  1
OLE2FRAME
  2
AcDbOle2Frame
  3
AutoCAD 2000
 90
        0
280
     0
281
     1
  0
CLASS
  1
HATCH
  2
AcDbHatch
  3
AutoCAD 2000
 90
        0
280
     0
281
     1
  0
CLASS
  1
DICTIONARYVAR
  2
AcDbDictionaryVar
  3
AutoCAD 2000
 90
        0
280
     0
281
     0
  0
CLASS
  1
RASTERVARIABLES
  2
AcDbRasterVariables
  3
ISM
 90
        0
280
     0
281
     0
  0
CLASS
  1
IMAGEDEF
  2
AcDbRasterImageDef
  3
ISM
 90
        0
280
     0
281
     0
  0
CLASS
  1
IMAGEDEF_REACTOR
  2
AcDbRasterImageDefReactor
  3
ISM
 90
        1
280
     0
281
     0
  0
CLASS
  1
IDBUFFER
  2
AcDbIdBuffer
  3
AutoCAD 2000
 90
        0
280
     0
281
     0
  0
CLASS
  1
SPATIAL_FILTER
  2
AcDbSpatialFilter
  3
AutoCAD 2000
 90
        0
280
     0
281
     0
  0
CLASS
  1
XRECORD
  2
AcDbXrecord
  3
AutoCAD 2000
 90
        0
280
     0
281
     0
  0
CLASS
  1
SORTENTSTABLE
  2
AcDbSortentsTable
  3
AutoCAD 2000
 90
        0
280
     0
281
     0
  0
CLASS
  1
LAYER_INDEX
  2
AcDbLayerIndex
  3
AutoCAD 2000
 90
        0
280
     0
281
     0
  0
CLASS
  1
SPATIAL_INDEX
  2
AcDbSpatialIndex
  3
AutoCAD 2000
 90
        0
280
     0
281
     0
  0
CLASS
  1
OBJECT_PTR
  2
CAseDLPNTableRecord
  3
ASE-LPNTableRecord
 90
        1
280
     0
281
     0
  0
CLASS
  1
ACDBDICTIONARYWDFLT
  2
AcDbDictionaryWithDefault
  3
AutoCAD 2000
 90
        0
280
     0
281
     0
  0
CLASS
  1
ACDBPLACEHOLDER
  2
AcDbPlaceHolder
  3
AutoCAD 2000
 90
        0
280
     0
281
     0
  0
CLASS
  1
LAYOUT
  2
AcDbLayout
  3
AutoCAD 2000
 90
        0
280
     0
281
     0
  0
CLASS
  1
LONG_TRANSACTION
  2
AcDbLongTransaction
  3
AutoCAD 2000
 90
        0
280
     0
281
     0
  0
CLASS
  1
LWPOLYLINE
  2
AcDbPolyline
  3
AutoCAD 2000
 90
        0
280
     0
281
     1
  0
CLASS
  1
HATCH
  2
AcDbHatch
  3
AutoCAD 2000
 90
        0
280
     0
281
     1
  0
CLASS
  1
XRECORD
  2
AcDbXrecord
  3
AutoCAD 2000
 90
        0
280
     0
281
     0
  0
CLASS
  1
LONG_TRANSACTION
  2
AcDbLongTransaction
  3
AutoCAD 2000
 90
        0
280
     0
281
     0
  0
CLASS
  1
LWPOLYLINE
  2
AcDbPolyline
  3
AutoCAD 2000
 90
        0
280
     0
281
     1
  0
CLASS
  1
HATCH
  2
AcDbHatch
  3
AutoCAD 2000
 90
        0
280
     0
281
     1
  0
CLASS
  1
XRECORD
  2
AcDbXrecord
  3
AutoCAD 2000
 90
        0
280
     0
281
     0
  0
CLASS
  1
LONG_TRANSACTION
  2
AcDbLongTransaction
  3
AutoCAD 2000
 90
        0
280
     0
281
     0
  0
CLASS
  1
LWPOLYLINE
  2
AcDbPolyline
  3
AutoCAD 2000
 90
        0
280
     0
281
     1
  0
CLASS
  1
HATCH
  2
AcDbHatch
  3
AutoCAD 2000
 90
        0
280
     0
281
     1
  0
CLASS
  1
XRECORD
  2
AcDbXrecord
  3
AutoCAD 2000
 90
        0
280
     0
281
     0
  0
CLASS
  1
LONG_TRANSACTION
  2
AcDbLongTransaction
  3
AutoCAD 2000
 90
        0
280
     0
281
     0
  0
CLASS
  1
LWPOLYLINE
  2
AcDbPolyline
  3
AutoCAD 2000
 90
        0
280
     0
281
     1
  0
CLASS
  1
HATCH
  2
AcDbHatch
  3
AutoCAD 2000
 90
        0
280
     0
281
     1
  0
CLASS
  1
XRECORD
  2
AcDbXrecord
  3
AutoCAD 2000
 90
        0
280
     0
281
     0
  0
CLASS
  1
LONG_TRANSACTION
  2
AcDbLongTransaction
  3
AutoCAD 2000
 90
        0
280
     0
281
     0
  0
CLASS
  1
LWPOLYLINE
  2
AcDbPolyline
  3
AutoCAD 2000
 90
        0
280
     0
281
     1
  0
CLASS
  1
HATCH
  2
AcDbHatch
  3
AutoCAD 2000
 90
        0
280
     0
281
     1
  0
CLASS
  1
XRECORD
  2
AcDbXrecord
  3
AutoCAD 2000
 90
        0
280
     0
281
     0
  0
ENDSEC
  0
SECTION
  2
TABLES
  0
TABLE
  2
VPORT
  5
7
330
0
100
AcDbSymbolTable
 70
     3
  0
VPORT
  5
2E
330
7
100
AcDbSymbolTableRecord
100
AcDbViewportTableRecord
  2
DCADVPORT
 70
     0
 10
-5.046750063547653
 20
-1.570797253961836
 11
0.6700103082102893
 21
4.660146514757949
 12
6.209999999999999
 22
9.019999999999999
 13
0.0
 23
0.0
 14
1.0
 24
1.0
 15
0.0
 25
0.0
 16
0.0
 26
0.0
 36
1.0
 17
0.0
 27
0.0
 37
0.0
 40
18.04
 41
0.688564
 42
50.0
 43
1.0
 44
1.0
 50
0.0
 51
0.0
 71
     0
 72
   100
 73
     1
 74
     1
 75
     0
 76
     0
 77
     0
 78
     0
  0
VPORT
  5
2DF
330
7
100
AcDbSymbolTableRecord
100
AcDbViewportTableRecord
  2
*ACTIVE
 70
     0
 10
0.0
 20
0.0
 11
1.0
 21
1.0
 12
-2.520526912485286
 22
1.61475664373869
 13
0.0
 23
0.0
 14
1.0
 24
1.0
 15
0.0
 25
0.0
 16
0.0
 26
0.0
 36
1.0
 17
0.0
 27
0.0
 37
0.0
 40
8.612886660070632
 41
1.570528967254408
 42
50.0
 43
0.0
 44
0.0
 50
0.0
 51
0.0
 71
     0
 72
   100
 73
     1
 74
     1
 75
     0
 76
     0
 77
     0
 78
     0
  0
ENDTAB
  0
TABLE
  2
LTYPE
  5
4
330
0
100
AcDbSymbolTable
 70
     3
  0
LTYPE
  5
11
330
4
100
AcDbSymbolTableRecord
100
AcDbLinetypeTableRecord
  2
BYBLOCK
 70
     0
  3

 72
    65
 73
     0
 40
0.0
  0
LTYPE
  5
12
330
4
100
AcDbSymbolTableRecord
100
AcDbLinetypeTableRecord
  2
BYLAYER
 70
     0
  3

 72
    65
 73
     0
 40
0.0
  0
LTYPE
  5
13
330
4
100
AcDbSymbolTableRecord
100
AcDbLinetypeTableRecord
  2
CONTINUOUS
 70
     0
  3
Solid line
 72
    65
 73
     0
 40
0.0
  0
LTYPE
  5
1E
330
4
100
AcDbSymbolTableRecord
100
AcDbLinetypeTableRecord
  2
CONTINUOUS
 70
     0
  3
Solid line
 72
    65
 73
     0
 40
0.0
  0
LTYPE
  5
22
330
4
100
AcDbSymbolTableRecord
100
AcDbLinetypeTableRecord
  2
DASHDOT
 70
     0
  3
__ . __ . __ . __ . __ . __ . __ . __ . __ . __
 72
    65
 73
     4
 40
1.0
 49
0.5
 74
     0
 49
-0.25
 74
     0
 49
0.0
 74
     0
 49
-0.25
 74
     0
  0
ENDTAB
  0
TABLE
  2
LAYER
  5
2
330
0
100
AcDbSymbolTable
 70
     5
  0
LAYER
  5
14
330
2
100
AcDbSymbolTableRecord
100
AcDbLayerTableRecord
  2
0
 70
     0
 62
     7
  6
CONTINUOUS
  0
LAYER
  5
2A
330
2
100
AcDbSymbolTableRecord
100
AcDbLayerTableRecord
  2
ADPDIM
 70
     0
 62
     3
  6
CONTINUOUS
  0
LAYER
  5
2B
330
2
100
AcDbSymbolTableRecord
100
AcDbLayerTableRecord
  2
ADP1DETAIL
 70
     0
 62
   250
  6
CONTINUOUS
  0
LAYER
  5
2C
330
2
100
AcDbSymbolTableRecord
100
AcDbLayerTableRecord
  2
ADP3DETAIL
 70
     0
 62
   250
  6
CONTINUOUS
  0
LAYER
  5
2D
330
2
100
AcDbSymbolTableRecord
100
AcDbLayerTableRecord
  2
DEFPOINTS
 70
     0
 62
   250
  6
CONTINUOUS
  0
ENDTAB
  0
TABLE
  2
STYLE
  5
3
330
0
100
AcDbSymbolTable
 70
     2
  0
STYLE
  5
17
330
3
100
AcDbSymbolTableRecord
100
AcDbTextStyleTableRecord
  2
STANDARD
 70
     0
 40
0.0
 41
1.0
 50
0.0
 71
     0
 42
0.0
  3
txt
  4

  0
STYLE
  5
17F
330
3
100
AcDbSymbolTableRecord
100
AcDbTextStyleTableRecord
  2
ARIAL_WIDE
 70
     0
 40
0.0
 41
1.25
 50
0.0
 71
     0
 42
0.2
  3
ARIAL.TTF
  4

1001
ACAD
1000
Arial
1071
       34
  0
ENDTAB
  0
TABLE
  2
VIEW
  5
5
330
0
100
AcDbSymbolTable
 70
     0
  0
ENDTAB
  0
TABLE
  2
UCS
  5
6
330
0
100
AcDbSymbolTable
 70
     0
  0
ENDTAB
  0
TABLE
  2
APPID
  5
8
330
0
100
AcDbSymbolTable
 70
     1
  0
APPID
  5
16
330
8
100
AcDbSymbolTableRecord
100
AcDbRegAppTableRecord
  2
ACAD
 70
     0
  0
ENDTAB
  0
TABLE
  2
DIMSTYLE
  5
9
330
0
100
AcDbSymbolTable
 70
     1
  0
DIMSTYLE
105
18
330
9
100
AcDbSymbolTableRecord
100
AcDbDimStyleTableRecord
  2
STANDARD
 70
     0
  3

  4

  5

  6

  7

 40
1.0
 41
0.18
 42
0.0625
 43
0.38
 44
0.18
 45
0.0
 46
0.0
 47
0.0
 48
0.0
140
0.18
141
0.09
142
0.0
143
25.4
144
1.0
145
0.0
146
1.0
147
0.09
 71
     0
 72
     0
 73
     1
 74
     1
 75
     0
 76
     0
 77
     0
 78
     0
170
     0
171
     2
172
     0
173
     0
174
     0
175
     0
176
     0
177
     0
178
     0
270
     2
271
     4
272
     4
273
     2
274
     2
340
17
275
     0
280
     0
281
     0
282
     0
283
     1
284
     0
285
     0
286
     0
287
     0
288
     0
  0
ENDTAB
  0
TABLE
  2
BLOCK_RECORD
  5
1
330
0
100
AcDbSymbolTable
 70
     0
  0
BLOCK_RECORD
  5
A
102
{ACAD_XDICTIONARY
360
1D6
102
}
330
1
100
AcDbSymbolTableRecord
100
AcDbBlockTableRecord
  2
*MODEL_SPACE
  0
BLOCK_RECORD
  5
B
102
{ACAD_XDICTIONARY
360
1D8
102
}
330
1
100
AcDbSymbolTableRecord
100
AcDbBlockTableRecord
  2
*PAPER_SPACE
  0
ENDTAB
  0
ENDSEC
  0
SECTION
  2
BLOCKS
  0
BLOCK
  5
D
330
A
100
AcDbEntity
  8
0
100
AcDbBlockBegin
  2
*MODEL_SPACE
 70
     0
 10
0.0
 20
0.0
 30
0.0
  3
*MODEL_SPACE
  1

  0
ENDBLK
  5
E
330
A
100
AcDbEntity
  8
0
100
AcDbBlockEnd
  0
BLOCK
  5
F
330
B
100
AcDbEntity
 67
     1
  8
0
100
AcDbBlockBegin
  2
*PAPER_SPACE
 70
     0
 10
0.0
 20
0.0
 30
0.0
  3
*PAPER_SPACE
  1

  0
ENDBLK
  5
10
330
B
100
AcDbEntity
 67
     1
  8
0
100
AcDbBlockEnd
  0
ENDSEC
  0
SECTION
  2
ENTITIES
  0
LWPOLYLINE
  5
2F
330
A
100
AcDbEntity
  8
ADP3DETAIL
  6
DASHDOT
 62
     1
100
AcDbPolyline
 90
        2
 70
   128
 43
0.0
 10
-3.095268825711455
 20
4.024042761390423
 10
-5.046750063547653
 20
4.029181021662209
  0
LWPOLYLINE
  5
33
330
A
100
AcDbEntity
  8
ADP1DETAIL
  6
CONTINUOUS
 62
     7
100
AcDbPolyline
 90
        2
 70
   128
 43
0.0
 10
-3.095268825711455
 20
4.648557890123905
 10
-4.595268825711455
 20
4.648557890123905
  0
LWPOLYLINE
  5
37
330
A
100
AcDbEntity
  8
ADP1DETAIL
  6
CONTINUOUS
 62
     7
100
AcDbPolyline
 90
        2
 70
   128
 43
0.0
 10
-3.095268825711455
 20
4.523569532196015
 10
-4.595268825711455
 20
4.523569532196015
  0
LWPOLYLINE
  5
3B
330
A
100
AcDbEntity
  8
ADP1DETAIL
  6
CONTINUOUS
 62
     7
100
AcDbPolyline
 90
        2
 70
   128
 43
0.0
 10
-3.095268825711455
 20
4.461068901173305
 10
-4.595268825711455
 20
4.461068901173306
  0
LWPOLYLINE
  5
3F
330
A
100
AcDbEntity
  8
ADP1DETAIL
  6
CONTINUOUS
 62
     7
100
AcDbPolyline
 90
        2
 70
   128
 43
0.0
 10
-3.095268825711455
 20
3.523986599106509
 10
-4.595268825711455
 20
3.52398659910651
  0
LWPOLYLINE
  5
43
330
A
100
AcDbEntity
  8
ADP1DETAIL
  6
CONTINUOUS
 62
     7
100
AcDbPolyline
 90
        2
 70
   128
 43
0.0
 10
-3.095268825711455
 20
3.586487696780159
 10
-4.595268825711455
 20
3.58648769678016
  0
LWPOLYLINE
  5
47
330
A
100
AcDbEntity
  8
ADP1DETAIL
  6
CONTINUOUS
 62
     7
100
AcDbPolyline
 90
        2
 70
   128
 43
0.0
 10
-4.595268825711455
 20
3.398984979215029
 10
-3.095268825711455
 20
3.398984197939402
  0
LWPOLYLINE
  5
4B
330
A
100
AcDbEntity
  8
ADP1DETAIL
  6
CONTINUOUS
 62
     7
100
AcDbPolyline
 90
        2
 70
   128
 43
0.0
 10
-4.595268825711455
 20
4.648557890123905
 10
-4.595268825711455
 20
3.398984979215029
  0
LWPOLYLINE
  5
4F
330
A
100
AcDbEntity
  8
ADP3DETAIL
  6
DASHDOT
 62
     1
100
AcDbPolyline
 90
        2
 70
   128
 43
0.0
 10
-0.6238052147005267
 20
-0.3189357029973057
 10
-0.6250226813665006
 20
1.500000000000001
  0
LWPOLYLINE
  5
53
330
A
100
AcDbEntity
  8
ADP1DETAIL
  6
CONTINUOUS
 62
     7
100
AcDbPolyline
 90
        2
 70
   128
 43
0.0
 10
-1.062562367679479
 20
0.0000000000000013
 10
-1.062561586403852
 20
1.500000000000001
  0
LWPOLYLINE
  5
57
330
A
100
AcDbEntity
  8
ADP1DETAIL
  6
CONTINUOUS
 62
     7
100
AcDbPolyline
 90
        2
 70
   128
 43
0.0
 10
-1.125062430706774
 20
0.0000000000000013
 10
-1.125061649431147
 20
1.500000000000001
  0
LWPOLYLINE
  5
5B
330
A
100
AcDbEntity
  8
ADP1DETAIL
  6
CONTINUOUS
 62
     7
100
AcDbPolyline
 90
        2
 70
   128
 43
0.0
 10
-1.250061787303375
 20
1.500000000000001
 10
-1.250061787303375
 20
0.0000000000000013
  0
LWPOLYLINE
  5
5F
330
A
100
AcDbEntity
  8
ADP1DETAIL
  6
CONTINUOUS
 62
     7
100
AcDbPolyline
 90
        2
 70
   128
 43
0.0
 10
-0.1875001041700415
 20
0.0
 10
-0.1874993228944142
 20
1.5
  0
LWPOLYLINE
  5
63
330
A
100
AcDbEntity
  8
ADP1DETAIL
  6
CONTINUOUS
 62
     7
100
AcDbPolyline
 90
        2
 70
   128
 43
0.0
 10
-0.1250000679369823
 20
0.0
 10
-0.124999286661355
 20
1.5
  0
LWPOLYLINE
  5
67
330
A
100
AcDbEntity
  8
ADP1DETAIL
  6
CONTINUOUS
 62
     7
100
AcDbPolyline
 90
        2
 70
   128
 43
0.0
 10
0.0
 20
0.0
 10
0.0000007812756273
 20
1.5
  0
LWPOLYLINE
  5
6B
330
A
100
AcDbEntity
  8
ADP1DETAIL
  6
CONTINUOUS
 62
     7
100
AcDbPolyline
 90
        2
 70
   128
 43
0.0
 10
0.0033436415436228
 20
-0.9041305872951701
 10
-1.246656358456377
 20
-0.9041305872951701
  0
LWPOLYLINE
  5
6F
330
A
100
AcDbEntity
  8
ADP1DETAIL
  6
CONTINUOUS
 62
     7
100
AcDbPolyline
 90
        2
 70
   128
 43
0.0
 10
-0.1841563584563772
 20
-0.7791305872951702
 10
-1.059156358456377
 20
-0.7791305872951702
  0
LWPOLYLINE
  5
73
330
A
100
AcDbEntity
  8
ADP1DETAIL
  6
CONTINUOUS
 62
     7
100
AcDbPolyline
 90
        2
 70
   128
 43
0.0
 10
-1.250061787303375
 20
0.0000000000000013
 10
0.0
 20
0.0
  0
LWPOLYLINE
  5
77
330
A
100
AcDbEntity
  8
ADP1DETAIL
  6
CONTINUOUS
 62
     7
100
AcDbPolyline
 90
        2
 70
   128
 43
0.0
 10
-1.246656358456377
 20
-0.9041305872951701
 10
-1.246656358456377
 20
-0.4041305872951702
  0
LWPOLYLINE
  5
7B
330
A
100
AcDbEntity
  8
ADP1DETAIL
  6
CONTINUOUS
 62
     7
100
AcDbPolyline
 90
        2
 70
   128
 43
0.0
 10
-1.246656358456377
 20
-0.4041305872951702
 10
-1.121656358456377
 20
-0.4041305872951702
  0
LWPOLYLINE
  5
7F
330
A
100
AcDbEntity
  8
ADP1DETAIL
  6
CONTINUOUS
 62
     7
100
AcDbPolyline
 90
        2
 70
   128
 43
0.0
 10
-1.059156358456377
 20
-0.7791305872951702
 10
-1.121656358456377
 20
-0.4041305872951702
  0
LWPOLYLINE
  5
83
330
A
100
AcDbEntity
  8
ADP1DETAIL
  6
CONTINUOUS
 62
     7
100
AcDbPolyline
 90
        2
 70
   128
 43
0.0
 10
0.0033436415436228
 20
-0.9041305872951701
 10
0.0033436415436228
 20
-0.4041305872951702
  0
LWPOLYLINE
  5
87
330
A
100
AcDbEntity
  8
ADP1DETAIL
  6
CONTINUOUS
 62
     7
100
AcDbPolyline
 90
        2
 70
   128
 43
0.0
 10
0.0033436415436228
 20
-0.4041305872951702
 10
-0.1216563584563772
 20
-0.4041305872951702
  0
LWPOLYLINE
  5
8B
330
A
100
AcDbEntity
  8
ADP1DETAIL
  6
CONTINUOUS
 62
     7
100
AcDbPolyline
 90
        2
 70
   128
 43
0.0
 10
-0.1841563584563772
 20
-0.7791305872951702
 10
-0.1216563584563772
 20
-0.4041305872951702
  0
ARC
  5
8F
330
A
100
AcDbEntity
  8
ADP3DETAIL
  6
DASHDOT
 62
     1
100
AcDbCircle
 10
3.124905372119279
 20
1.52421843253909
 30
0.0
 40
2.5
210
0.0
220
0.0
230
-1.0
100
AcDbArc
 50
90.67923552109053
 51
180.5550542701259
  0
ARC
  5
90
330
A
100
AcDbEntity
  8
ADP1DETAIL
  6
CONTINUOUS
 62
     7
100
AcDbCircle
 10
3.124905372119279
 20
1.52421843253909
 30
0.0
 40
1.875
210
0.0
220
0.0
230
-1.0
100
AcDbArc
 50
90.90566386224264
 51
180.7400813641506
  0
ARC
  5
91
330
A
100
AcDbEntity
  8
ADP1DETAIL
  6
CONTINUOUS
 62
     7
100
AcDbCircle
 10
3.124905372119279
 20
1.52421843253909
 30
0.0
 40
1.999999999999999
210
0.0
220
0.0
230
-1.0
100
AcDbArc
 50
90.84905558896648
 51
180.6938239424227
  0
ARC
  5
92
330
A
100
AcDbEntity
  8
ADP1DETAIL
  6
CONTINUOUS
 62
     7
100
AcDbCircle
 10
3.124905372119279
 20
1.52421843253909
 30
0.0
 40
2.063
210
0.0
220
0.0
230
-1.0
100
AcDbArc
 50
90.82312527372767
 51
180.6726349224505
  0
ARC
  5
93
330
A
100
AcDbEntity
  8
ADP1DETAIL
  6
CONTINUOUS
 62
     7
100
AcDbCircle
 10
3.143505586943311
 20
1.516919748044089
 30
0.0
 40
3.143551902690155
210
0.0
220
0.0
230
-1.0
100
AcDbArc
 50
90.82406898528793
 51
180.3083883658149
  0
ARC
  5
94
330
A
100
AcDbEntity
  8
ADP1DETAIL
  6
CONTINUOUS
 62
     7
100
AcDbCircle
 10
3.124905372119279
 20
1.52421843253909
 30
0.0
 40
2.936999999999999
210
0.0
220
0.0
230
-1.0
100
AcDbArc
 50
90.57816746566791
 51
180.4724649972051
  0
ARC
  5
95
330
A
100
AcDbEntity
  8
ADP1DETAIL
  6
CONTINUOUS
 62
     7
100
AcDbCircle
 10
3.124905372119279
 20
1.52421843253909
 30
0.0
 40
3.0
210
0.0
220
0.0
230
-1.0
100
AcDbArc
 50
90.56602554965344
 51
180.4625430144068
  0
LWPOLYLINE
  5
96
330
A
100
AcDbEntity
  8
ADPDIM
  6
CONTINUOUS
 62
     3
 48
0.125
100
AcDbPolyline
 90
        2
 70
   128
 43
0.0
 10
-1.338200343827471
 20
3.272842217656052
 10
-3.173803195301356
 20
1.476362801473694
  0
LWPOLYLINE
  5
9A
330
A
100
AcDbEntity
  8
ADPDIM
  6
CONTINUOUS
 62
     3
 48
0.125
100
AcDbPolyline
 90
        2
 70
   128
 43
0.0
 10
-1.340104405986213
 20
3.096075776985613
 10
-1.336296281668728
 20
3.44960865832649
  0
TEXT
  5
9E
330
A
100
AcDbEntity
  8
ADPDIM
 62
     3
 48
0.0
100
AcDbText
 10
-3.695877526299172
 20
0.8779643104793622
 30
0.0
 40
0.1249999999999999
  1
R2 1/2
 50
44.38285510439217
 72
     5
 11
-3.219422852088023
 21
1.344263986510552
 31
0.0
100
AcDbText
  0
LWPOLYLINE
  5
9F
330
A
100
AcDbEntity
  8
ADPDIM
  6
CONTINUOUS
 62
     3
 48
0.125
100
AcDbPolyline
 90
        2
 70
   128
 43
0.0
 10
-3.192904556449741
 20
1.491604516268315
 10
-2.163541213516573
 20
1.491604516268315
  0
LWPOLYLINE
  5
A3
330
A
100
AcDbEntity
  8
ADPDIM
  6
CONTINUOUS
 62
     3
 48
0.125
100
AcDbPolyline
 90
        2
 70
   128
 43
0.0
 10
-1.312561787303375
 20
0.0000000000000013
 10
-2.523541213516573
 20
0.0000000000000014
  0
LWPOLYLINE
  5
A7
330
A
100
AcDbEntity
  8
ADPDIM
  6
CONTINUOUS
 62
     3
 48
0.125
100
AcDbPolyline
 90
        2
 70
   128
 43
0.0
 10
-2.343541213516573
 20
1.491604516268315
 10
-2.343541213516573
 20
1.120802258134158
  0
LWPOLYLINE
  5
AB
330
A
100
AcDbEntity
  8
ADPDIM
  6
CONTINUOUS
 62
     3
 48
0.125
100
AcDbPolyline
 90
        2
 70
   128
 43
0.0
 10
-2.343541213516573
 20
0.0000000000000014
 10
-2.343541213516573
 20
0.3708022581341584
  0
LWPOLYLINE
  5
AF
330
A
100
AcDbEntity
  8
ADPDIM
  6
CONTINUOUS
 62
     3
 48
0.125
100
AcDbPolyline
 90
        2
 70
   128
 43
0.0
 10
-2.218541213516573
 20
1.366604516268315
 10
-2.468541213516573
 20
1.616604516268315
  0
LWPOLYLINE
  5
B3
330
A
100
AcDbEntity
  8
ADPDIM
  6
CONTINUOUS
 62
     3
 48
0.125
100
AcDbPolyline
 90
        2
 70
   128
 43
0.0
 10
-2.218541213516573
 20
-0.1249999999999986
 10
-2.468541213516573
 20
0.1250000000000014
  0
TEXT
  5
B7
330
A
100
AcDbEntity
  8
ADPDIM
 62
     3
 48
0.0
100
AcDbText
 10
-2.281041213516573
 20
0.4958022581341584
 30
0.0
 40
0.125
  1
1 1/2
 50
90.0
 72
     5
 11
-2.281041213516573
 21
0.9958022581341584
 31
0.0
100
AcDbText
  0
LWPOLYLINE
  5
B8
330
A
100
AcDbEntity
  8
ADPDIM
  6
CONTINUOUS
 62
     3
 48
0.125
100
AcDbPolyline
 90
        2
 70
   128
 43
0.0
 10
-1.309156358456377
 20
-0.4041305872951702
 10
-1.910744740226437
 20
-0.4041305872951701
  0
LWPOLYLINE
  5
BC
330
A
100
AcDbEntity
  8
ADPDIM
  6
CONTINUOUS
 62
     3
 48
0.125
100
AcDbPolyline
 90
        2
 70
   128
 43
0.0
 10
-1.309156358456377
 20
-0.9041305872951701
 10
-1.910744740226437
 20
-0.9041305872951701
  0
LWPOLYLINE
  5
C0
330
A
100
AcDbEntity
  8
ADPDIM
  6
CONTINUOUS
 62
     3
 48
0.125
100
AcDbPolyline
 90
        2
 70
   128
 43
0.0
 10
-1.730744740226437
 20
-0.4041305872951701
 10
-1.730744740226437
 20
-0.1541305872951701
  0
LWPOLYLINE
  5
C4
330
A
100
AcDbEntity
  8
ADPDIM
  6
CONTINUOUS
 62
     3
 48
0.125
100
AcDbPolyline
 90
        2
 70
   128
 43
0.0
 10
-1.730744740226437
 20
-0.9041305872951701
 10
-1.730744740226437
 20
-1.15413058729517
  0
LWPOLYLINE
  5
C8
330
A
100
AcDbEntity
  8
ADPDIM
  6
CONTINUOUS
 62
     3
 48
0.125
100
AcDbPolyline
 90
        2
 70
   128
 43
0.0
 10
-1.605744740226437
 20
-0.5291305872951701
 10
-1.855744740226437
 20
-0.2791305872951701
  0
LWPOLYLINE
  5
CC
330
A
100
AcDbEntity
  8
ADPDIM
  6
CONTINUOUS
 62
     3
 48
0.125
100
AcDbPolyline
 90
        2
 70
   128
 43
0.0
 10
-1.605744740226437
 20
-1.02913058729517
 10
-1.855744740226437
 20
-0.7791305872951702
  0
TEXT
  5
D0
330
A
100
AcDbEntity
  8
ADPDIM
 62
     3
 48
0.0
100
AcDbText
 10
-1.668244740226437
 20
-1.570797253961836
 30
0.0
 40
0.125
  1
1/2
 50
90.0
 72
     5
 11
-1.668244740226437
 21
-1.27913058729517
 31
0.0
100
AcDbText
  0
LWPOLYLINE
  5
D1
330
A
100
AcDbEntity
  8
ADPDIM
  6
CONTINUOUS
 62
     3
 48
0.125
100
AcDbPolyline
 90
        2
 70
   128
 43
0.0
 10
-1.246656358456377
 20
-0.9666305872951701
 10
-1.246656358456377
 20
-1.295815051166979
  0
LWPOLYLINE
  5
D5
330
A
100
AcDbEntity
  8
ADPDIM
  6
CONTINUOUS
 62
     3
 48
0.125
100
AcDbPolyline
 90
        2
 70
   128
 43
0.0
 10
0.0033436415436228
 20
-0.9666305872951701
 10
0.0033436415436228
 20
-1.295815051166979
  0
LWPOLYLINE
  5
D9
330
A
100
AcDbEntity
  8
ADPDIM
  6
CONTINUOUS
 62
     3
 48
0.125
100
AcDbPolyline
 90
        2
 70
   128
 43
0.0
 10
-1.246656358456377
 20
-1.115815051166979
 10
-0.9966563584563772
 20
-1.115815051166979
  0
LWPOLYLINE
  5
DD
330
A
100
AcDbEntity
  8
ADPDIM
  6
CONTINUOUS
 62
     3
 48
0.125
100
AcDbPolyline
 90
        2
 70
   128
 43
0.0
 10
0.0033436415436228
 20
-1.115815051166979
 10
-0.2466563584563772
 20
-1.115815051166979
  0
LWPOLYLINE
  5
E1
330
A
100
AcDbEntity
  8
ADPDIM
  6
CONTINUOUS
 62
     3
 48
0.125
100
AcDbPolyline
 90
        2
 70
   128
 43
0.0
 10
-1.371656358456377
 20
-1.240815051166979
 10
-1.121656358456377
 20
-0.9908150511669795
  0
LWPOLYLINE
  5
E5
330
A
100
AcDbEntity
  8
ADPDIM
  6
CONTINUOUS
 62
     3
 48
0.125
100
AcDbPolyline
 90
        2
 70
   128
 43
0.0
 10
-0.1216563584563772
 20
-1.240815051166979
 10
0.1283436415436228
 20
-0.9908150511669795
  0
TEXT
  5
E9
330
A
100
AcDbEntity
  8
ADPDIM
 62
     3
 48
0.0
100
AcDbText
 10
-0.8716563584563772
 20
-1.178315051166979
 30
0.0
 40
0.125
  1
1 1/4
 72
     5
 11
-0.3716563584563772
 21
-1.178315051166979
 31
0.0
100
AcDbText
  0
LWPOLYLINE
  5
EA
330
A
100
AcDbEntity
  8
ADPDIM
  6
CONTINUOUS
 62
     3
 48
0.125
100
AcDbPolyline
 90
        2
 70
   128
 43
0.0
 10
-0.1216563584563772
 20
-0.3416305872951701
 10
-0.1216563584563772
 20
-0.1193178732065012
  0
LWPOLYLINE
  5
EE
330
A
100
AcDbEntity
  8
ADPDIM
  6
CONTINUOUS
 62
     3
 48
0.125
100
AcDbPolyline
 90
        2
 70
   128
 43
0.0
 10
0.0033436415436228
 20
-0.3416305872951701
 10
0.0033436415436228
 20
-0.1193178732065012
  0
LWPOLYLINE
  5
F2
330
A
100
AcDbEntity
  8
ADPDIM
  6
CONTINUOUS
 62
     3
 48
0.125
100
AcDbPolyline
 90
        2
 70
   128
 43
0.0
 10
-0.1216563584563772
 20
-0.2993178732065011
 10
-0.3716563584563772
 20
-0.2993178732065011
  0
LWPOLYLINE
  5
F6
330
A
100
AcDbEntity
  8
ADPDIM
  6
CONTINUOUS
 62
     3
 48
0.125
100
AcDbPolyline
 90
        2
 70
   128
 43
0.0
 10
0.0033436415436228
 20
-0.2993178732065011
 10
0.2533436415436228
 20
-0.2993178732065011
  0
LWPOLYLINE
  5
FA
330
A
100
AcDbEntity
  8
ADPDIM
  6
CONTINUOUS
 62
     3
 48
0.125
100
AcDbPolyline
 90
        2
 70
   128
 43
0.0
 10
-0.2466563584563772
 20
-0.4243178732065012
 10
0.0033436415436228
 20
-0.1743178732065012
  0
LWPOLYLINE
  5
FE
330
A
100
AcDbEntity
  8
ADPDIM
  6
CONTINUOUS
 62
     3
 48
0.125
100
AcDbPolyline
 90
        2
 70
   128
 43
0.0
 10
-0.1216563584563772
 20
-0.4243178732065012
 10
0.1283436415436228
 20
-0.1743178732065012
  0
TEXT
  5
102
330
A
100
AcDbEntity
  8
ADPDIM
 62
     3
 48
0.0
100
AcDbText
 10
0.3783436415436227
 20
-0.3618178732065012
 30
0.0
 40
0.125
  1
1/8
 72
     5
 11
0.6700103082102893
 21
-0.3618178732065012
 31
0.0
100
AcDbText
  0
LWPOLYLINE
  5
103
330
A
100
AcDbEntity
  8
DEFPOINTS
  6
CONTINUOUS
 62
     3
 48
0.125
100
AcDbPolyline
 90
        2
 70
   128
 43
0.0
 10
-1.338200343827471
 20
3.272842217656051
 10
-1.338200343827471
 20
3.272842217656051
  0
LWPOLYLINE
  5
107
330
A
100
AcDbEntity
  8
DEFPOINTS
  6
CONTINUOUS
 62
     3
 48
0.125
100
AcDbPolyline
 90
        2
 70
   128
 43
0.0
 10
-1.338200343827471
 20
3.272842217656051
 10
-1.338200343827471
 20
3.272842217656051
  0
LWPOLYLINE
  5
10B
330
A
100
AcDbEntity
  8
DEFPOINTS
  6
CONTINUOUS
 62
     3
 48
0.125
100
AcDbPolyline
 90
        2
 70
   128
 43
0.0
 10
-3.124905372119278
 20
1.52421843253909
 10
-3.124905372119278
 20
1.52421843253909
  0
LWPOLYLINE
  5
10F
330
A
100
AcDbEntity
  8
DEFPOINTS
  6
CONTINUOUS
 62
     3
 48
0.125
100
AcDbPolyline
 90
        2
 70
   128
 43
0.0
 10
-3.124905372119278
 20
1.52421843253909
 10
-3.124905372119278
 20
1.52421843253909
  0
LWPOLYLINE
  5
113
330
A
100
AcDbEntity
  8
DEFPOINTS
  6
CONTINUOUS
 62
     3
 48
0.125
100
AcDbPolyline
 90
        2
 70
   128
 43
0.0
 10
-3.255404556449741
 20
1.491604516268315
 10
-3.255404556449741
 20
1.491604516268315
  0
LWPOLYLINE
  5
117
330
A
100
AcDbEntity
  8
DEFPOINTS
  6
CONTINUOUS
 62
     3
 48
0.125
100
AcDbPolyline
 90
        2
 70
   128
 43
0.0
 10
-3.255404556449741
 20
1.491604516268315
 10
-3.255404556449741
 20
1.491604516268315
  0
LWPOLYLINE
  5
11B
330
A
100
AcDbEntity
  8
DEFPOINTS
  6
CONTINUOUS
 62
     3
 48
0.125
100
AcDbPolyline
 90
        2
 70
   128
 43
0.0
 10
-1.250061787303375
 20
0.0000000000000018
 10
-1.250061787303375
 20
0.0000000000000018
  0
LWPOLYLINE
  5
11F
330
A
100
AcDbEntity
  8
DEFPOINTS
  6
CONTINUOUS
 62
     3
 48
0.125
100
AcDbPolyline
 90
        2
 70
   128
 43
0.0
 10
-1.250061787303375
 20
0.0000000000000018
 10
-1.250061787303375
 20
0.0000000000000018
  0
LWPOLYLINE
  5
123
330
A
100
AcDbEntity
  8
DEFPOINTS
  6
CONTINUOUS
 62
     3
 48
0.125
100
AcDbPolyline
 90
        2
 70
   128
 43
0.0
 10
-2.343541213516572
 20
0.0000000000000018
 10
-2.343541213516572
 20
0.0000000000000018
  0
LWPOLYLINE
  5
127
330
A
100
AcDbEntity
  8
DEFPOINTS
  6
CONTINUOUS
 62
     3
 48
0.125
100
AcDbPolyline
 90
        2
 70
   128
 43
0.0
 10
-2.343541213516572
 20
0.0000000000000018
 10
-2.343541213516572
 20
0.0000000000000018
  0
LWPOLYLINE
  5
12B
330
A
100
AcDbEntity
  8
DEFPOINTS
  6
CONTINUOUS
 62
     3
 48
0.125
100
AcDbPolyline
 90
        2
 70
   128
 43
0.0
 10
-1.246656358456377
 20
-0.4041305872951702
 10
-1.246656358456377
 20
-0.4041305872951702
  0
LWPOLYLINE
  5
12F
330
A
100
AcDbEntity
  8
DEFPOINTS
  6
CONTINUOUS
 62
     3
 48
0.125
100
AcDbPolyline
 90
        2
 70
   128
 43
0.0
 10
-1.246656358456377
 20
-0.4041305872951702
 10
-1.246656358456377
 20
-0.4041305872951702
  0
LWPOLYLINE
  5
133
330
A
100
AcDbEntity
  8
DEFPOINTS
  6
CONTINUOUS
 62
     3
 48
0.125
100
AcDbPolyline
 90
        2
 70
   128
 43
0.0
 10
-1.246656358456377
 20
-0.9041305872951706
 10
-1.246656358456377
 20
-0.9041305872951706
  0
LWPOLYLINE
  5
137
330
A
100
AcDbEntity
  8
DEFPOINTS
  6
CONTINUOUS
 62
     3
 48
0.125
100
AcDbPolyline
 90
        2
 70
   128
 43
0.0
 10
-1.246656358456377
 20
-0.9041305872951706
 10
-1.246656358456377
 20
-0.9041305872951706
  0
LWPOLYLINE
  5
13B
330
A
100
AcDbEntity
  8
DEFPOINTS
  6
CONTINUOUS
 62
     3
 48
0.125
100
AcDbPolyline
 90
        2
 70
   128
 43
0.0
 10
-1.730744740226438
 20
-0.9041305872951706
 10
-1.730744740226438
 20
-0.9041305872951706
  0
LWPOLYLINE
  5
13F
330
A
100
AcDbEntity
  8
DEFPOINTS
  6
CONTINUOUS
 62
     3
 48
0.125
100
AcDbPolyline
 90
        2
 70
   128
 43
0.0
 10
-1.730744740226438
 20
-0.9041305872951706
 10
-1.730744740226438
 20
-0.9041305872951706
  0
LWPOLYLINE
  5
143
330
A
100
AcDbEntity
  8
DEFPOINTS
  6
CONTINUOUS
 62
     3
 48
0.125
100
AcDbPolyline
 90
        2
 70
   128
 43
0.0
 10
-1.246656358456377
 20
-0.9041305872951706
 10
-1.246656358456377
 20
-0.9041305872951706
  0
LWPOLYLINE
  5
147
330
A
100
AcDbEntity
  8
DEFPOINTS
  6
CONTINUOUS
 62
     3
 48
0.125
100
AcDbPolyline
 90
        2
 70
   128
 43
0.0
 10
-1.246656358456377
 20
-0.9041305872951706
 10
-1.246656358456377
 20
-0.9041305872951706
  0
LWPOLYLINE
  5
14B
330
A
100
AcDbEntity
  8
DEFPOINTS
  6
CONTINUOUS
 62
     3
 48
0.125
100
AcDbPolyline
 90
        2
 70
   128
 43
0.0
 10
0.0033436415436237
 20
-0.9041305872951706
 10
0.0033436415436237
 20
-0.9041305872951706
  0
LWPOLYLINE
  5
14F
330
A
100
AcDbEntity
  8
DEFPOINTS
  6
CONTINUOUS
 62
     3
 48
0.125
100
AcDbPolyline
 90
        2
 70
   128
 43
0.0
 10
0.0033436415436237
 20
-0.9041305872951706
 10
0.0033436415436237
 20
-0.9041305872951706
  0
LWPOLYLINE
  5
153
330
A
100
AcDbEntity
  8
DEFPOINTS
  6
CONTINUOUS
 62
     3
 48
0.125
100
AcDbPolyline
 90
        2
 70
   128
 43
0.0
 10
0.0033436415436237
 20
-1.115815051166979
 10
0.0033436415436237
 20
-1.115815051166979
  0
LWPOLYLINE
  5
157
330
A
100
AcDbEntity
  8
DEFPOINTS
  6
CONTINUOUS
 62
     3
 48
0.125
100
AcDbPolyline
 90
        2
 70
   128
 43
0.0
 10
0.0033436415436237
 20
-1.115815051166979
 10
0.0033436415436237
 20
-1.115815051166979
  0
LWPOLYLINE
  5
15B
330
A
100
AcDbEntity
  8
DEFPOINTS
  6
CONTINUOUS
 62
     3
 48
0.125
100
AcDbPolyline
 90
        2
 70
   128
 43
0.0
 10
-0.1216563584563781
 20
-0.4041305872951702
 10
-0.1216563584563781
 20
-0.4041305872951702
  0
LWPOLYLINE
  5
15F
330
A
100
AcDbEntity
  8
DEFPOINTS
  6
CONTINUOUS
 62
     3
 48
0.125
100
AcDbPolyline
 90
        2
 70
   128
 43
0.0
 10
-0.1216563584563781
 20
-0.4041305872951702
 10
-0.1216563584563781
 20
-0.4041305872951702
  0
LWPOLYLINE
  5
163
330
A
100
AcDbEntity
  8
DEFPOINTS
  6
CONTINUOUS
 62
     3
 48
0.125
100
AcDbPolyline
 90
        2
 70
   128
 43
0.0
 10
0.0033436415436237
 20
-0.4041305872951702
 10
0.0033436415436237
 20
-0.4041305872951702
  0
LWPOLYLINE
  5
167
330
A
100
AcDbEntity
  8
DEFPOINTS
  6
CONTINUOUS
 62
     3
 48
0.125
100
AcDbPolyline
 90
        2
 70
   128
 43
0.0
 10
0.0033436415436237
 20
-0.4041305872951702
 10
0.0033436415436237
 20
-0.4041305872951702
  0
LWPOLYLINE
  5
16B
330
A
100
AcDbEntity
  8
DEFPOINTS
  6
CONTINUOUS
 62
     3
 48
0.125
100
AcDbPolyline
 90
        2
 70
   128
 43
0.0
 10
0.0033436415436237
 20
-0.2993178732065011
 10
0.0033436415436237
 20
-0.2993178732065011
  0
LWPOLYLINE
  5
16F
330
A
100
AcDbEntity
  8
DEFPOINTS
  6
CONTINUOUS
 62
     3
 48
0.125
100
AcDbPolyline
 90
        2
 70
   128
 43
0.0
 10
0.0033436415436237
 20
-0.2993178732065011
 10
0.0033436415436237
 20
-0.2993178732065011
  0
TEXT
  5
180
330
A
100
AcDbEntity
  8
ADPDIM
100
AcDbText
 10
-9.251472051894266
 20
-2.031224298263564
 30
0.0
 40
0.125
  1
J U L I U S  B L U M  &  C O . ,  I N C .      ( 8 0 0 )  5 2 6 - 6 2 9 3        W W W . J U L I U S B L U M . C O M        P A R T  N o .  6 1 5 - C C
 41
1.25
  7
ARIAL_WIDE
 72
     1
 11
-2.531816100325372
 21
-1.906224298263565
 31
0.0
100
AcDbText
 73
     3
  0
ENDSEC
  0
SECTION
  2
OBJECTS
  0
DICTIONARY
  5
19
330
0
100
AcDbDictionary
  3
ACAD_GROUP
350
1A
  3
ACAD_LAYOUT
350
178
  3
ACAD_MLINESTYLE
350
1B
  3
ACAD_PLOTSETTINGS
350
179
  3
ACAD_PLOTSTYLENAME
350
176
  3
ACDBHEADERROUNDTRIPXREC
350
2E0
  3
ACDBVARIABLEDICTIONARY
350
1E2
  0
DICTIONARY
  5
1D6
330
A
100
AcDbDictionary
280
     1
  3
ACAD_LAYOUTSELFREF
360
300
  0
DICTIONARY
  5
1D8
330
B
100
AcDbDictionary
280
     1
  3
ACAD_LAYOUTSELFREF
360
301
  0
DICTIONARY
  5
1A
102
{ACAD_REACTORS
330
19
102
}
330
19
100
AcDbDictionary
  0
DICTIONARY
  5
178
102
{ACAD_REACTORS
330
19
102
}
330
19
100
AcDbDictionary
  0
DICTIONARY
  5
1B
102
{ACAD_REACTORS
330
19
102
}
330
19
100
AcDbDictionary
  3
STANDARD
350
1C
  0
DICTIONARY
  5
179
102
{ACAD_REACTORS
330
19
102
}
330
19
100
AcDbDictionary
  0
ACDBDICTIONARYWDFLT
  5
176
102
{ACAD_REACTORS
330
19
102
}
330
19
100
AcDbDictionary
281
     1
  3
Normal
350
177
100
AcDbDictionaryWithDefault
340
177
  0
DICTIONARY
  5
2E0
102
{ACAD_REACTORS
330
19
102
}
330
19
100
AcDbDictionary
  3
CEPSNTYPE
350
2EA
  3
FINGERPRINTGUID
350
2EB
  3
HYPERLINKBASE
350
2E3
  3
INSUNITS
350
2E9
  3
LAYOUTDICT
350
2E5
  3
LWETCUNION
350
2E8
  3
PLOTSETDICT
350
2E6
  3
PLOTSTYLNAMDICT
350
2E7
  3
PSVPSCALE
350
2ED
  3
PUCSBASE
350
2F0
  3
PUCSORGBACK
350
2F6
  3
PUCSORGBOTTOM
350
2F2
  3
PUCSORGFRONT
350
2F5
  3
PUCSORGLEFT
350
2F3
  3
PUCSORGRIGHT
350
2F4
  3
PUCSORGTOP
350
2F1
  3
PUCSORTHOREF
350
2EE
  3
PUCSORTHOVIEW
350
2EF
  3
STYLESHEET
350
2E4
  3
TSTACKALIGN
350
2E1
  3
TSTACKSIZE
350
2E2
  3
UCSBASE
350
2F9
  3
UCSORGBACK
350
2FF
  3
UCSORGBOTTOM
350
2FB
  3
UCSORGFRONT
350
2FE
  3
UCSORGLEFT
350
2FC
  3
UCSORGRIGHT
350
2FD
  3
UCSORGTOP
350
2FA
  3
UCSORTHOREF
350
2F7
  3
UCSORTHOVIEW
350
2F8
  3
VERSIONGUID
350
2EC
  0
DICTIONARY
  5
1E2
102
{ACAD_REACTORS
330
19
102
}
330
19
100
AcDbDictionary
  3
DIMASSOC
350
1E3
  0
XRECORD
  5
300
102
{ACAD_REACTORS
330
1D6
102
}
330
1D6
100
AcDbXrecord
340
A
  0
XRECORD
  5
301
102
{ACAD_REACTORS
330
1D8
102
}
330
1D8
100
AcDbXrecord
340
B
  0
MLINESTYLE
  5
1C
102
{ACAD_REACTORS
330
1B
102
}
330
1B
100
AcDbMlineStyle
  2
STANDARD
 70
     0
  3

 62
     0
 51
90.00000000000019
 52
90.00000000000019
 71
     2
 49
0.5
 62
   256
  6
BYLAYER
 49
-0.5
 62
   256
  6
BYLAYER
  0
ACDBPLACEHOLDER
  5
177
102
{ACAD_REACTORS
330
176
102
}
330
176
100
AcDbPlaceHolder
280
     0
  0
XRECORD
  5
2EA
102
{ACAD_REACTORS
330
2E0
102
}
330
2E0
100
AcDbXrecord
 90
        0
  0
XRECORD
  5
2EB
102
{ACAD_REACTORS
330
2E0
102
}
330
2E0
100
AcDbXrecord
  1
{51B6733E-CA40-4C22-A24A-A3B6FBBBC721}
  0
XRECORD
  5
2E3
102
{ACAD_REACTORS
330
2E0
102
}
330
2E0
100
AcDbXrecord
  1

  0
XRECORD
  5
2E9
102
{ACAD_REACTORS
330
2E0
102
}
330
2E0
100
AcDbXrecord
 90
        0
  0
XRECORD
  5
2E5
102
{ACAD_REACTORS
330
2E0
102
}
330
2E0
100
AcDbXrecord
340
178
  0
XRECORD
  5
2E8
102
{ACAD_REACTORS
330
2E0
102
}
330
2E0
100
AcDbXrecord
 90
    14877
  0
XRECORD
  5
2E6
102
{ACAD_REACTORS
330
2E0
102
}
330
2E0
100
AcDbXrecord
340
179
  0
XRECORD
  5
2E7
102
{ACAD_REACTORS
330
2E0
102
}
330
2E0
100
AcDbXrecord
340
176
  0
XRECORD
  5
2ED
102
{ACAD_REACTORS
330
2E0
102
}
330
2E0
100
AcDbXrecord
 40
0.0
  0
XRECORD
  5
2F0
102
{ACAD_REACTORS
330
2E0
102
}
330
2E0
100
AcDbXrecord
340
0
  0
XRECORD
  5
2F6
102
{ACAD_REACTORS
330
2E0
102
}
330
2E0
100
AcDbXrecord
 10
0.0
 20
0.0
 30
0.0
  0
XRECORD
  5
2F2
102
{ACAD_REACTORS
330
2E0
102
}
330
2E0
100
AcDbXrecord
 10
0.0
 20
0.0
 30
0.0
  0
XRECORD
  5
2F5
102
{ACAD_REACTORS
330
2E0
102
}
330
2E0
100
AcDbXrecord
 10
0.0
 20
0.0
 30
0.0
  0
XRECORD
  5
2F3
102
{ACAD_REACTORS
330
2E0
102
}
330
2E0
100
AcDbXrecord
 10
0.0
 20
0.0
 30
0.0
  0
XRECORD
  5
2F4
102
{ACAD_REACTORS
330
2E0
102
}
330
2E0
100
AcDbXrecord
 10
0.0
 20
0.0
 30
0.0
  0
XRECORD
  5
2F1
102
{ACAD_REACTORS
330
2E0
102
}
330
2E0
100
AcDbXrecord
 10
0.0
 20
0.0
 30
0.0
  0
XRECORD
  5
2EE
102
{ACAD_REACTORS
330
2E0
102
}
330
2E0
100
AcDbXrecord
340
0
  0
XRECORD
  5
2EF
102
{ACAD_REACTORS
330
2E0
102
}
330
2E0
100
AcDbXrecord
 70
     0
  0
XRECORD
  5
2E4
102
{ACAD_REACTORS
330
2E0
102
}
330
2E0
100
AcDbXrecord
  1

  0
XRECORD
  5
2E1
102
{ACAD_REACTORS
330
2E0
102
}
330
2E0
100
AcDbXrecord
 90
        1
  0
XRECORD
  5
2E2
102
{ACAD_REACTORS
330
2E0
102
}
330
2E0
100
AcDbXrecord
 90
       70
  0
XRECORD
  5
2F9
102
{ACAD_REACTORS
330
2E0
102
}
330
2E0
100
AcDbXrecord
340
0
  0
XRECORD
  5
2FF
102
{ACAD_REACTORS
330
2E0
102
}
330
2E0
100
AcDbXrecord
 10
0.0
 20
0.0
 30
0.0
  0
XRECORD
  5
2FB
102
{ACAD_REACTORS
330
2E0
102
}
330
2E0
100
AcDbXrecord
 10
0.0
 20
0.0
 30
0.0
  0
XRECORD
  5
2FE
102
{ACAD_REACTORS
330
2E0
102
}
330
2E0
100
AcDbXrecord
 10
0.0
 20
0.0
 30
0.0
  0
XRECORD
  5
2FC
102
{ACAD_REACTORS
330
2E0
102
}
330
2E0
100
AcDbXrecord
 10
0.0
 20
0.0
 30
0.0
  0
XRECORD
  5
2FD
102
{ACAD_REACTORS
330
2E0
102
}
330
2E0
100
AcDbXrecord
 10
0.0
 20
0.0
 30
0.0
  0
XRECORD
  5
2FA
102
{ACAD_REACTORS
330
2E0
102
}
330
2E0
100
AcDbXrecord
 10
0.0
 20
0.0
 30
0.0
  0
XRECORD
  5
2F7
102
{ACAD_REACTORS
330
2E0
102
}
330
2E0
100
AcDbXrecord
340
0
  0
XRECORD
  5
2F8
102
{ACAD_REACTORS
330
2E0
102
}
330
2E0
100
AcDbXrecord
 70
     0
  0
XRECORD
  5
2EC
102
{ACAD_REACTORS
330
2E0
102
}
330
2E0
100
AcDbXrecord
  1
{303D6B89-D0F9-4D0A-81EA-061C8A862F84}
  0
DICTIONARYVAR
  5
1E3
102
{ACAD_REACTORS
330
1E2
102
}
330
1E2
100
DictionaryVariables
280
     0
  1
1
  0
ENDSEC
  0
EOF
