  0
SECTION
  2
HEADER
  9
$ACADVER
  1
AC1015
  9
$ACADMAINTVER
 70
    20
  9
$DWGCODEPAGE
  3
ANSI_1252
  9
$INSBASE
 10
93.01737072180719
 20
7.071163613023384
 30
0.0
  9
$EXTMIN
 10
55.33595127178164
 20
0.1315159078293122
 30
0.0
  9
$EXTMAX
 10
133.8621279429958
 20
43.54537402418964
 30
0.0
  9
$LIMMIN
 10
0.0
 20
0.0
  9
$LIMMAX
 10
36.0
 20
36.0
  9
$ORTHOMODE
 70
     0
  9
$REGENMODE
 70
     1
  9
$FILLMODE
 70
     1
  9
$QTEXTMODE
 70
     0
  9
$MIRRTEXT
 70
     1
  9
$LTSCALE
 40
1.0
  9
$ATTMODE
 70
     1
  9
$TEXTSIZE
 40
0.2
  9
$TRACEWID
 40
0.05
  9
$TEXTSTYLE
  7
STANDARD
  9
$CLAYER
  8
ADPDIM
  9
$CELTYPE
  6
BYLAYER
  9
$CECOLOR
 62
   256
  9
$CELTSCALE
 40
1.0
  9
$DISPSILH
 70
     0
  9
$DIMSCALE
 40
1.0
  9
$DIMASZ
 40
0.125
  9
$DIMEXO
 40
0.0625
  9
$DIMDLI
 40
0.38
  9
$DIMRND
 40
0.0
  9
$DIMDLE
 40
0.0
  9
$DIMEXE
 40
0.18
  9
$DIMTP
 40
0.0
  9
$DIMTM
 40
0.0
  9
$DIMTXT
 40
0.125
  9
$DIMCEN
 40
0.1875
  9
$DIMTSZ
 40
0.125
  9
$DIMTOL
 70
     0
  9
$DIMLIM
 70
     0
  9
$DIMTIH
 70
     0
  9
$DIMTOH
 70
     0
  9
$DIMSE1
 70
     0
  9
$DIMSE2
 70
     0
  9
$DIMTAD
 70
     0
  9
$DIMZIN
 70
     3
  9
$DIMBLK
  1

  9
$DIMASO
 70
     1
  9
$DIMSHO
 70
     1
  9
$DIMPOST
  1

  9
$DIMAPOST
  1

  9
$DIMALT
 70
     0
  9
$DIMALTD
 70
     1
  9
$DIMALTF
 40
25.4
  9
$DIMLFAC
 40
1.0
  9
$DIMTOFL
 70
     0
  9
$DIMTVP
 40
0.0
  9
$DIMTIX
 70
     0
  9
$DIMSOXD
 70
     0
  9
$DIMSAH
 70
     0
  9
$DIMBLK1
  1

  9
$DIMBLK2
  1

  9
$DIMSTYLE
  2
STANDARD
  9
$DIMCLRD
 70
     0
  9
$DIMCLRE
 70
     0
  9
$DIMCLRT
 70
     0
  9
$DIMTFAC
 40
1.0
  9
$DIMGAP
 40
0.125
  9
$DIMJUST
 70
     0
  9
$DIMSD1
 70
     0
  9
$DIMSD2
 70
     0
  9
$DIMTOLJ
 70
     1
  9
$DIMTZIN
 70
     0
  9
$DIMALTZ
 70
     0
  9
$DIMALTTZ
 70
     0
  9
$DIMUPT
 70
     0
  9
$DIMDEC
 70
     4
  9
$DIMTDEC
 70
     4
  9
$DIMALTU
 70
     2
  9
$DIMALTTD
 70
     2
  9
$DIMTXSTY
  7
STANDARD
  9
$DIMAUNIT
 70
     0
  9
$DIMADEC
 70
     0
  9
$DIMALTRND
 40
0.0
  9
$DIMAZIN
 70
     0
  9
$DIMDSEP
 70
    46
  9
$DIMATFIT
 70
     3
  9
$DIMFRAC
 70
     0
  9
$DIMLDRBLK
  1

  9
$DIMLUNIT
 70
     2
  9
$DIMLWD
 70
    -2
  9
$DIMLWE
 70
    -2
  9
$DIMTMOVE
 70
     0
  9
$LUNITS
 70
     5
  9
$LUPREC
 70
     4
  9
$SKETCHINC
 40
0.1
  9
$FILLETRAD
 40
0.01
  9
$AUNITS
 70
     0
  9
$AUPREC
 70
     0
  9
$MENU
  1
acad
  9
$ELEVATION
 40
0.0
  9
$PELEVATION
 40
0.0
  9
$THICKNESS
 40
0.0
  9
$LIMCHECK
 70
     0
  9
$CHAMFERA
 40
0.0
  9
$CHAMFERB
 40
0.0
  9
$CHAMFERC
 40
0.0
  9
$CHAMFERD
 40
0.0
  9
$SKPOLY
 70
     0
  9
$TDCREATE
 40
2450386.581627118
  9
$TDUCREATE
 40
2450386.748293785
  9
$TDUPDATE
 40
2453954.847028333
  9
$TDUUPDATE
 40
2453955.013695000
  9
$TDINDWG
 40
0.0454718519
  9
$TDUSRTIMER
 40
0.0454718519
  9
$USRTIMER
 70
     1
  9
$ANGBASE
 50
0.0
  9
$ANGDIR
 70
     0
  9
$PDMODE
 70
     0
  9
$PDSIZE
 40
0.0
  9
$PLINEWID
 40
0.0
  9
$SPLFRAME
 70
     0
  9
$SPLINETYPE
 70
     6
  9
$SPLINESEGS
 70
     8
  9
$HANDSEED
  5
44FB
  9
$SURFTAB1
 70
     6
  9
$SURFTAB2
 70
     6
  9
$SURFTYPE
 70
     6
  9
$SURFU
 70
     6
  9
$SURFV
 70
     6
  9
$UCSBASE
  2

  9
$UCSNAME
  2

  9
$UCSORG
 10
0.0
 20
0.0
 30
0.0
  9
$UCSXDIR
 10
1.0
 20
0.0
 30
0.0
  9
$UCSYDIR
 10
0.0
 20
1.0
 30
0.0
  9
$UCSORTHOREF
  2

  9
$UCSORTHOVIEW
 70
     0
  9
$UCSORGTOP
 10
0.0
 20
0.0
 30
0.0
  9
$UCSORGBOTTOM
 10
0.0
 20
0.0
 30
0.0
  9
$UCSORGLEFT
 10
0.0
 20
0.0
 30
0.0
  9
$UCSORGRIGHT
 10
0.0
 20
0.0
 30
0.0
  9
$UCSORGFRONT
 10
0.0
 20
0.0
 30
0.0
  9
$UCSORGBACK
 10
0.0
 20
0.0
 30
0.0
  9
$PUCSBASE
  2

  9
$PUCSNAME
  2

  9
$PUCSORG
 10
0.0
 20
0.0
 30
0.0
  9
$PUCSXDIR
 10
1.0
 20
0.0
 30
0.0
  9
$PUCSYDIR
 10
0.0
 20
1.0
 30
0.0
  9
$PUCSORTHOREF
  2

  9
$PUCSORTHOVIEW
 70
     0
  9
$PUCSORGTOP
 10
0.0
 20
0.0
 30
0.0
  9
$PUCSORGBOTTOM
 10
0.0
 20
0.0
 30
0.0
  9
$PUCSORGLEFT
 10
0.0
 20
0.0
 30
0.0
  9
$PUCSORGRIGHT
 10
0.0
 20
0.0
 30
0.0
  9
$PUCSORGFRONT
 10
0.0
 20
0.0
 30
0.0
  9
$PUCSORGBACK
 10
0.0
 20
0.0
 30
0.0
  9
$USERI1
 70
     0
  9
$USERI2
 70
     0
  9
$USERI3
 70
     0
  9
$USERI4
 70
     0
  9
$USERI5
 70
     0
  9
$USERR1
 40
0.0
  9
$USERR2
 40
0.0
  9
$USERR3
 40
0.0
  9
$USERR4
 40
0.0
  9
$USERR5
 40
0.0
  9
$WORLDVIEW
 70
     1
  9
$SHADEDGE
 70
     3
  9
$SHADEDIF
 70
    70
  9
$TILEMODE
 70
     1
  9
$MAXACTVP
 70
    15
  9
$PINSBASE
 10
4.403525741743744E+99
 20
7.061986388769092E+99
 30
0.0
  9
$PLIMCHECK
 70
     0
  9
$PEXTMIN
 10
1.000000000000000E+20
 20
1.000000000000000E+20
 30
1.000000000000000E+20
  9
$PEXTMAX
 10
-1.000000000000000E+20
 20
-1.000000000000000E+20
 30
-1.000000000000000E+20
  9
$PLIMMIN
 10
0.0
 20
0.0
  9
$PLIMMAX
 10
12.0
 20
9.0
  9
$UNITMODE
 70
     0
  9
$VISRETAIN
 70
     0
  9
$PLINEGEN
 70
     0
  9
$PSLTSCALE
 70
     1
  9
$TREEDEPTH
 70
  3020
  9
$CMLSTYLE
  2
STANDARD
  9
$CMLJUST
 70
     0
  9
$CMLSCALE
 40
1.0
  9
$PROXYGRAPHICS
 70
     1
  9
$MEASUREMENT
 70
     0
  9
$CELWEIGHT
370
    -1
  9
$ENDCAPS
280
     0
  9
$JOINSTYLE
280
     0
  9
$LWDISPLAY
290
     0
  9
$INSUNITS
 70
     0
  9
$HYPERLINKBASE
  1

  9
$STYLESHEET
  1

  9
$XEDIT
290
     1
  9
$CEPSNTYPE
380
     0
  9
$PSTYLEMODE
290
     1
  9
$FINGERPRINTGUID
  2
{B7675D67-AB68-47AC-AB16-8D93923D389D}
  9
$VERSIONGUID
  2
{2291A025-44F1-4D2B-9369-DBF67581E856}
  9
$EXTNAMES
290
     1
  9
$PSVPSCALE
 40
0.0
  9
$OLESTARTUP
290
     0
  0
ENDSEC
  0
SECTION
  2
CLASSES
  0
CLASS
  1
ACDBDICTIONARYWDFLT
  2
AcDbDictionaryWithDefault
  3
ObjectDBX Classes
 90
        0
280
     0
281
     0
  0
CLASS
  1
ACDBPLACEHOLDER
  2
AcDbPlaceHolder
  3
ObjectDBX Classes
 90
        0
280
     0
281
     0
  0
CLASS
  1
LAYOUT
  2
AcDbLayout
  3
ObjectDBX Classes
 90
        0
280
     0
281
     0
  0
CLASS
  1
DICTIONARYVAR
  2
AcDbDictionaryVar
  3
ObjectDBX Classes
 90
        0
280
     0
281
     0
  0
CLASS
  1
MATERIAL
  2
AcDbMaterial
  3
ObjectDBX Classes
 90
     1024
280
     0
281
     0
  0
CLASS
  1
VISUALSTYLE
  2
AcDbVisualStyle
  3
ObjectDBX Classes
 90
     4095
280
     0
281
     0
  0
CLASS
  1
TABLESTYLE
  2
AcDbTableStyle
  3
ObjectDBX Classes
 90
     4095
280
     0
281
     0
  0
CLASS
  1
ACAD_EVALUATION_GRAPH
  2
AcDbEvalGraph
  3
ObjectDBX Classes
 90
     1153
280
     0
281
     0
  0
CLASS
  1
ACAECUSTOBJ
  2
AcAeEditorObj
  3
AcAeEditorObj
 90
     1024
280
     0
281
     0
  0
CLASS
  1
ACDB_DYNAMICBLOCKPURGEPREVENTER_VERSION
  2
AcDbDynamicBlockPurgePreventer
  3
ObjectDBX Classes
 90
     1153
280
     0
281
     0
  0
ENDSEC
  0
SECTION
  2
TABLES
  0
TABLE
  2
VPORT
  5
8
102
{ACAD_XDICTIONARY
360
347E
102
}
330
0
100
AcDbSymbolTable
 70
     1
  0
VPORT
  5
333
330
8
100
AcDbSymbolTableRecord
100
AcDbViewportTableRecord
  2
*Active
 70
     0
 10
0.0
 20
0.0
 11
1.0
 21
1.0
 12
99.12346979864143
 22
13.17334478165889
 13
0.0
 23
0.0
 14
0.5740882589684922
 24
0.5740882589684922
 15
0.5
 25
0.5
 16
0.0
 26
0.0
 36
1.0
 17
0.0
 27
0.0
 37
0.0
 40
39.58745044756006
 41
1.774011299435028
 42
50.0
 43
0.0
 44
0.0
 50
0.0
 51
0.0
 71
     0
 72
   100
 73
     1
 74
     1
 75
     0
 76
     0
 77
     0
 78
     0
281
     0
 65
     1
110
0.0
120
0.0
130
0.0
111
1.0
121
0.0
131
0.0
112
0.0
122
1.0
132
0.0
 79
     0
146
0.0
  0
ENDTAB
  0
TABLE
  2
LTYPE
  5
5
330
0
100
AcDbSymbolTable
 70
     2
  0
LTYPE
  5
12
330
5
100
AcDbSymbolTableRecord
100
AcDbLinetypeTableRecord
  2
BYBLOCK
 70
     0
  3

 72
    65
 73
     0
 40
0.0
  0
LTYPE
  5
13
330
5
100
AcDbSymbolTableRecord
100
AcDbLinetypeTableRecord
  2
BYLAYER
 70
     0
  3

 72
    65
 73
     0
 40
0.0
  0
LTYPE
  5
14
330
5
100
AcDbSymbolTableRecord
100
AcDbLinetypeTableRecord
  2
CONTINUOUS
 70
     0
  3
Solid line
 72
    65
 73
     0
 40
0.0
  0
ENDTAB
  0
TABLE
  2
LAYER
  5
2
330
0
100
AcDbSymbolTable
 70
     5
  0
LAYER
  5
F
330
2
100
AcDbSymbolTableRecord
100
AcDbLayerTableRecord
  2
0
 70
     0
 62
     7
  6
CONTINUOUS
370
    -3
390
213
  0
LAYER
  5
90
330
2
100
AcDbSymbolTableRecord
100
AcDbLayerTableRecord
  2
ADP1DETAIL
 70
     0
 62
     7
  6
CONTINUOUS
370
    -3
390
213
  0
LAYER
  5
92
330
2
100
AcDbSymbolTableRecord
100
AcDbLayerTableRecord
  2
DEFPOINTS
 70
     0
 62
     7
  6
CONTINUOUS
290
     0
370
    -3
390
213
  0
LAYER
  5
93
330
2
100
AcDbSymbolTableRecord
100
AcDbLayerTableRecord
  2
ADPDIM
 70
     0
 62
     3
  6
CONTINUOUS
370
    -3
390
213
  0
LAYER
  5
3422
330
2
100
AcDbSymbolTableRecord
100
AcDbLayerTableRecord
  2
LAYER_1
 70
     0
 62
   160
  6
CONTINUOUS
370
    -3
390
213
  0
ENDTAB
  0
TABLE
  2
STYLE
  5
3
330
0
100
AcDbSymbolTable
 70
     2
  0
STYLE
  5
10
330
3
100
AcDbSymbolTableRecord
100
AcDbTextStyleTableRecord
  2
STANDARD
 70
     0
 40
0.0
 41
1.0
 50
0.0
 71
     0
 42
0.2
  3
txt
  4

  0
STYLE
  5
21A
330
3
100
AcDbSymbolTableRecord
100
AcDbTextStyleTableRecord
  2
ARIAL_WIDE
 70
     0
 40
0.0
 41
1.25
 50
0.0
 71
     0
 42
0.2
  3
ARIAL.TTF
  4

1001
ACAD
1000
Arial
1071
       34
  0
ENDTAB
  0
TABLE
  2
VIEW
  5
6
330
0
100
AcDbSymbolTable
 70
     0
  0
ENDTAB
  0
TABLE
  2
UCS
  5
7
330
0
100
AcDbSymbolTable
 70
     0
  0
ENDTAB
  0
TABLE
  2
APPID
  5
9
330
0
100
AcDbSymbolTable
 70
     5
  0
APPID
  5
11
330
9
100
AcDbSymbolTableRecord
100
AcDbRegAppTableRecord
  2
ACAD
 70
     0
  0
APPID
  5
44C8
330
9
100
AcDbSymbolTableRecord
100
AcDbRegAppTableRecord
  2
ACAUTHENVIRON
 70
     0
  0
APPID
  5
44D2
330
9
100
AcDbSymbolTableRecord
100
AcDbRegAppTableRecord
  2
AcDbDynamicBlockTrueName
 70
     0
  0
APPID
  5
44D3
330
9
100
AcDbSymbolTableRecord
100
AcDbRegAppTableRecord
  2
AcDbDynamicBlockGUID
 70
     0
  0
APPID
  5
44D5
330
9
100
AcDbSymbolTableRecord
100
AcDbRegAppTableRecord
  2
AcDbBlockRepETag
 70
     0
  0
ENDTAB
  0
TABLE
  2
DIMSTYLE
  5
A
330
0
100
AcDbSymbolTable
 70
     2
100
AcDbDimStyleTable
 71
     1
340
20E
  0
DIMSTYLE
105
20E
330
A
100
AcDbSymbolTableRecord
100
AcDbDimStyleTableRecord
  2
STANDARD
 70
     0
340
10
  0
ENDTAB
  0
TABLE
  2
BLOCK_RECORD
  5
1
330
0
100
AcDbSymbolTable
 70
     5
  0
BLOCK_RECORD
  5
18
102
{ACAD_XDICTIONARY
360
26F
102
}
330
1
100
AcDbSymbolTableRecord
100
AcDbBlockTableRecord
  2
*MODEL_SPACE
340
216
  0
BLOCK_RECORD
  5
15
102
{ACAD_XDICTIONARY
360
26D
102
}
330
1
100
AcDbSymbolTableRecord
100
AcDbBlockTableRecord
  2
*PAPER_SPACE
340
217
  0
BLOCK_RECORD
  5
23FC
102
{ACAD_XDICTIONARY
360
44C9
102
}
330
1
100
AcDbSymbolTableRecord
100
AcDbBlockTableRecord
  2
AI9-BLK8
340
0
102
{BLKREFS
331
3428
102
}
1001
AcDbDynamicBlockGUID
1000
{670F195E-5C87-4CD7-8786-2045A8CBE13C}
1001
AcDbBlockRepETag
1070
     1
1071
     1029
  0
ENDTAB
  0
ENDSEC
  0
SECTION
  2
BLOCKS
  0
BLOCK
  5
96
330
18
100
AcDbEntity
  8
0
100
AcDbBlockBegin
  2
*MODEL_SPACE
 70
     0
 10
0.0
 20
0.0
 30
0.0
  3
*MODEL_SPACE
  1

  0
ENDBLK
  5
97
330
18
100
AcDbEntity
  8
0
100
AcDbBlockEnd
  0
BLOCK
  5
94
330
15
100
AcDbEntity
 67
     1
  8
0
100
AcDbBlockBegin
  2
*PAPER_SPACE
 70
     0
 10
0.0
 20
0.0
 30
0.0
  3
*PAPER_SPACE
  1

  0
ENDBLK
  5
95
330
15
100
AcDbEntity
 67
     1
  8
0
100
AcDbBlockEnd
  0
BLOCK
  5
23FD
330
23FC
100
AcDbEntity
  8
LAYER_1
 62
     7
100
AcDbBlockBegin
  2
AI9-BLK8
 70
     0
 10
0.0
 20
0.0
 30
0.0
  3
AI9-BLK8
  1

  0
LINE
  5
34A5
330
23FC
100
AcDbEntity
  8
LAYER_1
 62
     7
100
AcDbLine
 10
113.4165913899739
 20
407.523015001085
 30
0.0
 11
114.2478929307725
 21
401.2078104654947
 31
0.0
1001
AcDbBlockRepETag
1070
     1
1071
        0
1005
34A5
  0
LINE
  5
34A6
330
23FC
100
AcDbEntity
  8
LAYER_1
 62
     7
100
AcDbLine
 10
114.2478929307725
 20
401.2078104654947
 30
0.0
 11
124.6531148274739
 21
411.3112419976127
 31
0.0
1001
AcDbBlockRepETag
1070
     1
1071
        1
1005
34A6
  0
LINE
  5
34A7
330
23FC
100
AcDbEntity
  8
LAYER_1
 62
     7
100
AcDbLine
 10
133.8100063747829
 20
390.6830437554253
 30
0.0
 11
133.8100063747829
 21
396.5765686035156
 31
0.0
1001
AcDbBlockRepETag
1070
     1
1071
        2
1005
34A7
  0
LINE
  5
34A8
330
23FC
100
AcDbEntity
  8
LAYER_1
 62
     7
100
AcDbLine
 10
133.8100063747829
 20
396.5765686035156
 30
0.0
 11
132.1456807454427
 21
402.4704379611544
 31
0.0
1001
AcDbBlockRepETag
1070
     1
1071
        3
1005
34A8
  0
LINE
  5
34A9
330
23FC
100
AcDbEntity
  8
LAYER_1
 62
     7
100
AcDbLine
 10
132.1456807454427
 20
402.4704379611544
 30
0.0
 11
129.2306131998698
 21
407.523015001085
 31
0.0
1001
AcDbBlockRepETag
1070
     1
1071
        4
1005
34A9
  0
LINE
  5
34AA
330
23FC
100
AcDbEntity
  8
LAYER_1
 62
     7
100
AcDbLine
 10
129.2306131998698
 20
407.523015001085
 30
0.0
 11
124.6531148274739
 21
411.3112419976127
 31
0.0
1001
AcDbBlockRepETag
1070
     1
1071
        5
1005
34AA
  0
LINE
  5
34AB
330
23FC
100
AcDbEntity
  8
LAYER_1
 62
     7
100
AcDbLine
 10
111.751921251085
 20
369.6331658257378
 30
0.0
 11
116.7459316677517
 21
369.6331658257378
 31
0.0
1001
AcDbBlockRepETag
1070
     1
1071
        6
1005
34AB
  0
LINE
  5
34AC
330
23FC
100
AcDbEntity
  8
LAYER_1
 62
     7
100
AcDbLine
 10
116.7459316677517
 20
369.6331658257378
 30
0.0
 11
121.3237745496961
 21
370.4751471625434
 31
0.0
1001
AcDbBlockRepETag
1070
     1
1071
        7
1005
34AC
  0
LINE
  5
34AD
330
23FC
100
AcDbEntity
  8
LAYER_1
 62
     7
100
AcDbLine
 10
121.3237745496961
 20
370.4751471625434
 30
0.0
 11
125.901272922092
 21
373.0010911729601
 31
0.0
1001
AcDbBlockRepETag
1070
     1
1071
        8
1005
34AD
  0
LINE
  5
34AE
330
23FC
100
AcDbEntity
  8
LAYER_1
 62
     7
100
AcDbLine
 10
125.901272922092
 20
373.0010911729601
 30
0.0
 11
129.6474697536892
 21
376.368844265408
 31
0.0
1001
AcDbBlockRepETag
1070
     1
1071
        9
1005
34AE
  0
LINE
  5
34AF
330
23FC
100
AcDbEntity
  8
LAYER_1
 62
     7
100
AcDbLine
 10
129.6474697536892
 20
376.368844265408
 30
0.0
 11
132.1456807454427
 21
381.0000861273871
 31
0.0
1001
AcDbBlockRepETag
1070
     1
1071
       10
1005
34AF
  0
LINE
  5
34B0
330
23FC
100
AcDbEntity
  8
LAYER_1
 62
     7
100
AcDbLine
 10
132.1456807454427
 20
381.0000861273871
 30
0.0
 11
133.8100063747829
 21
385.631155734592
 31
0.0
1001
AcDbBlockRepETag
1070
     1
1071
       11
1005
34B0
  0
LINE
  5
34B1
330
23FC
100
AcDbEntity
  8
LAYER_1
 62
     7
100
AcDbLine
 10
133.8100063747829
 20
385.631155734592
 30
0.0
 11
133.8100063747829
 21
390.6830437554253
 31
0.0
1001
AcDbBlockRepETag
1070
     1
1071
       12
1005
34B1
  0
LINE
  5
34B2
330
23FC
100
AcDbEntity
  8
LAYER_1
 62
     7
100
AcDbLine
 10
83.44942830403644
 20
377.6323330349392
 30
0.0
 11
92.18963555230034
 21
373.4217373318142
 31
0.0
1001
AcDbBlockRepETag
1070
     1
1071
       13
1005
34B2
  0
LINE
  5
34B3
330
23FC
100
AcDbEntity
  8
LAYER_1
 62
     7
100
AcDbLine
 10
92.18963555230034
 20
373.4217373318142
 30
0.0
 11
101.7614888509114
 21
370.8957933213976
 31
0.0
1001
AcDbBlockRepETag
1070
     1
1071
       14
1005
34B3
  0
LINE
  5
34B4
330
23FC
100
AcDbEntity
  8
LAYER_1
 62
     7
100
AcDbLine
 10
101.7614888509114
 20
370.8957933213976
 30
0.0
 11
111.751921251085
 21
369.6331658257378
 31
0.0
1001
AcDbBlockRepETag
1070
     1
1071
       15
1005
34B4
  0
LINE
  5
34B5
330
23FC
100
AcDbEntity
  8
LAYER_1
 62
     7
100
AcDbLine
 10
83.44942830403644
 20
377.6323330349392
 30
0.0
 11
74.70887654622394
 21
379.7367696126301
 31
0.0
1001
AcDbBlockRepETag
1070
     1
1071
       16
1005
34B5
  0
LINE
  5
34B6
330
23FC
100
AcDbEntity
  8
LAYER_1
 62
     7
100
AcDbLine
 10
74.70887654622394
 20
379.7367696126301
 30
0.0
 11
65.55215725368923
 21
380.5787509494357
 31
0.0
1001
AcDbBlockRepETag
1070
     1
1071
       17
1005
34B6
  0
LINE
  5
34B7
330
23FC
100
AcDbEntity
  8
LAYER_1
 62
     7
100
AcDbLine
 10
65.55215725368923
 20
380.5787509494357
 30
0.0
 11
56.81160549587673
 21
379.3162957085503
 31
0.0
1001
AcDbBlockRepETag
1070
     1
1071
       18
1005
34B7
  0
LINE
  5
34B8
330
23FC
100
AcDbEntity
  8
LAYER_1
 62
     7
100
AcDbLine
 10
56.81160549587673
 20
379.3162957085503
 30
0.0
 11
48.07139824761284
 21
376.7903516981336
 31
0.0
1001
AcDbBlockRepETag
1070
     1
1071
       19
1005
34B8
  0
LINE
  5
34B9
330
23FC
100
AcDbEntity
  8
LAYER_1
 62
     7
100
AcDbLine
 10
29.75899319118923
 20
380.1581047905815
 30
0.0
 11
38.49954494900173
 21
377.6323330349392
 31
0.0
1001
AcDbBlockRepETag
1070
     1
1071
       20
1005
34B9
  0
LINE
  5
34BA
330
23FC
100
AcDbEntity
  8
LAYER_1
 62
     7
100
AcDbLine
 10
38.49954494900173
 20
377.6323330349392
 30
0.0
 11
48.07139824761284
 21
376.7903516981336
 31
0.0
1001
AcDbBlockRepETag
1070
     1
1071
       21
1005
34BA
  0
LINE
  5
34BB
330
23FC
100
AcDbEntity
  8
LAYER_1
 62
     7
100
AcDbLine
 10
29.75899319118923
 20
380.1581047905815
 30
0.0
 11
29.85487148659308
 21
370.1911301012394
 31
0.0
1001
AcDbBlockRepETag
1070
     1
1071
       22
1005
34BB
  0
LINE
  5
3616
330
23FC
100
AcDbEntity
  8
LAYER_1
 62
     7
100
AcDbLine
 10
406.0073452419704
 20
454.2526346842447
 30
0.0
 11
402.6780049641926
 21
450.8848815917968
 31
0.0
1001
AcDbBlockRepETag
1070
     1
1071
       23
1005
3616
  0
LINE
  5
3617
330
23FC
100
AcDbEntity
  8
LAYER_1
 62
     7
100
AcDbLine
 10
402.6780049641926
 20
450.8848815917968
 30
0.0
 11
400.1803107367621
 21
446.6751471625433
 31
0.0
1001
AcDbBlockRepETag
1070
     1
1071
       24
1005
3617
  0
LINE
  5
3618
330
23FC
100
AcDbEntity
  8
LAYER_1
 62
     7
100
AcDbLine
 10
400.1803107367621
 20
446.6751471625433
 30
0.0
 11
398.9318081325955
 21
442.0439053005641
 31
0.0
1001
AcDbBlockRepETag
1070
     1
1071
       25
1005
3618
  0
LINE
  5
3619
330
23FC
100
AcDbEntity
  8
LAYER_1
 62
     7
100
AcDbLine
 10
390.608457438151
 20
442.4654127332899
 30
0.0
 11
394.7694437662761
 21
441.6234313964842
 31
0.0
1001
AcDbBlockRepETag
1070
     1
1071
       26
1005
3619
  0
LINE
  5
361A
330
23FC
100
AcDbEntity
  8
LAYER_1
 62
     7
100
AcDbLine
 10
394.7694437662761
 20
441.6234313964842
 30
0.0
 11
398.9318081325955
 21
442.0439053005641
 31
0.0
1001
AcDbBlockRepETag
1070
     1
1071
       27
1005
361A
  0
LINE
  5
361B
330
23FC
100
AcDbEntity
  8
LAYER_1
 62
     7
100
AcDbLine
 10
390.608457438151
 20
442.4654127332899
 30
0.0
 11
388.5269307454426
 21
435.7287007649738
 31
0.0
1001
AcDbBlockRepETag
1070
     1
1071
       28
1005
361B
  0
LINE
  5
361C
330
23FC
100
AcDbEntity
  8
LAYER_1
 62
     7
100
AcDbLine
 10
388.5269307454426
 20
435.7287007649738
 30
0.0
 11
388.5269307454426
 21
428.993194580078
 31
0.0
1001
AcDbBlockRepETag
1070
     1
1071
       29
1005
361C
  0
LINE
  5
361D
330
23FC
100
AcDbEntity
  8
LAYER_1
 62
     7
100
AcDbLine
 10
388.5269307454426
 20
428.993194580078
 30
0.0
 11
389.7747443305121
 21
421.8361809624566
 31
0.0
1001
AcDbBlockRepETag
1070
     1
1071
       30
1005
361D
  0
LINE
  5
361E
330
23FC
100
AcDbEntity
  8
LAYER_1
 62
     7
100
AcDbLine
 10
389.7747443305121
 20
421.8361809624566
 30
0.0
 11
387.693906656901
 21
423.941478814019
 31
0.0
1001
AcDbBlockRepETag
1070
     1
1071
       31
1005
361E
  0
LINE
  5
361F
330
23FC
100
AcDbEntity
  8
LAYER_1
 62
     7
100
AcDbLine
 10
387.693906656901
 20
423.941478814019
 30
0.0
 11
385.1975904676649
 21
423.5201436360676
 31
0.0
1001
AcDbBlockRepETag
1070
     1
1071
       32
1005
361F
  0
LINE
  5
3620
330
23FC
100
AcDbEntity
  8
LAYER_1
 62
     7
100
AcDbLine
 10
385.1975904676649
 20
423.5201436360676
 30
0.0
 11
383.9490878634982
 21
421.4157070583767
 31
0.0
1001
AcDbBlockRepETag
1070
     1
1071
       33
1005
3620
  0
LINE
  5
3621
330
23FC
100
AcDbEntity
  8
LAYER_1
 62
     7
100
AcDbLine
 10
383.9490878634982
 20
421.4157070583767
 30
0.0
 11
385.6137580023871
 21
415.9424838595919
 31
0.0
1001
AcDbBlockRepETag
1070
     1
1071
       34
1005
3621
  0
LINE
  5
3622
330
23FC
100
AcDbEntity
  8
LAYER_1
 62
     7
100
AcDbLine
 10
385.6137580023871
 20
415.9424838595919
 30
0.0
 11
388.5269307454426
 21
410.8905958387586
 31
0.0
1001
AcDbBlockRepETag
1070
     1
1071
       35
1005
3622
  0
SPLINE
  5
3623
330
23FC
100
AcDbEntity
  8
LAYER_1
 62
     7
100
AcDbSpline
210
0.0
220
0.0
230
1.0
 70
     8
 71
     3
 72
    23
 73
    19
 74
     0
 42
0.0000000001
 43
0.0000000001
 40
0.0
 40
0.0
 40
0.0
 40
0.0
 40
1.0
 40
1.0
 40
1.0
 40
2.0
 40
2.0
 40
2.0
 40
3.0
 40
3.0
 40
3.0
 40
4.0
 40
4.0
 40
4.0
 40
5.0
 40
5.0
 40
5.0
 40
6.0
 40
6.0
 40
6.0
 40
6.0
 10
403.5093065049912
 20
389.4195549858941
 30
0.0
 10
403.5093065049912
 20
389.4195549858941
 30
0.0
 10
400.0356167263454
 20
393.7486619737413
 30
0.0
 10
397.683994547526
 20
396.1559224446614
 30
0.0
 10
392.8629279242621
 20
388.3329718695746
 30
0.0
 10
376.835654703776
 20
388.603756374783
 30
0.0
 10
364.803658718533
 20
393.6294616699218
 30
0.0
 10
358.0571282280816
 20
396.4475497775607
 30
0.0
 10
355.8212612575955
 20
401.3857496473524
 30
0.0
 10
347.9423278808594
 20
401.3857496473524
 30
0.0
 10
330.3034389919704
 20
401.3857496473524
 30
0.0
 10
331.5974168565538
 20
387.9800218370225
 30
0.0
 10
331.5974168565538
 20
383.6292107476128
 30
0.0
 10
331.5974168565538
 20
379.2783996582031
 30
0.0
 10
336.1835279676649
 20
369.5180996365017
 30
0.0
 10
347.5895501030816
 20
369.5180996365017
 30
0.0
 10
362.4062167697482
 20
369.5180996365017
 30
0.0
 10
365.5553785536024
 20
393.3087232801649
 30
0.0
 10
365.5553785536024
 20
393.3087232801649
 30
0.0
1001
AcDbBlockRepETag
1070
     1
1071
       36
1005
3623
  0
LINE
  5
3624
330
23FC
100
AcDbEntity
  8
LAYER_1
 62
     7
100
AcDbLine
 10
403.5093065049912
 20
389.4195549858941
 30
0.0
 11
410.1683315700954
 21
383.5258578830295
 31
0.0
1001
AcDbBlockRepETag
1070
     1
1071
       37
1005
3624
  0
LINE
  5
3625
330
23FC
100
AcDbEntity
  8
LAYER_1
 62
     7
100
AcDbLine
 10
410.1683315700954
 20
383.5258578830295
 30
0.0
 11
411.4182122124566
 21
381.420560031467
 31
0.0
1001
AcDbBlockRepETag
1070
     1
1071
       38
1005
3625
  0
LINE
  5
3626
330
23FC
100
AcDbEntity
  8
LAYER_1
 62
     7
100
AcDbLine
 10
411.4182122124566
 20
381.420560031467
 30
0.0
 11
413.4997389051648
 21
380.5787509494357
 31
0.0
1001
AcDbBlockRepETag
1070
     1
1071
       39
1005
3626
  0
LINE
  5
3627
330
23FC
100
AcDbEntity
  8
LAYER_1
 62
     7
100
AcDbLine
 10
413.4997389051648
 20
380.5787509494357
 30
0.0
 11
415.5791985405815
 21
380.5787509494357
 31
0.0
1001
AcDbBlockRepETag
1070
     1
1071
       40
1005
3627
  0
LINE
  5
3628
330
23FC
100
AcDbEntity
  8
LAYER_1
 62
     7
100
AcDbLine
 10
415.5791985405815
 20
380.5787509494357
 30
0.0
 11
417.6607252332899
 21
381.8418952094184
 31
0.0
1001
AcDbBlockRepETag
1070
     1
1071
       41
1005
3628
  0
LINE
  5
3629
330
23FC
100
AcDbEntity
  8
LAYER_1
 62
     7
100
AcDbLine
 10
417.6607252332899
 20
381.8418952094184
 30
0.0
 11
418.4937493218315
 21
383.9465040418837
 31
0.0
1001
AcDbBlockRepETag
1070
     1
1071
       42
1005
3629
  0
LINE
  5
362A
330
23FC
100
AcDbEntity
  8
LAYER_1
 62
     7
100
AcDbLine
 10
418.4937493218315
 20
383.9465040418837
 30
0.0
 11
422.2385681152343
 21
381.8418952094184
 31
0.0
1001
AcDbBlockRepETag
1070
     1
1071
       43
1005
362A
  0
LINE
  5
362B
330
23FC
100
AcDbEntity
  8
LAYER_1
 62
     7
100
AcDbLine
 10
422.2385681152343
 20
381.8418952094184
 30
0.0
 11
426.8177890353732
 21
381.0000861273871
 31
0.0
1001
AcDbBlockRepETag
1070
     1
1071
       44
1005
362B
  0
LINE
  5
362C
330
23FC
100
AcDbEntity
  8
LAYER_1
 62
     7
100
AcDbLine
 10
426.8177890353732
 20
381.0000861273871
 30
0.0
 11
430.9784308539495
 21
381.420560031467
 31
0.0
1001
AcDbBlockRepETag
1070
     1
1071
       45
1005
362C
  0
LINE
  5
362D
330
23FC
100
AcDbEntity
  8
LAYER_1
 62
     7
100
AcDbLine
 10
430.9784308539495
 20
381.420560031467
 30
0.0
 11
435.1411397298177
 21
383.5258578830295
 31
0.0
1001
AcDbBlockRepETag
1070
     1
1071
       46
1005
362D
  0
LINE
  5
362E
330
23FC
100
AcDbEntity
  8
LAYER_1
 62
     7
100
AcDbLine
 10
435.1411397298177
 20
383.5258578830295
 30
0.0
 11
445.5467061360677
 21
386.0518018934462
 31
0.0
1001
AcDbBlockRepETag
1070
     1
1071
       47
1005
362E
  0
LINE
  5
362F
330
23FC
100
AcDbEntity
  8
LAYER_1
 62
     7
100
AcDbLine
 10
445.5467061360677
 20
386.0518018934462
 30
0.0
 11
455.5347269694009
 21
390.6830437554253
 31
0.0
1001
AcDbBlockRepETag
1070
     1
1071
       48
1005
362F
  0
LINE
  5
3630
330
23FC
100
AcDbEntity
  8
LAYER_1
 62
     7
100
AcDbLine
 10
455.5347269694009
 20
390.6830437554253
 30
0.0
 11
453.8700568305121
 21
395.3141133626301
 31
0.0
1001
AcDbBlockRepETag
1070
     1
1071
       49
1005
3630
  0
LINE
  5
3631
330
23FC
100
AcDbEntity
  8
LAYER_1
 62
     7
100
AcDbLine
 10
453.8700568305121
 20
395.3141133626301
 30
0.0
 11
451.373740641276
 21
399.524020046658
 31
0.0
1001
AcDbBlockRepETag
1070
     1
1071
       50
1005
3631
  0
LINE
  5
3632
330
23FC
100
AcDbEntity
  8
LAYER_1
 62
     7
100
AcDbLine
 10
451.373740641276
 20
399.524020046658
 30
0.0
 11
448.0444003634982
 21
402.4704379611544
 31
0.0
1001
AcDbBlockRepETag
1070
     1
1071
       51
1005
3632
  0
LINE
  5
3633
330
23FC
100
AcDbEntity
  8
LAYER_1
 62
     7
100
AcDbLine
 10
448.0444003634982
 20
402.4704379611544
 30
0.0
 11
443.4651794433593
 21
404.5757358127169
 31
0.0
1001
AcDbBlockRepETag
1070
     1
1071
       52
1005
3633
  0
LINE
  5
3634
330
23FC
100
AcDbEntity
  8
LAYER_1
 62
     7
100
AcDbLine
 10
447.6282328287759
 20
411.3112419976127
 30
0.0
 11
443.4651794433593
 21
404.5757358127169
 31
0.0
1001
AcDbBlockRepETag
1070
     1
1071
       53
1005
3634
  0
LINE
  5
3635
330
23FC
100
AcDbEntity
  8
LAYER_1
 62
     7
100
AcDbLine
 10
447.6282328287759
 20
411.3112419976127
 30
0.0
 11
440.5520067003037
 21
412.1532233344184
 31
0.0
1001
AcDbBlockRepETag
1070
     1
1071
       54
1005
3635
  0
LINE
  5
3636
330
23FC
100
AcDbEntity
  8
LAYER_1
 62
     7
100
AcDbLine
 10
440.5520067003037
 20
412.1532233344184
 30
0.0
 11
433.8933261447482
 21
411.3112419976127
 31
0.0
1001
AcDbBlockRepETag
1070
     1
1071
       55
1005
3636
  0
LINE
  5
3637
330
23FC
100
AcDbEntity
  8
LAYER_1
 62
     7
100
AcDbLine
 10
429.7309617784287
 20
415.9424838595919
 30
0.0
 11
428.0656026204426
 21
414.2585211859808
 31
0.0
1001
AcDbBlockRepETag
1070
     1
1071
       56
1005
3637
  0
LINE
  5
3638
330
23FC
100
AcDbEntity
  8
LAYER_1
 62
     7
100
AcDbLine
 10
428.0656026204426
 20
414.2585211859808
 30
0.0
 11
428.0656026204426
 21
412.1532233344184
 31
0.0
1001
AcDbBlockRepETag
1070
     1
1071
       57
1005
3638
  0
LINE
  5
3639
330
23FC
100
AcDbEntity
  8
LAYER_1
 62
     7
100
AcDbLine
 10
428.0656026204426
 20
412.1532233344184
 30
0.0
 11
429.3141052246093
 21
410.0487867567274
 31
0.0
1001
AcDbBlockRepETag
1070
     1
1071
       58
1005
3639
  0
LINE
  5
363A
330
23FC
100
AcDbEntity
  8
LAYER_1
 62
     7
100
AcDbLine
 10
429.3141052246093
 20
410.0487867567274
 30
0.0
 11
431.8117994520399
 21
410.0487867567274
 31
0.0
1001
AcDbBlockRepETag
1070
     1
1071
       59
1005
363A
  0
LINE
  5
363B
330
23FC
100
AcDbEntity
  8
LAYER_1
 62
     7
100
AcDbLine
 10
431.8117994520399
 20
410.0487867567274
 30
0.0
 11
433.8933261447482
 21
411.3112419976127
 31
0.0
1001
AcDbBlockRepETag
1070
     1
1071
       60
1005
363B
  0
LINE
  5
363C
330
23FC
100
AcDbEntity
  8
LAYER_1
 62
     7
100
AcDbLine
 10
446.7945197211371
 20
420.5737257215711
 30
0.0
 11
438.0543124728732
 21
418.88976304796
 31
0.0
1001
AcDbBlockRepETag
1070
     1
1071
       61
1005
363C
  0
LINE
  5
363D
330
23FC
100
AcDbEntity
  8
LAYER_1
 62
     7
100
AcDbLine
 10
438.0543124728732
 20
418.88976304796
 30
0.0
 11
429.7309617784287
 21
415.9424838595919
 31
0.0
1001
AcDbBlockRepETag
1070
     1
1071
       62
1005
363D
  0
LINE
  5
363E
330
23FC
100
AcDbEntity
  8
LAYER_1
 62
     7
100
AcDbLine
 10
446.7945197211371
 20
420.5737257215711
 30
0.0
 11
448.0444003634982
 21
423.0994974772134
 31
0.0
1001
AcDbBlockRepETag
1070
     1
1071
       63
1005
363E
  0
LINE
  5
363F
330
23FC
100
AcDbEntity
  8
LAYER_1
 62
     7
100
AcDbLine
 10
448.0444003634982
 20
423.0994974772134
 30
0.0
 11
447.2113762749565
 21
426.04591539171
 31
0.0
1001
AcDbBlockRepETag
1070
     1
1071
       64
1005
363F
  0
LINE
  5
3640
330
23FC
100
AcDbEntity
  8
LAYER_1
 62
     7
100
AcDbLine
 10
447.2113762749565
 20
426.04591539171
 30
0.0
 11
444.2985480414496
 21
426.4674228244357
 31
0.0
1001
AcDbBlockRepETag
1070
     1
1071
       65
1005
3640
  0
LINE
  5
3641
330
23FC
100
AcDbEntity
  8
LAYER_1
 62
     7
100
AcDbLine
 10
444.2985480414496
 20
426.4674228244357
 30
0.0
 11
451.373740641276
 21
431.0984924316406
 31
0.0
1001
AcDbBlockRepETag
1070
     1
1071
       66
1005
3641
  0
LINE
  5
3642
330
23FC
100
AcDbEntity
  8
LAYER_1
 62
     7
100
AcDbLine
 10
451.373740641276
 20
431.0984924316406
 30
0.0
 11
457.200086127387
 21
436.5708543565538
 31
0.0
1001
AcDbBlockRepETag
1070
     1
1071
       67
1005
3642
  0
LINE
  5
3643
330
23FC
100
AcDbEntity
  8
LAYER_1
 62
     7
100
AcDbLine
 10
457.200086127387
 20
436.5708543565538
 30
0.0
 11
456.3684400770399
 21
438.6761522081163
 31
0.0
1001
AcDbBlockRepETag
1070
     1
1071
       68
1005
3643
  0
LINE
  5
3644
330
23FC
100
AcDbEntity
  8
LAYER_1
 62
     7
100
AcDbLine
 10
456.3684400770399
 20
438.6761522081163
 30
0.0
 11
454.2869133843315
 21
439.5179612901475
 31
0.0
1001
AcDbBlockRepETag
1070
     1
1071
       69
1005
3644
  0
LINE
  5
3645
330
23FC
100
AcDbEntity
  8
LAYER_1
 62
     7
100
AcDbLine
 10
454.2869133843315
 20
439.5179612901475
 30
0.0
 11
452.2053866916232
 21
439.9392964680989
 31
0.0
1001
AcDbBlockRepETag
1070
     1
1071
       70
1005
3645
  0
LINE
  5
3646
330
23FC
100
AcDbEntity
  8
LAYER_1
 62
     7
100
AcDbLine
 10
452.2053866916232
 20
439.9392964680989
 30
0.0
 11
454.7034254286024
 21
442.8858866373698
 31
0.0
1001
AcDbBlockRepETag
1070
     1
1071
       71
1005
3646
  0
LINE
  5
3647
330
23FC
100
AcDbEntity
  8
LAYER_1
 62
     7
100
AcDbLine
 10
454.7034254286024
 20
442.8858866373698
 30
0.0
 11
455.9515835232204
 21
446.6751471625433
 31
0.0
1001
AcDbBlockRepETag
1070
     1
1071
       72
1005
3647
  0
LINE
  5
3648
330
23FC
100
AcDbEntity
  8
LAYER_1
 62
     7
100
AcDbLine
 10
455.9515835232204
 20
446.6751471625433
 30
0.0
 11
455.9515835232204
 21
450.4644076877169
 31
0.0
1001
AcDbBlockRepETag
1070
     1
1071
       73
1005
3648
  0
LINE
  5
3649
330
23FC
100
AcDbEntity
  8
LAYER_1
 62
     7
100
AcDbLine
 10
455.9515835232204
 20
450.4644076877169
 30
0.0
 11
454.7034254286024
 21
454.2526346842447
 31
0.0
1001
AcDbBlockRepETag
1070
     1
1071
       74
1005
3649
  0
LINE
  5
364A
330
23FC
100
AcDbEntity
  8
LAYER_1
 62
     7
100
AcDbLine
 10
454.7034254286024
 20
454.2526346842447
 30
0.0
 11
445.5467061360677
 21
450.4644076877169
 31
0.0
1001
AcDbBlockRepETag
1070
     1
1071
       75
1005
364A
  0
LINE
  5
364B
330
23FC
100
AcDbEntity
  8
LAYER_1
 62
     7
100
AcDbLine
 10
445.5467061360677
 20
450.4644076877169
 30
0.0
 11
437.6395229763454
 21
444.5698493109809
 31
0.0
1001
AcDbBlockRepETag
1070
     1
1071
       76
1005
364B
  0
LINE
  5
364C
330
23FC
100
AcDbEntity
  8
LAYER_1
 62
     7
100
AcDbLine
 10
437.6395229763454
 20
444.5698493109809
 30
0.0
 11
437.6395229763454
 21
448.7795837402343
 31
0.0
1001
AcDbBlockRepETag
1070
     1
1071
       77
1005
364C
  0
LINE
  5
364D
330
23FC
100
AcDbEntity
  8
LAYER_1
 62
     7
100
AcDbLine
 10
437.6395229763454
 20
448.7795837402343
 30
0.0
 11
435.5579962836371
 21
452.9901794433593
 31
0.0
1001
AcDbBlockRepETag
1070
     1
1071
       78
1005
364D
  0
LINE
  5
364E
330
23FC
100
AcDbEntity
  8
LAYER_1
 62
     7
100
AcDbLine
 10
435.5579962836371
 20
452.9901794433593
 30
0.0
 11
431.3956319173176
 21
447.9384636773003
 31
0.0
1001
AcDbBlockRepETag
1070
     1
1071
       79
1005
364E
  0
LINE
  5
364F
330
23FC
100
AcDbEntity
  8
LAYER_1
 62
     7
100
AcDbLine
 10
431.3956319173176
 20
447.9384636773003
 30
0.0
 11
428.482459174262
 21
442.0439053005641
 31
0.0
1001
AcDbBlockRepETag
1070
     1
1071
       80
1005
364F
  0
LINE
  5
3650
330
23FC
100
AcDbEntity
  8
LAYER_1
 62
     7
100
AcDbLine
 10
428.482459174262
 20
442.0439053005641
 30
0.0
 11
422.6547356499565
 21
445.8331658257377
 31
0.0
1001
AcDbBlockRepETag
1070
     1
1071
       81
1005
3650
  0
LINE
  5
3651
330
23FC
100
AcDbEntity
  8
LAYER_1
 62
     7
100
AcDbLine
 10
422.6547356499565
 20
445.8331658257377
 30
0.0
 11
420.1584194607204
 21
439.0973151312933
 31
0.0
1001
AcDbBlockRepETag
1070
     1
1071
       82
1005
3651
  0
LINE
  5
3652
330
23FC
100
AcDbEntity
  8
LAYER_1
 62
     7
100
AcDbLine
 10
420.1584194607204
 20
439.0973151312933
 30
0.0
 11
419.3253953721788
 21
432.3611199273003
 31
0.0
1001
AcDbBlockRepETag
1070
     1
1071
       83
1005
3652
  0
LINE
  5
3653
330
23FC
100
AcDbEntity
  8
LAYER_1
 62
     7
100
AcDbLine
 10
419.3253953721788
 20
432.3611199273003
 30
0.0
 11
419.3253953721788
 21
425.2039340549044
 31
0.0
1001
AcDbBlockRepETag
1070
     1
1071
       84
1005
3653
  0
LINE
  5
3654
330
23FC
100
AcDbEntity
  8
LAYER_1
 62
     7
100
AcDbLine
 10
414.7475524902343
 20
423.941478814019
 30
0.0
 11
415.1647535536024
 21
421.8361809624566
 31
0.0
1001
AcDbBlockRepETag
1070
     1
1071
       85
1005
3654
  0
LINE
  5
3655
330
23FC
100
AcDbEntity
  8
LAYER_1
 62
     7
100
AcDbLine
 10
415.1647535536024
 20
421.8361809624566
 30
0.0
 11
416.8290791829426
 21
420.9940273708767
 31
0.0
1001
AcDbBlockRepETag
1070
     1
1071
       86
1005
3655
  0
LINE
  5
3656
330
23FC
100
AcDbEntity
  8
LAYER_1
 62
     7
100
AcDbLine
 10
416.8290791829426
 20
420.9940273708767
 30
0.0
 11
418.9092278374565
 21
421.4157070583767
 31
0.0
1001
AcDbBlockRepETag
1070
     1
1071
       87
1005
3656
  0
LINE
  5
3657
330
23FC
100
AcDbEntity
  8
LAYER_1
 62
     7
100
AcDbLine
 10
418.9092278374565
 20
421.4157070583767
 30
0.0
 11
419.7422519259982
 21
423.0994974772134
 31
0.0
1001
AcDbBlockRepETag
1070
     1
1071
       88
1005
3657
  0
LINE
  5
3658
330
23FC
100
AcDbEntity
  8
LAYER_1
 62
     7
100
AcDbLine
 10
419.7422519259982
 20
423.0994974772134
 30
0.0
 11
419.3253953721788
 21
425.2039340549044
 31
0.0
1001
AcDbBlockRepETag
1070
     1
1071
       89
1005
3658
  0
LINE
  5
3659
330
23FC
100
AcDbEntity
  8
LAYER_1
 62
     7
100
AcDbLine
 10
415.996055094401
 20
443.3072218153212
 30
0.0
 11
414.7475524902343
 21
433.6244364420572
 31
0.0
1001
AcDbBlockRepETag
1070
     1
1071
       90
1005
3659
  0
LINE
  5
365A
330
23FC
100
AcDbEntity
  8
LAYER_1
 62
     7
100
AcDbLine
 10
414.7475524902343
 20
433.6244364420572
 30
0.0
 11
414.7475524902343
 21
423.941478814019
 31
0.0
1001
AcDbBlockRepETag
1070
     1
1071
       91
1005
365A
  0
LINE
  5
365B
330
23FC
100
AcDbEntity
  8
LAYER_1
 62
     7
100
AcDbLine
 10
415.996055094401
 20
443.3072218153212
 30
0.0
 11
413.4997389051648
 21
441.6234313964842
 31
0.0
1001
AcDbBlockRepETag
1070
     1
1071
       92
1005
365B
  0
LINE
  5
365C
330
23FC
100
AcDbEntity
  8
LAYER_1
 62
     7
100
AcDbLine
 10
413.4997389051648
 20
441.6234313964842
 30
0.0
 11
412.2498582628038
 21
439.0973151312933
 31
0.0
1001
AcDbBlockRepETag
1070
     1
1071
       93
1005
365C
  0
LINE
  5
365D
330
23FC
100
AcDbEntity
  8
LAYER_1
 62
     7
100
AcDbLine
 10
412.2498582628038
 20
439.0973151312933
 30
0.0
 11
411.0020446777343
 21
444.9911844889323
 31
0.0
1001
AcDbBlockRepETag
1070
     1
1071
       94
1005
365D
  0
LINE
  5
365E
330
23FC
100
AcDbEntity
  8
LAYER_1
 62
     7
100
AcDbLine
 10
411.0020446777343
 20
444.9911844889323
 30
0.0
 11
408.9205179850259
 21
450.4644076877169
 31
0.0
1001
AcDbBlockRepETag
1070
     1
1071
       95
1005
365E
  0
LINE
  5
365F
330
23FC
100
AcDbEntity
  8
LAYER_1
 62
     7
100
AcDbLine
 10
408.9205179850259
 20
450.4644076877169
 30
0.0
 11
405.5908331976996
 21
455.0946160210503
 31
0.0
1001
AcDbBlockRepETag
1070
     1
1071
       96
1005
365F
  0
LINE
  5
3660
330
23FC
100
AcDbEntity
  8
LAYER_1
 62
     7
100
AcDbLine
 10
235.3631530761719
 20
400.7864752875433
 30
0.0
 11
228.2872714572482
 21
386.0518018934462
 31
0.0
1001
AcDbBlockRepETag
1070
     1
1071
       97
1005
3660
  0
LINE
  5
3661
330
23FC
100
AcDbEntity
  8
LAYER_1
 62
     7
100
AcDbLine
 10
228.2872714572482
 20
386.0518018934462
 30
0.0
 11
222.8764044867622
 21
370.8957933213976
 31
0.0
1001
AcDbBlockRepETag
1070
     1
1071
       98
1005
3661
  0
LINE
  5
3662
330
23FC
100
AcDbEntity
  8
LAYER_1
 62
     7
100
AcDbLine
 10
222.8764044867622
 20
370.8957933213976
 30
0.0
 11
218.2992506239149
 21
354.8986646864149
 31
0.0
1001
AcDbBlockRepETag
1070
     1
1071
       99
1005
3662
  0
LINE
  5
3663
330
23FC
100
AcDbEntity
  8
LAYER_1
 62
     7
100
AcDbLine
 10
218.2992506239149
 20
354.8986646864149
 30
0.0
 11
216.217379421658
 21
363.7396409776475
 31
0.0
1001
AcDbBlockRepETag
1070
     1
1071
      100
1005
3663
  0
LINE
  5
3664
330
23FC
100
AcDbEntity
  8
LAYER_1
 62
     7
100
AcDbLine
 10
216.217379421658
 20
363.7396409776475
 30
0.0
 11
212.0563930935329
 21
371.3171284993489
 31
0.0
1001
AcDbBlockRepETag
1070
     1
1071
      101
1005
3664
  0
LINE
  5
3665
330
23FC
100
AcDbEntity
  8
LAYER_1
 62
     7
100
AcDbLine
 10
212.0563930935329
 20
371.3171284993489
 30
0.0
 11
206.6455261230469
 21
378.4741421169704
 31
0.0
1001
AcDbBlockRepETag
1070
     1
1071
      102
1005
3665
  0
LINE
  5
3666
330
23FC
100
AcDbEntity
  8
LAYER_1
 62
     7
100
AcDbLine
 10
206.6455261230469
 20
378.4741421169704
 30
0.0
 11
199.9868455674913
 21
384.367839219835
 31
0.0
1001
AcDbBlockRepETag
1070
     1
1071
      103
1005
3666
  0
LINE
  5
3667
330
23FC
100
AcDbEntity
  8
LAYER_1
 62
     7
100
AcDbLine
 10
199.9868455674913
 20
384.367839219835
 30
0.0
 11
192.4944519042968
 21
388.1570997450086
 31
0.0
1001
AcDbBlockRepETag
1070
     1
1071
      104
1005
3667
  0
LINE
  5
3668
330
23FC
100
AcDbEntity
  8
LAYER_1
 62
     7
100
AcDbLine
 10
192.4944519042968
 20
388.1570997450086
 30
0.0
 11
184.1707567003038
 21
390.6830437554253
 31
0.0
1001
AcDbBlockRepETag
1070
     1
1071
      105
1005
3668
  0
LINE
  5
3669
330
23FC
100
AcDbEntity
  8
LAYER_1
 62
     7
100
AcDbLine
 10
184.1707567003038
 20
390.6830437554253
 30
0.0
 11
176.2621955023871
 21
389.4195549858941
 31
0.0
1001
AcDbBlockRepETag
1070
     1
1071
      106
1005
3669
  0
LINE
  5
366A
330
23FC
100
AcDbEntity
  8
LAYER_1
 62
     7
100
AcDbLine
 10
176.2621955023871
 20
389.4195549858941
 30
0.0
 11
168.7715243869357
 21
386.8937832302517
 31
0.0
1001
AcDbBlockRepETag
1070
     1
1071
      107
1005
366A
  0
LINE
  5
366B
330
23FC
100
AcDbEntity
  8
LAYER_1
 62
     7
100
AcDbLine
 10
168.7715243869357
 20
386.8937832302517
 30
0.0
 11
162.1111212836371
 21
383.1045227050781
 31
0.0
1001
AcDbBlockRepETag
1070
     1
1071
      108
1005
366B
  0
LINE
  5
366C
330
23FC
100
AcDbEntity
  8
LAYER_1
 62
     7
100
AcDbLine
 10
162.1111212836371
 20
383.1045227050781
 30
0.0
 11
155.8686082628038
 21
378.4741421169704
 31
0.0
1001
AcDbBlockRepETag
1070
     1
1071
      109
1005
366C
  0
LINE
  5
366D
330
23FC
100
AcDbEntity
  8
LAYER_1
 62
     7
100
AcDbLine
 10
155.8686082628038
 20
378.4741421169704
 30
0.0
 11
150.4577412923177
 21
372.5795837402344
 31
0.0
1001
AcDbBlockRepETag
1070
     1
1071
      110
1005
366D
  0
LINE
  5
366E
330
23FC
100
AcDbEntity
  8
LAYER_1
 62
     7
100
AcDbLine
 10
150.4577412923177
 20
372.5795837402344
 30
0.0
 11
146.2967549641927
 21
365.8440775553385
 31
0.0
1001
AcDbBlockRepETag
1070
     1
1071
      111
1005
366E
  0
LINE
  5
366F
330
23FC
100
AcDbEntity
  8
LAYER_1
 62
     7
100
AcDbLine
 10
146.2967549641927
 20
365.8440775553385
 30
0.0
 11
143.381859673394
 21
358.687063937717
 31
0.0
1001
AcDbBlockRepETag
1070
     1
1071
      112
1005
366F
  0
LINE
  5
3670
330
23FC
100
AcDbEntity
  8
LAYER_1
 62
     7
100
AcDbLine
 10
143.381859673394
 20
358.687063937717
 30
0.0
 11
141.3006774902343
 21
351.1094041612413
 31
0.0
1001
AcDbBlockRepETag
1070
     1
1071
      113
1005
3670
  0
LINE
  5
3671
330
23FC
100
AcDbEntity
  8
LAYER_1
 62
     7
100
AcDbLine
 10
269.4930250379774
 20
357.4244364420573
 30
0.0
 11
262.0009758843316
 21
357.4244364420573
 31
0.0
1001
AcDbBlockRepETag
1070
     1
1071
      114
1005
3671
  0
LINE
  5
3672
330
23FC
100
AcDbEntity
  8
LAYER_1
 62
     7
100
AcDbLine
 10
262.0009758843316
 20
357.4244364420573
 30
0.0
 11
264.9134596082899
 21
363.7396409776475
 31
0.0
1001
AcDbBlockRepETag
1070
     1
1071
      115
1005
3672
  0
LINE
  5
3673
330
23FC
100
AcDbEntity
  8
LAYER_1
 62
     7
100
AcDbLine
 10
264.9134596082899
 20
363.7396409776475
 30
0.0
 11
265.7471727159288
 21
367.1072218153212
 31
0.0
1001
AcDbBlockRepETag
1070
     1
1071
      116
1005
3673
  0
LINE
  5
3674
330
23FC
100
AcDbEntity
  8
LAYER_1
 62
     7
100
AcDbLine
 10
265.7471727159288
 20
367.1072218153212
 30
0.0
 11
264.9134596082899
 21
370.8957933213976
 31
0.0
1001
AcDbBlockRepETag
1070
     1
1071
      117
1005
3674
  0
LINE
  5
3675
330
23FC
100
AcDbEntity
  8
LAYER_1
 62
     7
100
AcDbLine
 10
264.9134596082899
 20
370.8957933213976
 30
0.0
 11
262.4171434190538
 21
373.4217373318142
 31
0.0
1001
AcDbBlockRepETag
1070
     1
1071
      118
1005
3675
  0
LINE
  5
3676
330
23FC
100
AcDbEntity
  8
LAYER_1
 62
     7
100
AcDbLine
 10
262.4171434190538
 20
373.4217373318142
 30
0.0
 11
259.087803141276
 21
374.264407687717
 31
0.0
1001
AcDbBlockRepETag
1070
     1
1071
      119
1005
3676
  0
LINE
  5
3677
330
23FC
100
AcDbEntity
  8
LAYER_1
 62
     7
100
AcDbLine
 10
259.087803141276
 20
374.264407687717
 30
0.0
 11
255.7570848253038
 21
373.4217373318142
 31
0.0
1001
AcDbBlockRepETag
1070
     1
1071
      120
1005
3677
  0
LINE
  5
3678
330
23FC
100
AcDbEntity
  8
LAYER_1
 62
     7
100
AcDbLine
 10
255.7570848253038
 20
373.4217373318142
 30
0.0
 11
249.9307393391927
 21
367.949375406901
 31
0.0
1001
AcDbBlockRepETag
1070
     1
1071
      121
1005
3678
  0
LINE
  5
3679
330
23FC
100
AcDbEntity
  8
LAYER_1
 62
     7
100
AcDbLine
 10
249.9307393391927
 20
367.949375406901
 30
0.0
 11
244.936728922526
 21
361.6341708713108
 31
0.0
1001
AcDbBlockRepETag
1070
     1
1071
      122
1005
3679
  0
LINE
  5
367A
330
23FC
100
AcDbEntity
  8
LAYER_1
 62
     7
100
AcDbLine
 10
244.936728922526
 20
361.6341708713108
 30
0.0
 11
244.5198723687066
 21
363.7396409776475
 31
0.0
1001
AcDbBlockRepETag
1070
     1
1071
      123
1005
367A
  0
LINE
  5
367B
330
23FC
100
AcDbEntity
  8
LAYER_1
 62
     7
100
AcDbLine
 10
244.5198723687066
 20
363.7396409776475
 30
0.0
 11
242.8552022298177
 21
365.0020962185329
 31
0.0
1001
AcDbBlockRepETag
1070
     1
1071
      124
1005
367B
  0
LINE
  5
367C
330
23FC
100
AcDbEntity
  8
LAYER_1
 62
     7
100
AcDbLine
 10
242.8552022298177
 20
365.0020962185329
 30
0.0
 11
240.7743645562065
 21
365.4234313964843
 31
0.0
1001
AcDbBlockRepETag
1070
     1
1071
      125
1005
367C
  0
LINE
  5
367D
330
23FC
100
AcDbEntity
  8
LAYER_1
 62
     7
100
AcDbLine
 10
240.7743645562065
 20
365.4234313964843
 30
0.0
 11
238.6924933539496
 21
365.0020962185329
 31
0.0
1001
AcDbBlockRepETag
1070
     1
1071
      126
1005
367D
  0
LINE
  5
367E
330
23FC
100
AcDbEntity
  8
LAYER_1
 62
     7
100
AcDbLine
 10
238.6924933539496
 20
365.0020962185329
 30
0.0
 11
237.0278232150607
 21
363.7396409776475
 31
0.0
1001
AcDbBlockRepETag
1070
     1
1071
      127
1005
367E
  0
LINE
  5
367F
330
23FC
100
AcDbEntity
  8
LAYER_1
 62
     7
100
AcDbLine
 10
237.0278232150607
 20
363.7396409776475
 30
0.0
 11
236.6126892089844
 21
361.6341708713108
 31
0.0
1001
AcDbBlockRepETag
1070
     1
1071
      128
1005
367F
  0
LINE
  5
3680
330
23FC
100
AcDbEntity
  8
LAYER_1
 62
     7
100
AcDbLine
 10
233.6981384277343
 20
344.7943718804253
 30
0.0
 11
236.1961771647135
 21
353.2145297580295
 31
0.0
1001
AcDbBlockRepETag
1070
     1
1071
      129
1005
3680
  0
LINE
  5
3681
330
23FC
100
AcDbEntity
  8
LAYER_1
 62
     7
100
AcDbLine
 10
236.1961771647135
 20
353.2145297580295
 30
0.0
 11
236.6126892089844
 21
361.6341708713108
 31
0.0
1001
AcDbBlockRepETag
1070
     1
1071
      130
1005
3681
  0
LINE
  5
3682
330
23FC
100
AcDbEntity
  8
LAYER_1
 62
     7
100
AcDbLine
 10
227.4559699164496
 20
349.0039340549045
 30
0.0
 11
233.6981384277343
 21
344.7943718804253
 31
0.0
1001
AcDbBlockRepETag
1070
     1
1071
      131
1005
3682
  0
LINE
  5
3683
330
23FC
100
AcDbEntity
  8
LAYER_1
 62
     7
100
AcDbLine
 10
227.4559699164496
 20
349.0039340549045
 30
0.0
 11
229.9522861056857
 21
329.6381910536024
 31
0.0
1001
AcDbBlockRepETag
1070
     1
1071
      132
1005
3683
  0
LINE
  5
3684
330
23FC
100
AcDbEntity
  8
LAYER_1
 62
     7
100
AcDbLine
 10
229.9522861056857
 20
329.6381910536024
 30
0.0
 11
224.5417636447482
 21
326.6917731391059
 31
0.0
1001
AcDbBlockRepETag
1070
     1
1071
      133
1005
3684
  0
LINE
  5
3685
330
23FC
100
AcDbEntity
  8
LAYER_1
 62
     7
100
AcDbLine
 10
224.5417636447482
 20
326.6917731391059
 30
0.0
 11
219.9639207628038
 21
322.4820387098524
 31
0.0
1001
AcDbBlockRepETag
1070
     1
1071
      134
1005
3685
  0
LINE
  5
3686
330
23FC
100
AcDbEntity
  8
LAYER_1
 62
     7
100
AcDbLine
 10
219.9639207628038
 20
322.4820387098524
 30
0.0
 11
216.634580485026
 21
317.008987765842
 31
0.0
1001
AcDbBlockRepETag
1070
     1
1071
      135
1005
3686
  0
LINE
  5
3687
330
23FC
100
AcDbEntity
  8
LAYER_1
 62
     7
100
AcDbLine
 10
202.4828172471788
 20
318.2714430067274
 30
0.0
 11
204.5643439398871
 21
315.7454989963107
 31
0.0
1001
AcDbBlockRepETag
1070
     1
1071
      136
1005
3687
  0
LINE
  5
3688
330
23FC
100
AcDbEntity
  8
LAYER_1
 62
     7
100
AcDbLine
 10
204.5643439398871
 20
315.7454989963107
 30
0.0
 11
207.4771721733941
 21
314.0617085774739
 31
0.0
1001
AcDbBlockRepETag
1070
     1
1071
      137
1005
3688
  0
LINE
  5
3689
330
23FC
100
AcDbEntity
  8
LAYER_1
 62
     7
100
AcDbLine
 10
207.4771721733941
 20
314.0617085774739
 30
0.0
 11
210.8068569607205
 21
313.6410624186197
 31
0.0
1001
AcDbBlockRepETag
1070
     1
1071
      138
1005
3689
  0
LINE
  5
368A
330
23FC
100
AcDbEntity
  8
LAYER_1
 62
     7
100
AcDbLine
 10
210.8068569607205
 20
313.6410624186197
 30
0.0
 11
214.1361972384983
 21
314.9036899142795
 31
0.0
1001
AcDbBlockRepETag
1070
     1
1071
      139
1005
368A
  0
LINE
  5
368B
330
23FC
100
AcDbEntity
  8
LAYER_1
 62
     7
100
AcDbLine
 10
214.1361972384983
 20
314.9036899142795
 30
0.0
 11
216.634580485026
 21
317.008987765842
 31
0.0
1001
AcDbBlockRepETag
1070
     1
1071
      140
1005
368B
  0
LINE
  5
368C
330
23FC
100
AcDbEntity
  8
LAYER_1
 62
     7
100
AcDbLine
 10
202.4828172471788
 20
318.2714430067274
 30
0.0
 11
211.2237135145399
 21
327.1124192979601
 31
0.0
1001
AcDbBlockRepETag
1070
     1
1071
      141
1005
368C
  0
LINE
  5
368D
330
23FC
100
AcDbEntity
  8
LAYER_1
 62
     7
100
AcDbLine
 10
211.2237135145399
 20
327.1124192979601
 30
0.0
 11
218.7154181586371
 21
336.7953769259983
 31
0.0
1001
AcDbBlockRepETag
1070
     1
1071
      142
1005
368D
  0
LINE
  5
368E
330
23FC
100
AcDbEntity
  8
LAYER_1
 62
     7
100
AcDbLine
 10
218.7154181586371
 20
336.7953769259983
 30
0.0
 11
224.9582756890191
 21
347.3201436360676
 31
0.0
1001
AcDbBlockRepETag
1070
     1
1071
      143
1005
368E
  0
LINE
  5
368F
330
23FC
100
AcDbEntity
  8
LAYER_1
 62
     7
100
AcDbLine
 10
224.9582756890191
 20
347.3201436360676
 30
0.0
 11
229.5374966091579
 21
359.1083991156684
 31
0.0
1001
AcDbBlockRepETag
1070
     1
1071
      144
1005
368F
  0
LINE
  5
3690
330
23FC
100
AcDbEntity
  8
LAYER_1
 62
     7
100
AcDbLine
 10
229.5374966091579
 20
359.1083991156684
 30
0.0
 11
232.4503248426649
 21
370.8957933213976
 31
0.0
1001
AcDbBlockRepETag
1070
     1
1071
      145
1005
3690
  0
LINE
  5
3691
330
23FC
100
AcDbEntity
  8
LAYER_1
 62
     7
100
AcDbLine
 10
232.4503248426649
 20
370.8957933213976
 30
0.0
 11
255.7570848253038
 21
382.2625413682725
 31
0.0
1001
AcDbBlockRepETag
1070
     1
1071
      146
1005
3691
  0
LINE
  5
3692
330
23FC
100
AcDbEntity
  8
LAYER_1
 62
     7
100
AcDbLine
 10
255.7570848253038
 20
382.2625413682725
 30
0.0
 11
259.087803141276
 21
386.4731370713976
 31
0.0
1001
AcDbBlockRepETag
1070
     1
1071
      147
1005
3692
  0
LINE
  5
3693
330
23FC
100
AcDbEntity
  8
LAYER_1
 62
     7
100
AcDbLine
 10
259.087803141276
 20
386.4731370713976
 30
0.0
 11
261.1679517957899
 21
391.9454989963107
 31
0.0
1001
AcDbBlockRepETag
1070
     1
1071
      148
1005
3693
  0
LINE
  5
3694
330
23FC
100
AcDbEntity
  8
LAYER_1
 62
     7
100
AcDbLine
 10
261.1679517957899
 20
391.9454989963107
 30
0.0
 11
261.5841193305121
 21
397.4185499403212
 31
0.0
1001
AcDbBlockRepETag
1070
     1
1071
      149
1005
3694
  0
LINE
  5
3695
330
23FC
100
AcDbEntity
  8
LAYER_1
 62
     7
100
AcDbLine
 10
261.5841193305121
 20
397.4185499403212
 30
0.0
 11
259.9194491916232
 21
402.8917731391058
 31
0.0
1001
AcDbBlockRepETag
1070
     1
1071
      150
1005
3695
  0
LINE
  5
3696
330
23FC
100
AcDbEntity
  8
LAYER_1
 62
     7
100
AcDbLine
 10
259.9194491916232
 20
402.8917731391058
 30
0.0
 11
256.5901089138455
 21
407.9434889051649
 31
0.0
1001
AcDbBlockRepETag
1070
     1
1071
      151
1005
3696
  0
LINE
  5
3697
330
23FC
100
AcDbEntity
  8
LAYER_1
 62
     7
100
AcDbLine
 10
256.5901089138455
 20
407.9434889051649
 30
0.0
 11
252.4270555284288
 21
411.3112419976127
 31
0.0
1001
AcDbBlockRepETag
1070
     1
1071
      152
1005
3697
  0
LINE
  5
3698
330
23FC
100
AcDbEntity
  8
LAYER_1
 62
     7
100
AcDbLine
 10
252.4270555284288
 20
411.3112419976127
 30
0.0
 11
242.8552022298177
 21
412.1532233344184
 31
0.0
1001
AcDbBlockRepETag
1070
     1
1071
      153
1005
3698
  0
LINE
  5
3699
330
23FC
100
AcDbEntity
  8
LAYER_1
 62
     7
100
AcDbLine
 10
242.8552022298177
 20
412.1532233344184
 30
0.0
 11
233.6981384277343
 21
411.3112419976127
 31
0.0
1001
AcDbBlockRepETag
1070
     1
1071
      154
1005
3699
  0
LINE
  5
369A
330
23FC
100
AcDbEntity
  8
LAYER_1
 62
     7
100
AcDbLine
 10
233.6981384277343
 20
411.3112419976127
 30
0.0
 11
224.5417636447482
 21
408.7854702419704
 31
0.0
1001
AcDbBlockRepETag
1070
     1
1071
      155
1005
369A
  0
LINE
  5
369B
330
23FC
100
AcDbEntity
  8
LAYER_1
 62
     7
100
AcDbLine
 10
193.7426099989149
 20
409.2068054199218
 30
0.0
 11
201.2350036621094
 21
407.101335313585
 31
0.0
1001
AcDbBlockRepETag
1070
     1
1071
      156
1005
369B
  0
LINE
  5
369C
330
23FC
100
AcDbEntity
  8
LAYER_1
 62
     7
100
AcDbLine
 10
201.2350036621094
 20
407.101335313585
 30
0.0
 11
209.1421868218316
 21
406.259698486328
 31
0.0
1001
AcDbBlockRepETag
1070
     1
1071
      157
1005
369C
  0
LINE
  5
369D
330
23FC
100
AcDbEntity
  8
LAYER_1
 62
     7
100
AcDbLine
 10
209.1421868218316
 20
406.259698486328
 30
0.0
 11
217.0507480197482
 21
407.101335313585
 31
0.0
1001
AcDbBlockRepETag
1070
     1
1071
      158
1005
369D
  0
LINE
  5
369E
330
23FC
100
AcDbEntity
  8
LAYER_1
 62
     7
100
AcDbLine
 10
217.0507480197482
 20
407.101335313585
 30
0.0
 11
224.5417636447482
 21
408.7854702419704
 31
0.0
1001
AcDbBlockRepETag
1070
     1
1071
      159
1005
369E
  0
LINE
  5
369F
330
23FC
100
AcDbEntity
  8
LAYER_1
 62
     7
100
AcDbLine
 10
183.3377326117621
 20
423.941478814019
 30
0.0
 11
184.1707567003038
 21
419.3102369520398
 31
0.0
1001
AcDbBlockRepETag
1070
     1
1071
      160
1005
369F
  0
LINE
  5
36A0
330
23FC
100
AcDbEntity
  8
LAYER_1
 62
     7
100
AcDbLine
 10
184.1707567003038
 20
419.3102369520398
 30
0.0
 11
186.2519388834635
 21
415.1005025227864
 31
0.0
1001
AcDbBlockRepETag
1070
     1
1071
      161
1005
36A0
  0
LINE
  5
36A1
330
23FC
100
AcDbEntity
  8
LAYER_1
 62
     7
100
AcDbLine
 10
186.2519388834635
 20
415.1005025227864
 30
0.0
 11
189.5816236707899
 21
411.7327494303385
 31
0.0
1001
AcDbBlockRepETag
1070
     1
1071
      162
1005
36A1
  0
LINE
  5
36A2
330
23FC
100
AcDbEntity
  8
LAYER_1
 62
     7
100
AcDbLine
 10
189.5816236707899
 20
411.7327494303385
 30
0.0
 11
193.7426099989149
 21
409.2068054199218
 31
0.0
1001
AcDbBlockRepETag
1070
     1
1071
      163
1005
36A2
  0
LINE
  5
36A3
330
23FC
100
AcDbEntity
  8
LAYER_1
 62
     7
100
AcDbLine
 10
183.3377326117621
 20
424.7832878960503
 30
0.0
 11
183.3377326117621
 21
423.941478814019
 31
0.0
1001
AcDbBlockRepETag
1070
     1
1071
      164
1005
36A3
  0
LINE
  5
36A4
330
23FC
100
AcDbEntity
  8
LAYER_1
 62
     7
100
AcDbLine
 10
95.10246378580729
 20
362.8967983669705
 30
0.0
 11
107.1723558213975
 21
362.0548170301649
 31
0.0
1001
AcDbBlockRepETag
1070
     1
1071
      165
1005
36A4
  0
LINE
  5
36A5
330
23FC
100
AcDbEntity
  8
LAYER_1
 62
     7
100
AcDbLine
 10
107.1723558213975
 20
362.0548170301649
 30
0.0
 11
119.6587599012586
 21
363.7396409776475
 31
0.0
1001
AcDbBlockRepETag
1070
     1
1071
      166
1005
36A5
  0
LINE
  5
36A6
330
23FC
100
AcDbEntity
  8
LAYER_1
 62
     7
100
AcDbLine
 10
119.6587599012586
 20
363.7396409776475
 30
0.0
 11
126.3177849663628
 21
365.8440775553385
 31
0.0
1001
AcDbBlockRepETag
1070
     1
1071
      167
1005
36A6
  0
LINE
  5
36A7
330
23FC
100
AcDbEntity
  8
LAYER_1
 62
     7
100
AcDbLine
 10
126.3177849663628
 20
365.8440775553385
 30
0.0
 11
132.5618482801649
 21
370.053811984592
 31
0.0
1001
AcDbBlockRepETag
1070
     1
1071
      168
1005
36A7
  0
LINE
  5
36A8
330
23FC
100
AcDbEntity
  8
LAYER_1
 62
     7
100
AcDbLine
 10
132.5618482801649
 20
370.053811984592
 30
0.0
 11
137.1393466525607
 21
375.9483703613281
 31
0.0
1001
AcDbBlockRepETag
1070
     1
1071
      169
1005
36A8
  0
LINE
  5
36A9
330
23FC
100
AcDbEntity
  8
LAYER_1
 62
     7
100
AcDbLine
 10
137.1393466525607
 20
375.9483703613281
 30
0.0
 11
139.6360073513455
 21
382.6840488009982
 31
0.0
1001
AcDbBlockRepETag
1070
     1
1071
      170
1005
36A9
  0
LINE
  5
36AA
330
23FC
100
AcDbEntity
  8
LAYER_1
 62
     7
100
AcDbLine
 10
139.6360073513455
 20
382.6840488009982
 30
0.0
 11
140.4690314398871
 21
390.2615363226996
 31
0.0
1001
AcDbBlockRepETag
1070
     1
1071
      171
1005
36AA
  0
LINE
  5
36AB
330
23FC
100
AcDbEntity
  8
LAYER_1
 62
     7
100
AcDbLine
 10
140.4690314398871
 20
390.2615363226996
 30
0.0
 11
139.2208733452691
 21
399.1025126139323
 31
0.0
1001
AcDbBlockRepETag
1070
     1
1071
      172
1005
36AB
  0
LINE
  5
36AC
330
23FC
100
AcDbEntity
  8
LAYER_1
 62
     7
100
AcDbLine
 10
139.2208733452691
 20
399.1025126139323
 30
0.0
 11
136.7228346082899
 21
407.9434889051649
 31
0.0
1001
AcDbBlockRepETag
1070
     1
1071
      173
1005
36AC
  0
LINE
  5
36AD
330
23FC
100
AcDbEntity
  8
LAYER_1
 62
     7
100
AcDbLine
 10
136.7228346082899
 20
407.9434889051649
 30
0.0
 11
132.5618482801649
 21
415.9424838595919
 31
0.0
1001
AcDbBlockRepETag
1070
     1
1071
      174
1005
36AD
  0
LINE
  5
36AE
330
23FC
100
AcDbEntity
  8
LAYER_1
 62
     7
100
AcDbLine
 10
132.5618482801649
 20
415.9424838595919
 30
0.0
 11
136.3066670735677
 21
415.9424838595919
 31
0.0
1001
AcDbBlockRepETag
1070
     1
1071
      175
1005
36AE
  0
LINE
  5
36AF
330
23FC
100
AcDbEntity
  8
LAYER_1
 62
     7
100
AcDbLine
 10
136.3066670735677
 20
415.9424838595919
 30
0.0
 11
139.2208733452691
 21
417.626446533203
 31
0.0
1001
AcDbBlockRepETag
1070
     1
1071
      176
1005
36AF
  0
LINE
  5
36B0
330
23FC
100
AcDbEntity
  8
LAYER_1
 62
     7
100
AcDbLine
 10
139.2208733452691
 20
417.626446533203
 30
0.0
 11
141.3006774902343
 21
420.5737257215711
 31
0.0
1001
AcDbBlockRepETag
1070
     1
1071
      177
1005
36B0
  0
LINE
  5
36B1
330
23FC
100
AcDbEntity
  8
LAYER_1
 62
     7
100
AcDbLine
 10
141.3006774902343
 20
420.5737257215711
 30
0.0
 11
141.3006774902343
 21
423.941478814019
 31
0.0
1001
AcDbBlockRepETag
1070
     1
1071
      178
1005
36B1
  0
LINE
  5
36B2
330
23FC
100
AcDbEntity
  8
LAYER_1
 62
     7
100
AcDbLine
 10
141.3006774902343
 20
423.941478814019
 30
0.0
 11
144.2152282714843
 21
426.4674228244357
 31
0.0
1001
AcDbBlockRepETag
1070
     1
1071
      179
1005
36B2
  0
LINE
  5
36B3
330
23FC
100
AcDbEntity
  8
LAYER_1
 62
     7
100
AcDbLine
 10
144.2152282714843
 20
426.4674228244357
 30
0.0
 11
145.8798984103732
 21
429.8351759168836
 31
0.0
1001
AcDbBlockRepETag
1070
     1
1071
      180
1005
36B3
  0
LINE
  5
36B4
330
23FC
100
AcDbEntity
  8
LAYER_1
 62
     7
100
AcDbLine
 10
145.8798984103732
 20
429.8351759168836
 30
0.0
 11
145.8798984103732
 21
434.0449103461371
 31
0.0
1001
AcDbBlockRepETag
1070
     1
1071
      181
1005
36B4
  0
LINE
  5
36B5
330
23FC
100
AcDbEntity
  8
LAYER_1
 62
     7
100
AcDbLine
 10
145.8798984103732
 20
434.0449103461371
 30
0.0
 11
140.4690314398871
 21
435.7287007649738
 31
0.0
1001
AcDbBlockRepETag
1070
     1
1071
      182
1005
36B5
  0
LINE
  5
36B6
330
23FC
100
AcDbEntity
  8
LAYER_1
 62
     7
100
AcDbLine
 10
140.4690314398871
 20
435.7287007649738
 30
0.0
 11
135.058164469401
 21
435.3083991156683
 31
0.0
1001
AcDbBlockRepETag
1070
     1
1071
      183
1005
36B6
  0
LINE
  5
36B7
330
23FC
100
AcDbEntity
  8
LAYER_1
 62
     7
100
AcDbLine
 10
132.1456807454427
 20
439.9392964680989
 30
0.0
 11
133.3934943305121
 21
437.4136969672308
 31
0.0
1001
AcDbBlockRepETag
1070
     1
1071
      184
1005
36B7
  0
LINE
  5
36B8
330
23FC
100
AcDbEntity
  8
LAYER_1
 62
     7
100
AcDbLine
 10
133.3934943305121
 20
437.4136969672308
 30
0.0
 11
135.058164469401
 21
435.3083991156683
 31
0.0
1001
AcDbBlockRepETag
1070
     1
1071
      185
1005
36B8
  0
LINE
  5
36B9
330
23FC
100
AcDbEntity
  8
LAYER_1
 62
     7
100
AcDbLine
 10
132.1456807454427
 20
439.9392964680989
 30
0.0
 11
128.815823703342
 21
438.6761522081163
 31
0.0
1001
AcDbBlockRepETag
1070
     1
1071
      186
1005
36B9
  0
LINE
  5
36BA
330
23FC
100
AcDbEntity
  8
LAYER_1
 62
     7
100
AcDbLine
 10
128.815823703342
 20
438.6761522081163
 30
0.0
 11
126.7346415201823
 21
436.1502081976996
 31
0.0
1001
AcDbBlockRepETag
1070
     1
1071
      187
1005
36BA
  0
LINE
  5
36BB
330
23FC
100
AcDbEntity
  8
LAYER_1
 62
     7
100
AcDbLine
 10
126.7346415201823
 20
436.1502081976996
 30
0.0
 11
125.4864834255642
 21
433.2031012641058
 31
0.0
1001
AcDbBlockRepETag
1070
     1
1071
      188
1005
36BB
  0
LINE
  5
36BC
330
23FC
100
AcDbEntity
  8
LAYER_1
 62
     7
100
AcDbLine
 10
118.825735812717
 20
434.0449103461371
 30
0.0
 11
119.6587599012586
 21
431.5191385904947
 31
0.0
1001
AcDbBlockRepETag
1070
     1
1071
      189
1005
36BC
  0
LINE
  5
36BD
330
23FC
100
AcDbEntity
  8
LAYER_1
 62
     7
100
AcDbLine
 10
119.6587599012586
 20
431.5191385904947
 30
0.0
 11
121.740286593967
 21
430.6771572536892
 31
0.0
1001
AcDbBlockRepETag
1070
     1
1071
      190
1005
36BD
  0
LINE
  5
36BE
330
23FC
100
AcDbEntity
  8
LAYER_1
 62
     7
100
AcDbLine
 10
121.740286593967
 20
430.6771572536892
 30
0.0
 11
124.2366027832031
 21
431.0984924316406
 31
0.0
1001
AcDbBlockRepETag
1070
     1
1071
      191
1005
36BE
  0
LINE
  5
36BF
330
23FC
100
AcDbEntity
  8
LAYER_1
 62
     7
100
AcDbLine
 10
124.2366027832031
 20
431.0984924316406
 30
0.0
 11
125.4864834255642
 21
433.2031012641058
 31
0.0
1001
AcDbBlockRepETag
1070
     1
1071
      192
1005
36BF
  0
LINE
  5
36C0
330
23FC
100
AcDbEntity
  8
LAYER_1
 62
     7
100
AcDbLine
 10
118.825735812717
 20
434.0449103461371
 30
0.0
 11
113.4165913899739
 21
450.4644076877169
 31
0.0
1001
AcDbBlockRepETag
1070
     1
1071
      193
1005
36C0
  0
LINE
  5
36C1
330
23FC
100
AcDbEntity
  8
LAYER_1
 62
     7
100
AcDbLine
 10
112.1667107476128
 20
449.2009189181857
 30
0.0
 11
112.5832227918836
 21
448.3591098361544
 31
0.0
1001
AcDbBlockRepETag
1070
     1
1071
      194
1005
36C1
  0
LINE
  5
36C2
330
23FC
100
AcDbEntity
  8
LAYER_1
 62
     7
100
AcDbLine
 10
112.5832227918836
 20
448.3591098361544
 30
0.0
 11
113.4165913899739
 21
447.9384636773003
 31
0.0
1001
AcDbBlockRepETag
1070
     1
1071
      195
1005
36C2
  0
LINE
  5
36C3
330
23FC
100
AcDbEntity
  8
LAYER_1
 62
     7
100
AcDbLine
 10
113.4165913899739
 20
447.9384636773003
 30
0.0
 11
114.664749484592
 21
448.3591098361544
 31
0.0
1001
AcDbBlockRepETag
1070
     1
1071
      196
1005
36C3
  0
LINE
  5
36C4
330
23FC
100
AcDbEntity
  8
LAYER_1
 62
     7
100
AcDbLine
 10
114.664749484592
 20
448.3591098361544
 30
0.0
 11
115.0812615288628
 21
449.2009189181857
 31
0.0
1001
AcDbBlockRepETag
1070
     1
1071
      197
1005
36C4
  0
LINE
  5
36C5
330
23FC
100
AcDbEntity
  8
LAYER_1
 62
     7
100
AcDbLine
 10
115.0812615288628
 20
449.2009189181857
 30
0.0
 11
114.664749484592
 21
450.042728000217
 31
0.0
1001
AcDbBlockRepETag
1070
     1
1071
      198
1005
36C5
  0
LINE
  5
36C6
330
23FC
100
AcDbEntity
  8
LAYER_1
 62
     7
100
AcDbLine
 10
114.664749484592
 20
450.042728000217
 30
0.0
 11
113.4165913899739
 21
450.4644076877169
 31
0.0
1001
AcDbBlockRepETag
1070
     1
1071
      199
1005
36C6
  0
LINE
  5
36C7
330
23FC
100
AcDbEntity
  8
LAYER_1
 62
     7
100
AcDbLine
 10
112.1667107476128
 20
449.2009189181857
 30
0.0
 11
109.2538825141059
 21
451.7268629286023
 31
0.0
1001
AcDbBlockRepETag
1070
     1
1071
      200
1005
36C7
  0
LINE
  5
36C8
330
23FC
100
AcDbEntity
  8
LAYER_1
 62
     7
100
AcDbLine
 10
109.2538825141059
 20
451.7268629286023
 30
0.0
 11
105.5076856825086
 21
453.4108256022134
 31
0.0
1001
AcDbBlockRepETag
1070
     1
1071
      201
1005
36C8
  0
LINE
  5
36C9
330
23FC
100
AcDbEntity
  8
LAYER_1
 62
     7
100
AcDbLine
 10
105.5076856825086
 20
453.4108256022134
 30
0.0
 11
101.7614888509114
 21
453.8319885253905
 31
0.0
1001
AcDbBlockRepETag
1070
     1
1071
      202
1005
36C9
  0
LINE
  5
36CA
330
23FC
100
AcDbEntity
  8
LAYER_1
 62
     7
100
AcDbLine
 10
100.9301873101128
 20
447.0956210666232
 30
0.0
 11
102.5948574490017
 21
448.3591098361544
 31
0.0
1001
AcDbBlockRepETag
1070
     1
1071
      203
1005
36CA
  0
LINE
  5
36CB
330
23FC
100
AcDbEntity
  8
LAYER_1
 62
     7
100
AcDbLine
 10
102.5948574490017
 20
448.3591098361544
 30
0.0
 11
103.0113694932725
 21
450.4644076877169
 31
0.0
1001
AcDbBlockRepETag
1070
     1
1071
      204
1005
36CB
  0
LINE
  5
36CC
330
23FC
100
AcDbEntity
  8
LAYER_1
 62
     7
100
AcDbLine
 10
103.0113694932725
 20
450.4644076877169
 30
0.0
 11
103.0113694932725
 21
452.1481981065537
 31
0.0
1001
AcDbBlockRepETag
1070
     1
1071
      205
1005
36CC
  0
LINE
  5
36CD
330
23FC
100
AcDbEntity
  8
LAYER_1
 62
     7
100
AcDbLine
 10
103.0113694932725
 20
452.1481981065537
 30
0.0
 11
101.7614888509114
 21
453.8319885253905
 31
0.0
1001
AcDbBlockRepETag
1070
     1
1071
      206
1005
36CD
  0
LINE
  5
36CE
330
23FC
100
AcDbEntity
  8
LAYER_1
 62
     7
100
AcDbLine
 10
95.10246378580729
 20
451.7268629286023
 30
0.0
 11
97.60050252278645
 21
448.7795837402343
 31
0.0
1001
AcDbBlockRepETag
1070
     1
1071
      207
1005
36CE
  0
LINE
  5
36CF
330
23FC
100
AcDbEntity
  8
LAYER_1
 62
     7
100
AcDbLine
 10
97.60050252278645
 20
448.7795837402343
 30
0.0
 11
100.9301873101128
 21
447.0956210666232
 31
0.0
1001
AcDbBlockRepETag
1070
     1
1071
      208
1005
36CF
  0
LINE
  5
36D0
330
23FC
100
AcDbEntity
  8
LAYER_1
 62
     7
100
AcDbLine
 10
95.10246378580729
 20
451.7268629286023
 30
0.0
 11
93.85430569118922
 21
447.0956210666232
 31
0.0
1001
AcDbBlockRepETag
1070
     1
1071
      209
1005
36D0
  0
LINE
  5
36D1
330
23FC
100
AcDbEntity
  8
LAYER_1
 62
     7
100
AcDbLine
 10
93.85430569118922
 20
447.0956210666232
 30
0.0
 11
94.27116224500867
 21
442.4654127332899
 31
0.0
1001
AcDbBlockRepETag
1070
     1
1071
      210
1005
36D1
  0
LINE
  5
36D2
330
23FC
100
AcDbEntity
  8
LAYER_1
 62
     7
100
AcDbLine
 10
94.27116224500867
 20
442.4654127332899
 30
0.0
 11
95.51932033962673
 21
438.2546447753906
 31
0.0
1001
AcDbBlockRepETag
1070
     1
1071
      211
1005
36D2
  0
LINE
  5
36D3
330
23FC
100
AcDbEntity
  8
LAYER_1
 62
     7
100
AcDbLine
 10
95.51932033962673
 20
438.2546447753906
 30
0.0
 11
98.43214857313368
 21
434.4664177788628
 31
0.0
1001
AcDbBlockRepETag
1070
     1
1071
      212
1005
36D3
  0
LINE
  5
36D4
330
23FC
100
AcDbEntity
  8
LAYER_1
 62
     7
100
AcDbLine
 10
95.93583238389756
 20
429.8351759168836
 30
0.0
 11
98.43214857313368
 21
434.4664177788628
 31
0.0
1001
AcDbBlockRepETag
1070
     1
1071
      213
1005
36D4
  0
LINE
  5
36D5
330
23FC
100
AcDbEntity
  8
LAYER_1
 62
     7
100
AcDbLine
 10
108.4205139160156
 20
426.04591539171
 30
0.0
 11
102.1783454047309
 21
428.5728929307725
 31
0.0
1001
AcDbBlockRepETag
1070
     1
1071
      214
1005
36D5
  0
LINE
  5
36D6
330
23FC
100
AcDbEntity
  8
LAYER_1
 62
     7
100
AcDbLine
 10
102.1783454047309
 20
428.5728929307725
 30
0.0
 11
95.93583238389756
 21
429.8351759168836
 31
0.0
1001
AcDbBlockRepETag
1070
     1
1071
      215
1005
36D6
  0
LINE
  5
36D7
330
23FC
100
AcDbEntity
  8
LAYER_1
 62
     7
100
AcDbLine
 10
97.18399047851562
 20
424.7832878960503
 30
0.0
 11
98.84866061740451
 21
422.2575161404079
 31
0.0
1001
AcDbBlockRepETag
1070
     1
1071
      216
1005
36D7
  0
LINE
  5
36D8
330
23FC
100
AcDbEntity
  8
LAYER_1
 62
     7
100
AcDbLine
 10
98.84866061740451
 20
422.2575161404079
 30
0.0
 11
101.7614888509114
 21
421.4157070583767
 31
0.0
1001
AcDbBlockRepETag
1070
     1
1071
      217
1005
36D8
  0
LINE
  5
36D9
330
23FC
100
AcDbEntity
  8
LAYER_1
 62
     7
100
AcDbLine
 10
101.7614888509114
 20
421.4157070583767
 30
0.0
 11
104.6760396321614
 21
421.4157070583767
 31
0.0
1001
AcDbBlockRepETag
1070
     1
1071
      218
1005
36D9
  0
LINE
  5
36DA
330
23FC
100
AcDbEntity
  8
LAYER_1
 62
     7
100
AcDbLine
 10
104.6760396321614
 20
421.4157070583767
 30
0.0
 11
107.1723558213975
 21
423.0994974772134
 31
0.0
1001
AcDbBlockRepETag
1070
     1
1071
      219
1005
36DA
  0
LINE
  5
36DB
330
23FC
100
AcDbEntity
  8
LAYER_1
 62
     7
100
AcDbLine
 10
107.1723558213975
 20
423.0994974772134
 30
0.0
 11
108.4205139160156
 21
426.04591539171
 31
0.0
1001
AcDbBlockRepETag
1070
     1
1071
      220
1005
36DB
  0
LINE
  5
36DC
330
23FC
100
AcDbEntity
  8
LAYER_1
 62
     7
100
AcDbLine
 10
95.93583238389756
 20
419.3102369520398
 30
0.0
 11
97.18399047851562
 21
424.7832878960503
 31
0.0
1001
AcDbBlockRepETag
1070
     1
1071
      221
1005
36DC
  0
LINE
  5
36DD
330
23FC
100
AcDbEntity
  8
LAYER_1
 62
     7
100
AcDbLine
 10
87.19562513563367
 20
415.9424838595919
 30
0.0
 11
90.52496541341145
 21
415.5211486816405
 31
0.0
1001
AcDbBlockRepETag
1070
     1
1071
      222
1005
36DD
  0
LINE
  5
36DE
330
23FC
100
AcDbEntity
  8
LAYER_1
 62
     7
100
AcDbLine
 10
90.52496541341145
 20
415.5211486816405
 30
0.0
 11
93.43779364691839
 21
416.7844651963975
 31
0.0
1001
AcDbBlockRepETag
1070
     1
1071
      223
1005
36DE
  0
LINE
  5
36DF
330
23FC
100
AcDbEntity
  8
LAYER_1
 62
     7
100
AcDbLine
 10
93.43779364691839
 20
416.7844651963975
 30
0.0
 11
95.93583238389756
 21
419.3102369520398
 31
0.0
1001
AcDbBlockRepETag
1070
     1
1071
      224
1005
36DF
  0
LINE
  5
36E0
330
23FC
100
AcDbEntity
  8
LAYER_1
 62
     7
100
AcDbLine
 10
87.19562513563367
 20
415.9424838595919
 30
0.0
 11
89.69159681532117
 21
412.574730767144
 31
0.0
1001
AcDbBlockRepETag
1070
     1
1071
      225
1005
36E0
  0
LINE
  5
36E1
330
23FC
100
AcDbEntity
  8
LAYER_1
 62
     7
100
AcDbLine
 10
89.69159681532117
 20
412.574730767144
 30
0.0
 11
92.60649210611978
 21
410.0487867567274
 31
0.0
1001
AcDbBlockRepETag
1070
     1
1071
      226
1005
36E1
  0
LINE
  5
36E2
330
23FC
100
AcDbEntity
  8
LAYER_1
 62
     7
100
AcDbLine
 10
92.60649210611978
 20
410.0487867567274
 30
0.0
 11
96.35062188042534
 21
408.7854702419704
 31
0.0
1001
AcDbBlockRepETag
1070
     1
1071
      227
1005
36E2
  0
LINE
  5
36E3
330
23FC
100
AcDbEntity
  8
LAYER_1
 62
     7
100
AcDbLine
 10
94.68595174153646
 20
402.0497918023003
 30
0.0
 11
96.35062188042534
 21
402.0497918023003
 31
0.0
1001
AcDbBlockRepETag
1070
     1
1071
      228
1005
36E3
  0
LINE
  5
36E4
330
23FC
100
AcDbEntity
  8
LAYER_1
 62
     7
100
AcDbLine
 10
96.35062188042534
 20
402.0497918023003
 30
0.0
 11
98.01563652886285
 21
402.8917731391058
 31
0.0
1001
AcDbBlockRepETag
1070
     1
1071
      229
1005
36E4
  0
LINE
  5
36E5
330
23FC
100
AcDbEntity
  8
LAYER_1
 62
     7
100
AcDbLine
 10
98.01563652886285
 20
402.8917731391058
 30
0.0
 11
98.84866061740451
 21
404.1542283799913
 31
0.0
1001
AcDbBlockRepETag
1070
     1
1071
      230
1005
36E5
  0
LINE
  5
36E6
330
23FC
100
AcDbEntity
  8
LAYER_1
 62
     7
100
AcDbLine
 10
98.84866061740451
 20
404.1542283799913
 30
0.0
 11
99.26517266167534
 21
406.259698486328
 31
0.0
1001
AcDbBlockRepETag
1070
     1
1071
      231
1005
36E6
  0
LINE
  5
36E7
330
23FC
100
AcDbEntity
  8
LAYER_1
 62
     7
100
AcDbLine
 10
99.26517266167534
 20
406.259698486328
 30
0.0
 11
98.01563652886285
 21
407.9434889051649
 31
0.0
1001
AcDbBlockRepETag
1070
     1
1071
      232
1005
36E7
  0
LINE
  5
36E8
330
23FC
100
AcDbEntity
  8
LAYER_1
 62
     7
100
AcDbLine
 10
98.01563652886285
 20
407.9434889051649
 30
0.0
 11
96.35062188042534
 21
408.7854702419704
 31
0.0
1001
AcDbBlockRepETag
1070
     1
1071
      233
1005
36E8
  0
LINE
  5
36E9
330
23FC
100
AcDbEntity
  8
LAYER_1
 62
     7
100
AcDbLine
 10
94.68595174153646
 20
402.0497918023003
 30
0.0
 11
99.68030666775172
 21
401.6284566243489
 31
0.0
1001
AcDbBlockRepETag
1070
     1
1071
      234
1005
36E9
  0
LINE
  5
36EA
330
23FC
100
AcDbEntity
  8
LAYER_1
 62
     7
100
AcDbLine
 10
99.68030666775172
 20
401.6284566243489
 30
0.0
 11
104.6760396321614
 21
402.0497918023003
 31
0.0
1001
AcDbBlockRepETag
1070
     1
1071
      235
1005
36EA
  0
LINE
  5
36EB
330
23FC
100
AcDbEntity
  8
LAYER_1
 62
     7
100
AcDbLine
 10
104.6760396321614
 20
402.0497918023003
 30
0.0
 11
109.6703945583767
 21
404.1542283799913
 31
0.0
1001
AcDbBlockRepETag
1070
     1
1071
      236
1005
36EB
  0
LINE
  5
36EC
330
23FC
100
AcDbEntity
  8
LAYER_1
 62
     7
100
AcDbLine
 10
109.6703945583767
 20
404.1542283799913
 30
0.0
 11
113.4165913899739
 21
407.523015001085
 31
0.0
1001
AcDbBlockRepETag
1070
     1
1071
      237
1005
36EC
  0
LINE
  5
36ED
330
23FC
100
AcDbEntity
  8
LAYER_1
 62
     7
100
AcDbLine
 10
159.614805094401
 20
371.7377746582031
 30
0.0
 11
155.4517517089843
 21
367.1072218153212
 31
0.0
1001
AcDbBlockRepETag
1070
     1
1071
      238
1005
36ED
  0
LINE
  5
36EE
330
23FC
100
AcDbEntity
  8
LAYER_1
 62
     7
100
AcDbLine
 10
155.4517517089843
 20
367.1072218153212
 30
0.0
 11
152.1220669216579
 21
361.6341708713108
 31
0.0
1001
AcDbBlockRepETag
1070
     1
1071
      239
1005
36EE
  0
LINE
  5
36EF
330
23FC
100
AcDbEntity
  8
LAYER_1
 62
     7
100
AcDbLine
 10
152.1220669216579
 20
361.6341708713108
 30
0.0
 11
150.0408847384982
 21
355.7406460232205
 31
0.0
1001
AcDbBlockRepETag
1070
     1
1071
      240
1005
36EF
  0
LINE
  5
36F0
330
23FC
100
AcDbEntity
  8
LAYER_1
 62
     7
100
AcDbLine
 10
150.0408847384982
 20
355.7406460232205
 30
0.0
 11
149.209238688151
 21
349.8460876464843
 31
0.0
1001
AcDbBlockRepETag
1070
     1
1071
      241
1005
36F0
  0
LINE
  5
36F1
330
23FC
100
AcDbEntity
  8
LAYER_1
 62
     7
100
AcDbLine
 10
159.614805094401
 20
371.7377746582031
 30
0.0
 11
160.445762125651
 21
365.8440775553385
 31
0.0
1001
AcDbBlockRepETag
1070
     1
1071
      242
1005
36F1
  0
LINE
  5
36F2
330
23FC
100
AcDbEntity
  8
LAYER_1
 62
     7
100
AcDbLine
 10
160.445762125651
 20
365.8440775553385
 30
0.0
 11
162.1111212836371
 21
360.3708543565538
 31
0.0
1001
AcDbBlockRepETag
1070
     1
1071
      243
1005
36F2
  0
LINE
  5
36F3
330
23FC
100
AcDbEntity
  8
LAYER_1
 62
     7
100
AcDbLine
 10
162.1111212836371
 20
360.3708543565538
 30
0.0
 11
165.442184109158
 21
355.7406460232205
 31
0.0
1001
AcDbBlockRepETag
1070
     1
1071
      244
1005
36F3
  0
LINE
  5
36F4
330
23FC
100
AcDbEntity
  8
LAYER_1
 62
     7
100
AcDbLine
 10
165.442184109158
 20
355.7406460232205
 30
0.0
 11
169.6028259277343
 21
351.9513854980468
 31
0.0
1001
AcDbBlockRepETag
1070
     1
1071
      245
1005
36F4
  0
LINE
  5
36F5
330
23FC
100
AcDbEntity
  8
LAYER_1
 62
     7
100
AcDbLine
 10
169.6028259277343
 20
351.9513854980468
 30
0.0
 11
175.0136928982205
 21
349.8460876464843
 31
0.0
1001
AcDbBlockRepETag
1070
     1
1071
      246
1005
36F5
  0
LINE
  5
36F6
330
23FC
100
AcDbEntity
  8
LAYER_1
 62
     7
100
AcDbLine
 10
175.0136928982205
 20
349.8460876464843
 30
0.0
 11
178.3437221950954
 21
349.0039340549045
 31
0.0
1001
AcDbBlockRepETag
1070
     1
1071
      247
1005
36F6
  0
LINE
  5
36F7
330
23FC
100
AcDbEntity
  8
LAYER_1
 62
     7
100
AcDbLine
 10
178.3437221950954
 20
349.0039340549045
 30
0.0
 11
182.0892300075954
 21
350.2674228244357
 31
0.0
1001
AcDbBlockRepETag
1070
     1
1071
      248
1005
36F7
  0
LINE
  5
36F8
330
23FC
100
AcDbEntity
  8
LAYER_1
 62
     7
100
AcDbLine
 10
182.0892300075954
 20
350.2674228244357
 30
0.0
 11
185.002402750651
 21
352.3718594021267
 31
0.0
1001
AcDbBlockRepETag
1070
     1
1071
      249
1005
36F8
  0
LINE
  5
36F9
330
23FC
100
AcDbEntity
  8
LAYER_1
 62
     7
100
AcDbLine
 10
185.002402750651
 20
352.3718594021267
 30
0.0
 11
186.6674173990885
 21
355.7406460232205
 31
0.0
1001
AcDbBlockRepETag
1070
     1
1071
      250
1005
36F9
  0
LINE
  5
36FA
330
23FC
100
AcDbEntity
  8
LAYER_1
 62
     7
100
AcDbLine
 10
186.6674173990885
 20
355.7406460232205
 30
0.0
 11
186.6674173990885
 21
359.5287007649739
 31
0.0
1001
AcDbBlockRepETag
1070
     1
1071
      251
1005
36FA
  0
LINE
  5
36FB
330
23FC
100
AcDbEntity
  8
LAYER_1
 62
     7
100
AcDbLine
 10
186.6674173990885
 20
359.5287007649739
 30
0.0
 11
185.4192593044705
 21
362.8967983669705
 31
0.0
1001
AcDbBlockRepETag
1070
     1
1071
      252
1005
36FB
  0
LINE
  5
36FC
330
23FC
100
AcDbEntity
  8
LAYER_1
 62
     7
100
AcDbLine
 10
176.2621955023871
 20
358.2664177788629
 30
0.0
 11
178.7598897298177
 21
357.8450826009115
 31
0.0
1001
AcDbBlockRepETag
1070
     1
1071
      253
1005
36FC
  0
LINE
  5
36FD
330
23FC
100
AcDbEntity
  8
LAYER_1
 62
     7
100
AcDbLine
 10
178.7598897298177
 20
357.8450826009115
 30
0.0
 11
181.6730624728732
 21
358.687063937717
 31
0.0
1001
AcDbBlockRepETag
1070
     1
1071
      254
1005
36FD
  0
LINE
  5
36FE
330
23FC
100
AcDbEntity
  8
LAYER_1
 62
     7
100
AcDbLine
 10
181.6730624728732
 20
358.687063937717
 30
0.0
 11
183.7545891655816
 21
360.3708543565538
 31
0.0
1001
AcDbBlockRepETag
1070
     1
1071
      255
1005
36FE
  0
LINE
  5
36FF
330
23FC
100
AcDbEntity
  8
LAYER_1
 62
     7
100
AcDbLine
 10
183.7545891655816
 20
360.3708543565538
 30
0.0
 11
185.4192593044705
 21
362.8967983669705
 31
0.0
1001
AcDbBlockRepETag
1070
     1
1071
      256
1005
36FF
  0
LINE
  5
3700
330
23FC
100
AcDbEntity
  8
LAYER_1
 62
     7
100
AcDbLine
 10
173.3490227593315
 20
378.0526346842448
 30
0.0
 11
171.2674960666232
 21
374.264407687717
 31
0.0
1001
AcDbBlockRepETag
1070
     1
1071
      257
1005
3700
  0
LINE
  5
3701
330
23FC
100
AcDbEntity
  8
LAYER_1
 62
     7
100
AcDbLine
 10
171.2674960666232
 20
374.264407687717
 30
0.0
 11
170.0196824815538
 21
370.053811984592
 31
0.0
1001
AcDbBlockRepETag
1070
     1
1071
      258
1005
3701
  0
LINE
  5
3702
330
23FC
100
AcDbEntity
  8
LAYER_1
 62
     7
100
AcDbLine
 10
170.0196824815538
 20
370.053811984592
 30
0.0
 11
170.851328531901
 21
365.4234313964843
 31
0.0
1001
AcDbBlockRepETag
1070
     1
1071
      259
1005
3702
  0
LINE
  5
3703
330
23FC
100
AcDbEntity
  8
LAYER_1
 62
     7
100
AcDbLine
 10
170.851328531901
 20
365.4234313964843
 30
0.0
 11
172.9328552246093
 21
361.2128356933594
 31
0.0
1001
AcDbBlockRepETag
1070
     1
1071
      260
1005
3703
  0
LINE
  5
3704
330
23FC
100
AcDbEntity
  8
LAYER_1
 62
     7
100
AcDbLine
 10
172.9328552246093
 20
361.2128356933594
 30
0.0
 11
176.2621955023871
 21
358.2664177788629
 31
0.0
1001
AcDbBlockRepETag
1070
     1
1071
      261
1005
3704
  0
LINE
  5
3705
330
23FC
100
AcDbEntity
  8
LAYER_1
 62
     7
100
AcDbLine
 10
194.992490641276
 20
375.5268629286024
 30
0.0
 11
191.6610833062066
 21
378.8947882758246
 31
0.0
1001
AcDbBlockRepETag
1070
     1
1071
      262
1005
3705
  0
LINE
  5
3706
330
23FC
100
AcDbEntity
  8
LAYER_1
 62
     7
100
AcDbLine
 10
191.6610833062066
 20
378.8947882758246
 30
0.0
 11
187.0839294433593
 21
381.0000861273871
 31
0.0
1001
AcDbBlockRepETag
1070
     1
1071
      263
1005
3706
  0
LINE
  5
3707
330
23FC
100
AcDbEntity
  8
LAYER_1
 62
     7
100
AcDbLine
 10
187.0839294433593
 20
381.0000861273871
 30
0.0
 11
182.5064310709635
 21
381.420560031467
 31
0.0
1001
AcDbBlockRepETag
1070
     1
1071
      264
1005
3707
  0
LINE
  5
3708
330
23FC
100
AcDbEntity
  8
LAYER_1
 62
     7
100
AcDbLine
 10
182.5064310709635
 20
381.420560031467
 30
0.0
 11
177.5117316351996
 21
380.5787509494357
 31
0.0
1001
AcDbBlockRepETag
1070
     1
1071
      265
1005
3708
  0
LINE
  5
3709
330
23FC
100
AcDbEntity
  8
LAYER_1
 62
     7
100
AcDbLine
 10
177.5117316351996
 20
380.5787509494357
 30
0.0
 11
173.3490227593315
 21
378.0526346842448
 31
0.0
1001
AcDbBlockRepETag
1070
     1
1071
      266
1005
3709
  0
LINE
  5
370A
330
23FC
100
AcDbEntity
  8
LAYER_1
 62
     7
100
AcDbLine
 10
204.1478318956163
 20
336.3747307671441
 30
0.0
 11
207.0627271864149
 21
343.1104092068142
 31
0.0
1001
AcDbBlockRepETag
1070
     1
1071
      267
1005
370A
  0
LINE
  5
370B
330
23FC
100
AcDbEntity
  8
LAYER_1
 62
     7
100
AcDbLine
 10
207.0627271864149
 20
343.1104092068142
 30
0.0
 11
207.8936842176649
 21
350.2674228244357
 31
0.0
1001
AcDbBlockRepETag
1070
     1
1071
      268
1005
370B
  0
LINE
  5
370C
330
23FC
100
AcDbEntity
  8
LAYER_1
 62
     7
100
AcDbLine
 10
207.8936842176649
 20
350.2674228244357
 30
0.0
 11
207.0627271864149
 21
357.8450826009115
 31
0.0
1001
AcDbBlockRepETag
1070
     1
1071
      269
1005
370C
  0
LINE
  5
370D
330
23FC
100
AcDbEntity
  8
LAYER_1
 62
     7
100
AcDbLine
 10
207.0627271864149
 20
357.8450826009115
 30
0.0
 11
204.5643439398871
 21
364.5814500596788
 31
0.0
1001
AcDbBlockRepETag
1070
     1
1071
      270
1005
370D
  0
LINE
  5
370E
330
23FC
100
AcDbEntity
  8
LAYER_1
 62
     7
100
AcDbLine
 10
204.5643439398871
 20
364.5814500596788
 30
0.0
 11
200.4019795735677
 21
370.4751471625434
 31
0.0
1001
AcDbBlockRepETag
1070
     1
1071
      271
1005
370E
  0
LINE
  5
370F
330
23FC
100
AcDbEntity
  8
LAYER_1
 62
     7
100
AcDbLine
 10
200.4019795735677
 20
370.4751471625434
 30
0.0
 11
194.992490641276
 21
375.5268629286024
 31
0.0
1001
AcDbBlockRepETag
1070
     1
1071
      272
1005
370F
  0
LINE
  5
3710
330
23FC
100
AcDbEntity
  8
LAYER_1
 62
     7
100
AcDbLine
 10
175.4302049424913
 20
313.6410624186197
 30
0.0
 11
184.1707567003038
 21
317.008987765842
 31
0.0
1001
AcDbBlockRepETag
1070
     1
1071
      273
1005
3710
  0
LINE
  5
3711
330
23FC
100
AcDbEntity
  8
LAYER_1
 62
     7
100
AcDbLine
 10
184.1707567003038
 20
317.008987765842
 30
0.0
 11
192.4944519042968
 21
322.060703531901
 31
0.0
1001
AcDbBlockRepETag
1070
     1
1071
      274
1005
3711
  0
LINE
  5
3712
330
23FC
100
AcDbEntity
  8
LAYER_1
 62
     7
100
AcDbLine
 10
192.4944519042968
 20
322.060703531901
 30
0.0
 11
199.153476969401
 21
328.375735812717
 31
0.0
1001
AcDbBlockRepETag
1070
     1
1071
      275
1005
3712
  0
LINE
  5
3713
330
23FC
100
AcDbEntity
  8
LAYER_1
 62
     7
100
AcDbLine
 10
199.153476969401
 20
328.375735812717
 30
0.0
 11
204.1478318956163
 21
336.3747307671441
 31
0.0
1001
AcDbBlockRepETag
1070
     1
1071
      276
1005
3713
  0
LINE
  5
3714
330
23FC
100
AcDbEntity
  8
LAYER_1
 62
     7
100
AcDbLine
 10
74.29236450195311
 20
339.742483859592
 30
0.0
 11
77.20519273546006
 21
336.3747307671441
 31
0.0
1001
AcDbBlockRepETag
1070
     1
1071
      277
1005
3714
  0
LINE
  5
3715
330
23FC
100
AcDbEntity
  8
LAYER_1
 62
     7
100
AcDbLine
 10
74.29236450195311
 20
339.742483859592
 30
0.0
 11
62.63898451063368
 21
349.8460876464843
 31
0.0
1001
AcDbBlockRepETag
1070
     1
1071
      278
1005
3715
  0
LINE
  5
3716
330
23FC
100
AcDbEntity
  8
LAYER_1
 62
     7
100
AcDbLine
 10
62.63898451063368
 20
349.8460876464843
 30
0.0
 11
50.98594902886284
 21
359.1083991156684
 31
0.0
1001
AcDbBlockRepETag
1070
     1
1071
      279
1005
3716
  0
LINE
  5
3717
330
23FC
100
AcDbEntity
  8
LAYER_1
 62
     7
100
AcDbLine
 10
50.98594902886284
 20
359.1083991156684
 30
0.0
 11
38.0830329047309
 21
367.5278679741753
 31
0.0
1001
AcDbBlockRepETag
1070
     1
1071
      280
1005
3717
  0
LINE
  5
3718
330
23FC
100
AcDbEntity
  8
LAYER_1
 62
     7
100
AcDbLine
 10
38.0830329047309
 20
367.5278679741753
 30
0.0
 11
29.85487148659308
 21
370.1911301012394
 31
0.0
1001
AcDbBlockRepETag
1070
     1
1071
      281
1005
3718
  0
LINE
  5
3721
330
23FC
100
AcDbEntity
  8
LAYER_1
 62
     7
100
AcDbLine
 10
82.2012702094184
 20
346.0576883951822
 30
0.0
 11
59.72615627712674
 21
364.1601148817274
 31
0.0
1001
AcDbBlockRepETag
1070
     1
1071
      282
1005
3721
  0
LINE
  5
3722
330
23FC
100
AcDbEntity
  8
LAYER_1
 62
     7
100
AcDbLine
 10
76.79040323893229
 20
371.7377746582031
 30
0.0
 11
72.62769436306424
 21
372.5795837402344
 31
0.0
1001
AcDbBlockRepETag
1070
     1
1071
      283
1005
3722
  0
LINE
  5
3723
330
23FC
100
AcDbEntity
  8
LAYER_1
 62
     7
100
AcDbLine
 10
72.62769436306424
 20
372.5795837402344
 30
0.0
 11
68.881497531467
 21
372.1591098361545
 31
0.0
1001
AcDbBlockRepETag
1070
     1
1071
      284
1005
3723
  0
LINE
  5
3724
330
23FC
100
AcDbEntity
  8
LAYER_1
 62
     7
100
AcDbLine
 10
68.881497531467
 20
372.1591098361545
 30
0.0
 11
65.13530069986979
 21
370.4751471625434
 31
0.0
1001
AcDbBlockRepETag
1070
     1
1071
      285
1005
3724
  0
LINE
  5
3725
330
23FC
100
AcDbEntity
  8
LAYER_1
 62
     7
100
AcDbLine
 10
65.13530069986979
 20
370.4751471625434
 30
0.0
 11
61.80596042209201
 21
367.949375406901
 31
0.0
1001
AcDbBlockRepETag
1070
     1
1071
      286
1005
3725
  0
LINE
  5
3726
330
23FC
100
AcDbEntity
  8
LAYER_1
 62
     7
100
AcDbLine
 10
61.80596042209201
 20
367.949375406901
 30
0.0
 11
59.72615627712674
 21
364.1601148817274
 31
0.0
1001
AcDbBlockRepETag
1070
     1
1071
      287
1005
3726
  0
LINE
  5
3727
330
23FC
100
AcDbEntity
  8
LAYER_1
 62
     7
100
AcDbLine
 10
83.86594034830729
 20
365.4234313964843
 30
0.0
 11
80.9513895670573
 21
369.2118306477864
 31
0.0
1001
AcDbBlockRepETag
1070
     1
1071
      288
1005
3727
  0
LINE
  5
3728
330
23FC
100
AcDbEntity
  8
LAYER_1
 62
     7
100
AcDbLine
 10
80.9513895670573
 20
369.2118306477864
 30
0.0
 11
76.79040323893229
 21
371.7377746582031
 31
0.0
1001
AcDbBlockRepETag
1070
     1
1071
      289
1005
3728
  0
LINE
  5
3729
330
23FC
100
AcDbEntity
  8
LAYER_1
 62
     7
100
AcDbLine
 10
83.86594034830729
 20
365.4234313964843
 30
0.0
 11
85.11409844292534
 21
365.4234313964843
 31
0.0
1001
AcDbBlockRepETag
1070
     1
1071
      290
1005
3729
  0
LINE
  5
38D1
330
23FC
100
AcDbEntity
  8
LAYER_1
 62
     7
100
AcDbLine
 10
83.44942830403644
 20
347.741478814019
 30
0.0
 11
85.53061048719618
 21
353.2145297580295
 31
0.0
1001
AcDbBlockRepETag
1070
     1
1071
      291
1005
38D1
  0
LINE
  5
38D2
330
23FC
100
AcDbEntity
  8
LAYER_1
 62
     7
100
AcDbLine
 10
85.53061048719618
 20
353.2145297580295
 30
0.0
 11
85.94574449327256
 21
359.5287007649739
 31
0.0
1001
AcDbBlockRepETag
1070
     1
1071
      292
1005
38D2
  0
LINE
  5
38D3
330
23FC
100
AcDbEntity
  8
LAYER_1
 62
     7
100
AcDbLine
 10
85.94574449327256
 20
359.5287007649739
 30
0.0
 11
85.11409844292534
 21
365.4234313964843
 31
0.0
1001
AcDbBlockRepETag
1070
     1
1071
      293
1005
38D3
  0
LINE
  5
38D4
330
23FC
100
AcDbEntity
  8
LAYER_1
 62
     7
100
AcDbLine
 10
83.44942830403644
 20
347.741478814019
 30
0.0
 11
77.20519273546006
 21
336.7953769259983
 31
0.0
1001
AcDbBlockRepETag
1070
     1
1071
      294
1005
38D4
  0
LINE
  5
38D5
330
23FC
100
AcDbEntity
  8
LAYER_1
 62
     7
100
AcDbLine
 10
77.20519273546006
 20
336.7953769259983
 30
0.0
 11
72.62769436306424
 21
325.8497918023004
 31
0.0
1001
AcDbBlockRepETag
1070
     1
1071
      295
1005
38D5
  0
LINE
  5
38D6
330
23FC
100
AcDbEntity
  8
LAYER_1
 62
     7
100
AcDbLine
 10
72.62769436306424
 20
325.8497918023004
 30
0.0
 11
69.71486612955728
 21
313.6410624186197
 31
0.0
1001
AcDbBlockRepETag
1070
     1
1071
      296
1005
38D6
  0
LINE
  5
38D7
330
23FC
100
AcDbEntity
  8
LAYER_1
 62
     7
100
AcDbLine
 10
65.55215725368923
 20
301.8526346842448
 30
0.0
 11
68.46498548719617
 21
307.7465040418837
 31
0.0
1001
AcDbBlockRepETag
1070
     1
1071
      297
1005
38D7
  0
LINE
  5
38D8
330
23FC
100
AcDbEntity
  8
LAYER_1
 62
     7
100
AcDbLine
 10
68.46498548719617
 20
307.7465040418837
 30
0.0
 11
69.71486612955728
 21
313.6410624186197
 31
0.0
1001
AcDbBlockRepETag
1070
     1
1071
      298
1005
38D8
  0
LINE
  5
38D9
330
23FC
100
AcDbEntity
  8
LAYER_1
 62
     7
100
AcDbLine
 10
65.55215725368923
 20
301.8526346842448
 30
0.0
 11
58.89313218858506
 21
305.2207322862413
 31
0.0
1001
AcDbBlockRepETag
1070
     1
1071
      299
1005
38D9
  0
LINE
  5
38DA
330
23FC
100
AcDbEntity
  8
LAYER_1
 62
     7
100
AcDbLine
 10
58.89313218858506
 20
305.2207322862413
 30
0.0
 11
51.40073852539062
 21
307.3260301378038
 31
0.0
1001
AcDbBlockRepETag
1070
     1
1071
      300
1005
38DA
  0
LINE
  5
38DB
330
23FC
100
AcDbEntity
  8
LAYER_1
 62
     7
100
AcDbLine
 10
51.40073852539062
 20
307.3260301378038
 30
0.0
 11
43.91041191948784
 21
307.7465040418837
 31
0.0
1001
AcDbBlockRepETag
1070
     1
1071
      301
1005
38DB
  0
LINE
  5
38DC
330
23FC
100
AcDbEntity
  8
LAYER_1
 62
     7
100
AcDbLine
 10
43.91041191948784
 20
307.7465040418837
 30
0.0
 11
36.00150621202257
 21
306.4840488009982
 31
0.0
1001
AcDbBlockRepETag
1070
     1
1071
      302
1005
38DC
  0
LINE
  5
38DD
330
23FC
100
AcDbEntity
  8
LAYER_1
 62
     7
100
AcDbLine
 10
36.00150621202257
 20
306.4840488009982
 30
0.0
 11
34.33683607313368
 21
305.6418952094184
 31
0.0
1001
AcDbBlockRepETag
1070
     1
1071
      303
1005
38DD
  0
LINE
  5
38DE
330
23FC
100
AcDbEntity
  8
LAYER_1
 62
     7
100
AcDbLine
 10
34.33683607313368
 20
305.6418952094184
 30
0.0
 11
33.50519002278646
 21
303.9581047905816
 31
0.0
1001
AcDbBlockRepETag
1070
     1
1071
      304
1005
38DE
  0
LINE
  5
38DF
330
23FC
100
AcDbEntity
  8
LAYER_1
 62
     7
100
AcDbLine
 10
33.50519002278646
 20
303.9581047905816
 30
0.0
 11
33.50519002278646
 21
302.2743143717448
 31
0.0
1001
AcDbBlockRepETag
1070
     1
1071
      305
1005
38DF
  0
LINE
  5
38E0
330
23FC
100
AcDbEntity
  8
LAYER_1
 62
     7
100
AcDbLine
 10
33.50519002278646
 20
302.2743143717448
 30
0.0
 11
34.75334811740451
 21
300.5903516981336
 31
0.0
1001
AcDbBlockRepETag
1070
     1
1071
      306
1005
38E0
  0
LINE
  5
38E1
330
23FC
100
AcDbEntity
  8
LAYER_1
 62
     7
100
AcDbLine
 10
34.75334811740451
 20
300.5903516981336
 30
0.0
 11
36.4180182562934
 21
299.7475090874566
 31
0.0
1001
AcDbBlockRepETag
1070
     1
1071
      307
1005
38E1
  0
LINE
  5
38E2
330
23FC
100
AcDbEntity
  8
LAYER_1
 62
     7
100
AcDbLine
 10
36.4180182562934
 20
299.7475090874566
 30
0.0
 11
38.0830329047309
 21
299.7475090874566
 31
0.0
1001
AcDbBlockRepETag
1070
     1
1071
      308
1005
38E2
  0
LINE
  5
38E3
330
23FC
100
AcDbEntity
  8
LAYER_1
 62
     7
100
AcDbLine
 10
38.0830329047309
 20
299.7475090874566
 30
0.0
 11
19.77062784830729
 21
290.0655849880642
 31
0.0
1001
AcDbBlockRepETag
1070
     1
1071
      309
1005
38E3
  0
LINE
  5
38E4
330
23FC
100
AcDbEntity
  8
LAYER_1
 62
     7
100
AcDbLine
 10
19.77062784830729
 20
290.0655849880642
 30
0.0
 11
18.93725925021701
 21
288.8020962185329
 31
0.0
1001
AcDbBlockRepETag
1070
     1
1071
      310
1005
38E4
  0
LINE
  5
38E5
330
23FC
100
AcDbEntity
  8
LAYER_1
 62
     7
100
AcDbLine
 10
18.93725925021701
 20
288.8020962185329
 30
0.0
 11
19.35411580403646
 21
287.5386074490017
 31
0.0
1001
AcDbBlockRepETag
1070
     1
1071
      311
1005
38E5
  0
LINE
  5
38E6
330
23FC
100
AcDbEntity
  8
LAYER_1
 62
     7
100
AcDbLine
 10
19.35411580403646
 20
287.5386074490017
 30
0.0
 11
20.60227389865451
 21
286.6967983669705
 31
0.0
1001
AcDbBlockRepETag
1070
     1
1071
      312
1005
38E6
  0
LINE
  5
38E7
330
23FC
100
AcDbEntity
  8
LAYER_1
 62
     7
100
AcDbLine
 10
20.60227389865451
 20
286.6967983669705
 30
0.0
 11
21.85043199327257
 21
287.1183057996962
 31
0.0
1001
AcDbBlockRepETag
1070
     1
1071
      313
1005
38E7
  0
LINE
  5
38E8
330
23FC
100
AcDbEntity
  8
LAYER_1
 62
     7
100
AcDbLine
 10
23.09996812608507
 20
279.9611199273003
 30
0.0
 11
24.34812622070313
 21
281.6450826009115
 31
0.0
1001
AcDbBlockRepETag
1070
     1
1071
      314
1005
38E8
  0
LINE
  5
38E9
330
23FC
100
AcDbEntity
  8
LAYER_1
 62
     7
100
AcDbLine
 10
24.34812622070313
 20
281.6450826009115
 30
0.0
 11
24.34812622070313
 21
284.1710266113281
 31
0.0
1001
AcDbBlockRepETag
1070
     1
1071
      315
1005
38E9
  0
LINE
  5
38EA
330
23FC
100
AcDbEntity
  8
LAYER_1
 62
     7
100
AcDbLine
 10
24.34812622070313
 20
284.1710266113281
 30
0.0
 11
23.51510213216146
 21
285.8548170301649
 31
0.0
1001
AcDbBlockRepETag
1070
     1
1071
      316
1005
38EA
  0
LINE
  5
38EB
330
23FC
100
AcDbEntity
  8
LAYER_1
 62
     7
100
AcDbLine
 10
23.51510213216146
 20
285.8548170301649
 30
0.0
 11
21.85043199327257
 21
287.1183057996962
 31
0.0
1001
AcDbBlockRepETag
1070
     1
1071
      317
1005
38EB
  0
LINE
  5
38EC
330
23FC
100
AcDbEntity
  8
LAYER_1
 62
     7
100
AcDbLine
 10
23.09996812608507
 20
279.9611199273003
 30
0.0
 11
15.60791897243923
 21
266.0684278700086
 31
0.0
1001
AcDbBlockRepETag
1070
     1
1071
      318
1005
38EC
  0
LINE
  5
38ED
330
23FC
100
AcDbEntity
  8
LAYER_1
 62
     7
100
AcDbLine
 10
15.60791897243923
 20
266.0684278700086
 30
0.0
 11
26.84444240993923
 21
266.0684278700086
 31
0.0
1001
AcDbBlockRepETag
1070
     1
1071
      319
1005
38ED
  0
LINE
  5
38EE
330
23FC
100
AcDbEntity
  8
LAYER_1
 62
     7
100
AcDbLine
 10
26.84444240993923
 20
266.0684278700086
 30
0.0
 11
38.0830329047309
 21
268.1730367024739
 31
0.0
1001
AcDbBlockRepETag
1070
     1
1071
      320
1005
38EE
  0
LINE
  5
38EF
330
23FC
100
AcDbEntity
  8
LAYER_1
 62
     7
100
AcDbLine
 10
38.0830329047309
 20
268.1730367024739
 30
0.0
 11
36.4180182562934
 21
266.4890740288628
 31
0.0
1001
AcDbBlockRepETag
1070
     1
1071
      321
1005
38EF
  0
LINE
  5
38F0
330
23FC
100
AcDbEntity
  8
LAYER_1
 62
     7
100
AcDbLine
 10
36.4180182562934
 20
266.4890740288628
 30
0.0
 11
36.4180182562934
 21
263.9631300184462
 31
0.0
1001
AcDbBlockRepETag
1070
     1
1071
      322
1005
38F0
  0
LINE
  5
38F1
330
23FC
100
AcDbEntity
  8
LAYER_1
 62
     7
100
AcDbLine
 10
36.4180182562934
 20
263.9631300184462
 30
0.0
 11
38.0830329047309
 21
262.2791673448351
 31
0.0
1001
AcDbBlockRepETag
1070
     1
1071
      323
1005
38F1
  0
LINE
  5
38F2
330
23FC
100
AcDbEntity
  8
LAYER_1
 62
     7
100
AcDbLine
 10
38.0830329047309
 20
262.2791673448351
 30
0.0
 11
40.16421508789061
 21
262.2791673448351
 31
0.0
1001
AcDbBlockRepETag
1070
     1
1071
      324
1005
38F2
  0
LINE
  5
38F3
330
23FC
100
AcDbEntity
  8
LAYER_1
 62
     7
100
AcDbLine
 10
40.16421508789061
 20
262.2791673448351
 30
0.0
 11
41.82888522677951
 21
263.5426561143663
 31
0.0
1001
AcDbBlockRepETag
1070
     1
1071
      325
1005
38F3
  0
LINE
  5
38F4
330
23FC
100
AcDbEntity
  8
LAYER_1
 62
     7
100
AcDbLine
 10
55.14693535698784
 20
275.3300503200954
 30
0.0
 11
48.48791029188368
 21
269.8576883951822
 31
0.0
1001
AcDbBlockRepETag
1070
     1
1071
      326
1005
38F4
  0
LINE
  5
38F5
330
23FC
100
AcDbEntity
  8
LAYER_1
 62
     7
100
AcDbLine
 10
48.48791029188368
 20
269.8576883951822
 30
0.0
 11
41.82888522677951
 21
263.5426561143663
 31
0.0
1001
AcDbBlockRepETag
1070
     1
1071
      327
1005
38F5
  0
LINE
  5
38F6
330
23FC
100
AcDbEntity
  8
LAYER_1
 62
     7
100
AcDbLine
 10
58.89313218858506
 20
268.1730367024739
 30
0.0
 11
60.14129028320311
 21
269.8576883951822
 31
0.0
1001
AcDbBlockRepETag
1070
     1
1071
      328
1005
38F6
  0
LINE
  5
38F7
330
23FC
100
AcDbEntity
  8
LAYER_1
 62
     7
100
AcDbLine
 10
60.14129028320311
 20
269.8576883951822
 30
0.0
 11
60.14129028320311
 21
271.9621249728732
 31
0.0
1001
AcDbBlockRepETag
1070
     1
1071
      329
1005
38F7
  0
LINE
  5
38F8
330
23FC
100
AcDbEntity
  8
LAYER_1
 62
     7
100
AcDbLine
 10
60.14129028320311
 20
271.9621249728732
 30
0.0
 11
58.89313218858506
 21
274.0674228244358
 31
0.0
1001
AcDbBlockRepETag
1070
     1
1071
      330
1005
38F8
  0
LINE
  5
38F9
330
23FC
100
AcDbEntity
  8
LAYER_1
 62
     7
100
AcDbLine
 10
58.89313218858506
 20
274.0674228244358
 30
0.0
 11
57.22811754014756
 21
275.3300503200954
 31
0.0
1001
AcDbBlockRepETag
1070
     1
1071
      331
1005
38F9
  0
LINE
  5
38FA
330
23FC
100
AcDbEntity
  8
LAYER_1
 62
     7
100
AcDbLine
 10
57.22811754014756
 20
275.3300503200954
 30
0.0
 11
55.14693535698784
 21
275.3300503200954
 31
0.0
1001
AcDbBlockRepETag
1070
     1
1071
      332
1005
38FA
  0
LINE
  5
38FB
330
23FC
100
AcDbEntity
  8
LAYER_1
 62
     7
100
AcDbLine
 10
49.73606838650173
 20
259.3329216851128
 30
0.0
 11
55.14693535698784
 21
263.1211486816406
 31
0.0
1001
AcDbBlockRepETag
1070
     1
1071
      333
1005
38FB
  0
LINE
  5
38FC
330
23FC
100
AcDbEntity
  8
LAYER_1
 62
     7
100
AcDbLine
 10
55.14693535698784
 20
263.1211486816406
 30
0.0
 11
58.89313218858506
 21
268.1730367024739
 31
0.0
1001
AcDbBlockRepETag
1070
     1
1071
      334
1005
38FC
  0
LINE
  5
38FD
330
23FC
100
AcDbEntity
  8
LAYER_1
 62
     7
100
AcDbLine
 10
43.91041191948784
 20
245.4393683539496
 30
0.0
 11
49.73606838650173
 21
259.3329216851128
 31
0.0
1001
AcDbBlockRepETag
1070
     1
1071
      335
1005
38FD
  0
LINE
  5
38FE
330
23FC
100
AcDbEntity
  8
LAYER_1
 62
     7
100
AcDbLine
 10
43.91041191948784
 20
245.4393683539496
 30
0.0
 11
43.91041191948784
 21
243.3349317762587
 31
0.0
1001
AcDbBlockRepETag
1070
     1
1071
      336
1005
38FE
  0
LINE
  5
38FF
330
23FC
100
AcDbEntity
  8
LAYER_1
 62
     7
100
AcDbLine
 10
43.91041191948784
 20
243.3349317762587
 30
0.0
 11
45.1585700141059
 21
241.6509691026476
 31
0.0
1001
AcDbBlockRepETag
1070
     1
1071
      337
1005
38FF
  0
LINE
  5
3900
330
23FC
100
AcDbEntity
  8
LAYER_1
 62
     7
100
AcDbLine
 10
45.1585700141059
 20
241.6509691026476
 30
0.0
 11
47.23975219726562
 21
241.2294616699218
 31
0.0
1001
AcDbBlockRepETag
1070
     1
1071
      338
1005
3900
  0
LINE
  5
3901
330
23FC
100
AcDbEntity
  8
LAYER_1
 62
     7
100
AcDbLine
 10
47.23975219726562
 20
241.2294616699218
 30
0.0
 11
48.90442233615451
 21
242.4929504394531
 31
0.0
1001
AcDbBlockRepETag
1070
     1
1071
      339
1005
3901
  0
LINE
  5
3902
330
23FC
100
AcDbEntity
  8
LAYER_1
 62
     7
100
AcDbLine
 10
48.90442233615451
 20
242.4929504394531
 30
0.0
 11
49.32127888997396
 21
245.0187221950955
 31
0.0
1001
AcDbBlockRepETag
1070
     1
1071
      340
1005
3902
  0
LINE
  5
3903
330
23FC
100
AcDbEntity
  8
LAYER_1
 62
     7
100
AcDbLine
 10
49.32127888997396
 20
245.0187221950955
 30
0.0
 11
48.90442233615451
 21
237.0197272406684
 31
0.0
1001
AcDbBlockRepETag
1070
     1
1071
      341
1005
3903
  0
LINE
  5
3904
330
23FC
100
AcDbEntity
  8
LAYER_1
 62
     7
100
AcDbLine
 10
48.90442233615451
 20
237.0197272406684
 30
0.0
 11
49.73606838650173
 21
229.442239718967
 31
0.0
1001
AcDbBlockRepETag
1070
     1
1071
      342
1005
3904
  0
LINE
  5
3905
330
23FC
100
AcDbEntity
  8
LAYER_1
 62
     7
100
AcDbLine
 10
49.73606838650173
 20
229.442239718967
 30
0.0
 11
52.65061916775173
 21
222.2850538465712
 31
0.0
1001
AcDbBlockRepETag
1070
     1
1071
      343
1005
3905
  0
LINE
  5
3906
330
23FC
100
AcDbEntity
  8
LAYER_1
 62
     7
100
AcDbLine
 10
52.65061916775173
 20
222.2850538465712
 30
0.0
 11
57.22811754014756
 21
226.0734530978733
 31
0.0
1001
AcDbBlockRepETag
1070
     1
1071
      344
1005
3906
  0
LINE
  5
3907
330
23FC
100
AcDbEntity
  8
LAYER_1
 62
     7
100
AcDbLine
 10
57.22811754014756
 20
226.0734530978733
 30
0.0
 11
60.55780232747395
 21
217.6539842393663
 31
0.0
1001
AcDbBlockRepETag
1070
     1
1071
      345
1005
3907
  0
LINE
  5
3908
330
23FC
100
AcDbEntity
  8
LAYER_1
 62
     7
100
AcDbLine
 10
60.55780232747395
 20
217.6539842393663
 30
0.0
 11
65.55215725368923
 21
209.6549892849392
 31
0.0
1001
AcDbBlockRepETag
1070
     1
1071
      346
1005
3908
  0
LINE
  5
3909
330
23FC
100
AcDbEntity
  8
LAYER_1
 62
     7
100
AcDbLine
 10
65.55215725368923
 20
209.6549892849392
 30
0.0
 11
67.63333943684895
 21
207.9710266113281
 31
0.0
1001
AcDbBlockRepETag
1070
     1
1071
      347
1005
3909
  0
LINE
  5
390A
330
23FC
100
AcDbEntity
  8
LAYER_1
 62
     7
100
AcDbLine
 10
67.63333943684895
 20
207.9710266113281
 30
0.0
 11
70.13137817382812
 21
207.550380452474
 31
0.0
1001
AcDbBlockRepETag
1070
     1
1071
      348
1005
390A
  0
LINE
  5
390B
330
23FC
100
AcDbEntity
  8
LAYER_1
 62
     7
100
AcDbLine
 10
70.13137817382812
 20
207.550380452474
 30
0.0
 11
72.62769436306424
 21
208.3923617892795
 31
0.0
1001
AcDbBlockRepETag
1070
     1
1071
      349
1005
390B
  0
LINE
  5
390C
330
23FC
100
AcDbEntity
  8
LAYER_1
 62
     7
100
AcDbLine
 10
72.62769436306424
 20
208.3923617892795
 30
0.0
 11
74.29236450195311
 21
210.4969706217448
 31
0.0
1001
AcDbBlockRepETag
1070
     1
1071
      350
1005
390C
  0
LINE
  5
390D
330
23FC
100
AcDbEntity
  8
LAYER_1
 62
     7
100
AcDbLine
 10
81.36790161132813
 20
225.6529791937934
 30
0.0
 11
74.29236450195311
 21
210.4969706217448
 31
0.0
1001
AcDbBlockRepETag
1070
     1
1071
      351
1005
390D
  0
LINE
  5
390E
330
23FC
100
AcDbEntity
  8
LAYER_1
 62
     7
100
AcDbLine
 10
81.36790161132813
 20
225.6529791937934
 30
0.0
 11
84.28107435438368
 21
223.5476813422309
 31
0.0
1001
AcDbBlockRepETag
1070
     1
1071
      352
1005
390E
  0
LINE
  5
390F
330
23FC
100
AcDbEntity
  8
LAYER_1
 62
     7
100
AcDbLine
 10
84.28107435438368
 20
223.5476813422309
 30
0.0
 11
87.19562513563367
 21
222.2850538465712
 31
0.0
1001
AcDbBlockRepETag
1070
     1
1071
      353
1005
390F
  0
LINE
  5
3910
330
23FC
100
AcDbEntity
  8
LAYER_1
 62
     7
100
AcDbLine
 10
87.19562513563367
 20
222.2850538465712
 30
0.0
 11
88.44343872070311
 21
229.8627136230468
 31
0.0
1001
AcDbBlockRepETag
1070
     1
1071
      354
1005
3910
  0
LINE
  5
3911
330
23FC
100
AcDbEntity
  8
LAYER_1
 62
     7
100
AcDbLine
 10
88.44343872070311
 20
229.8627136230468
 30
0.0
 11
88.44343872070311
 21
237.4412346733941
 31
0.0
1001
AcDbBlockRepETag
1070
     1
1071
      355
1005
3911
  0
LINE
  5
3912
330
23FC
100
AcDbEntity
  8
LAYER_1
 62
     7
100
AcDbLine
 10
88.44343872070311
 20
237.4412346733941
 30
0.0
 11
87.19562513563367
 21
245.0187221950955
 31
0.0
1001
AcDbBlockRepETag
1070
     1
1071
      356
1005
3912
  0
LINE
  5
3913
330
23FC
100
AcDbEntity
  8
LAYER_1
 62
     7
100
AcDbLine
 10
87.19562513563367
 20
245.0187221950955
 30
0.0
 11
94.68595174153646
 21
241.6509691026476
 31
0.0
1001
AcDbBlockRepETag
1070
     1
1071
      357
1005
3913
  0
LINE
  5
3914
330
23FC
100
AcDbEntity
  8
LAYER_1
 62
     7
100
AcDbLine
 10
94.68595174153646
 20
241.6509691026476
 30
0.0
 11
93.43779364691839
 21
247.5446662055121
 31
0.0
1001
AcDbBlockRepETag
1070
     1
1071
      358
1005
3914
  0
LINE
  5
3915
330
23FC
100
AcDbEntity
  8
LAYER_1
 62
     7
100
AcDbLine
 10
93.43779364691839
 20
247.5446662055121
 30
0.0
 11
90.94147745768228
 21
253.0177171495226
 31
0.0
1001
AcDbBlockRepETag
1070
     1
1071
      359
1005
3915
  0
LINE
  5
3916
330
23FC
100
AcDbEntity
  8
LAYER_1
 62
     7
100
AcDbLine
 10
90.94147745768228
 20
253.0177171495226
 30
0.0
 11
87.61041463216145
 21
257.6480977376302
 31
0.0
1001
AcDbBlockRepETag
1070
     1
1071
      360
1005
3916
  0
LINE
  5
3917
330
23FC
100
AcDbEntity
  8
LAYER_1
 62
     7
100
AcDbLine
 10
87.61041463216145
 20
257.6480977376302
 30
0.0
 11
82.61605970594617
 21
261.4373582628038
 31
0.0
1001
AcDbBlockRepETag
1070
     1
1071
      361
1005
3917
  0
LINE
  5
3918
330
23FC
100
AcDbEntity
  8
LAYER_1
 62
     7
100
AcDbLine
 10
83.86594034830729
 20
273.2256137424045
 30
0.0
 11
81.36790161132813
 21
271.1201436360677
 31
0.0
1001
AcDbBlockRepETag
1070
     1
1071
      362
1005
3918
  0
LINE
  5
3919
330
23FC
100
AcDbEntity
  8
LAYER_1
 62
     7
100
AcDbLine
 10
81.36790161132813
 20
271.1201436360677
 30
0.0
 11
80.11974351671005
 21
267.7523905436197
 31
0.0
1001
AcDbBlockRepETag
1070
     1
1071
      363
1005
3919
  0
LINE
  5
391A
330
23FC
100
AcDbEntity
  8
LAYER_1
 62
     7
100
AcDbLine
 10
80.11974351671005
 20
267.7523905436197
 30
0.0
 11
80.5366000705295
 21
264.3846374511718
 31
0.0
1001
AcDbBlockRepETag
1070
     1
1071
      364
1005
391A
  0
LINE
  5
391B
330
23FC
100
AcDbEntity
  8
LAYER_1
 62
     7
100
AcDbLine
 10
80.5366000705295
 20
264.3846374511718
 30
0.0
 11
82.61605970594617
 21
261.4373582628038
 31
0.0
1001
AcDbBlockRepETag
1070
     1
1071
      365
1005
391B
  0
LINE
  5
391C
330
23FC
100
AcDbEntity
  8
LAYER_1
 62
     7
100
AcDbLine
 10
91.35661146375866
 20
266.0684278700086
 30
0.0
 11
89.69159681532117
 21
269.4363532172309
 31
0.0
1001
AcDbBlockRepETag
1070
     1
1071
      366
1005
391C
  0
LINE
  5
391D
330
23FC
100
AcDbEntity
  8
LAYER_1
 62
     7
100
AcDbLine
 10
89.69159681532117
 20
269.4363532172309
 30
0.0
 11
87.19562513563367
 21
271.9621249728732
 31
0.0
1001
AcDbBlockRepETag
1070
     1
1071
      367
1005
391D
  0
LINE
  5
391E
330
23FC
100
AcDbEntity
  8
LAYER_1
 62
     7
100
AcDbLine
 10
87.19562513563367
 20
271.9621249728732
 30
0.0
 11
83.86594034830729
 21
273.2256137424045
 31
0.0
1001
AcDbBlockRepETag
1070
     1
1071
      368
1005
391E
  0
LINE
  5
391F
330
23FC
100
AcDbEntity
  8
LAYER_1
 62
     7
100
AcDbLine
 10
91.35661146375866
 20
266.0684278700086
 30
0.0
 11
93.43779364691839
 21
261.0167121039496
 31
0.0
1001
AcDbBlockRepETag
1070
     1
1071
      369
1005
391F
  0
LINE
  5
3920
330
23FC
100
AcDbEntity
  8
LAYER_1
 62
     7
100
AcDbLine
 10
93.43779364691839
 20
261.0167121039496
 30
0.0
 11
97.18399047851562
 21
257.6480977376302
 31
0.0
1001
AcDbBlockRepETag
1070
     1
1071
      370
1005
3920
  0
LINE
  5
3921
330
23FC
100
AcDbEntity
  8
LAYER_1
 62
     7
100
AcDbLine
 10
97.18399047851562
 20
257.6480977376302
 30
0.0
 11
100.5133307562934
 21
261.4373582628038
 31
0.0
1001
AcDbBlockRepETag
1070
     1
1071
      371
1005
3921
  0
LINE
  5
3922
330
23FC
100
AcDbEntity
  8
LAYER_1
 62
     7
100
AcDbLine
 10
100.5133307562934
 20
261.4373582628038
 30
0.0
 11
115.4960510253906
 21
254.7016798231336
 31
0.0
1001
AcDbBlockRepETag
1070
     1
1071
      372
1005
3922
  0
LINE
  5
3923
330
23FC
100
AcDbEntity
  8
LAYER_1
 62
     7
100
AcDbLine
 10
115.4960510253906
 20
254.7016798231336
 30
0.0
 11
115.4960510253906
 21
265.2266187879774
 31
0.0
1001
AcDbBlockRepETag
1070
     1
1071
      373
1005
3923
  0
LINE
  5
3924
330
23FC
100
AcDbEntity
  8
LAYER_1
 62
     7
100
AcDbLine
 10
115.4960510253906
 20
265.2266187879774
 30
0.0
 11
110.9185526529947
 21
275.3300503200954
 31
0.0
1001
AcDbBlockRepETag
1070
     1
1071
      374
1005
3924
  0
LINE
  5
3925
330
23FC
100
AcDbEntity
  8
LAYER_1
 62
     7
100
AcDbLine
 10
110.9185526529947
 20
275.3300503200954
 30
0.0
 11
112.1667107476128
 21
274.4880689832899
 31
0.0
1001
AcDbBlockRepETag
1070
     1
1071
      375
1005
3925
  0
LINE
  5
3926
330
23FC
100
AcDbEntity
  8
LAYER_1
 62
     7
100
AcDbLine
 10
112.1667107476128
 20
274.4880689832899
 30
0.0
 11
113.8313808865017
 21
274.4880689832899
 31
0.0
1001
AcDbBlockRepETag
1070
     1
1071
      376
1005
3926
  0
LINE
  5
3927
330
23FC
100
AcDbEntity
  8
LAYER_1
 62
     7
100
AcDbLine
 10
113.8313808865017
 20
274.4880689832899
 30
0.0
 11
115.4960510253906
 21
274.9094041612413
 31
0.0
1001
AcDbBlockRepETag
1070
     1
1071
      377
1005
3927
  0
LINE
  5
3928
330
23FC
100
AcDbEntity
  8
LAYER_1
 62
     7
100
AcDbLine
 10
115.4960510253906
 20
274.9094041612413
 30
0.0
 11
116.3294196234809
 21
276.172031656901
 31
0.0
1001
AcDbBlockRepETag
1070
     1
1071
      378
1005
3928
  0
LINE
  5
3929
330
23FC
100
AcDbEntity
  8
LAYER_1
 62
     7
100
AcDbLine
 10
116.3294196234809
 20
276.172031656901
 30
0.0
 11
116.7459316677517
 21
277.8558220757378
 31
0.0
1001
AcDbBlockRepETag
1070
     1
1071
      379
1005
3929
  0
LINE
  5
392A
330
23FC
100
AcDbEntity
  8
LAYER_1
 62
     7
100
AcDbLine
 10
116.7459316677517
 20
277.8558220757378
 30
0.0
 11
108.0057244194878
 21
286.6967983669705
 31
0.0
1001
AcDbBlockRepETag
1070
     1
1071
      380
1005
392A
  0
LINE
  5
392B
330
23FC
100
AcDbEntity
  8
LAYER_1
 62
     7
100
AcDbLine
 10
108.0057244194878
 20
286.6967983669705
 30
0.0
 11
98.01563652886285
 21
293.853811984592
 31
0.0
1001
AcDbBlockRepETag
1070
     1
1071
      381
1005
392B
  0
LINE
  5
392C
330
23FC
100
AcDbEntity
  8
LAYER_1
 62
     7
100
AcDbLine
 10
98.01563652886285
 20
293.853811984592
 30
0.0
 11
101.7614888509114
 21
294.6957933213976
 31
0.0
1001
AcDbBlockRepETag
1070
     1
1071
      382
1005
392C
  0
LINE
  5
392D
330
23FC
100
AcDbEntity
  8
LAYER_1
 62
     7
100
AcDbLine
 10
101.7614888509114
 20
294.6957933213976
 30
0.0
 11
105.5076856825086
 21
296.3797559950087
 31
0.0
1001
AcDbBlockRepETag
1070
     1
1071
      383
1005
392D
  0
LINE
  5
392E
330
23FC
100
AcDbEntity
  8
LAYER_1
 62
     7
100
AcDbLine
 10
105.5076856825086
 20
296.3797559950087
 30
0.0
 11
106.7558437771267
 21
298.0637186686197
 31
0.0
1001
AcDbBlockRepETag
1070
     1
1071
      384
1005
392E
  0
LINE
  5
392F
330
23FC
100
AcDbEntity
  8
LAYER_1
 62
     7
100
AcDbLine
 10
106.7558437771267
 20
298.0637186686197
 30
0.0
 11
106.3410542805989
 21
299.7475090874566
 31
0.0
1001
AcDbBlockRepETag
1070
     1
1071
      385
1005
392F
  0
LINE
  5
3930
330
23FC
100
AcDbEntity
  8
LAYER_1
 62
     7
100
AcDbLine
 10
106.3410542805989
 20
299.7475090874566
 30
0.0
 11
104.2595275878906
 21
300.5903516981336
 31
0.0
1001
AcDbBlockRepETag
1070
     1
1071
      386
1005
3930
  0
LINE
  5
3931
330
23FC
100
AcDbEntity
  8
LAYER_1
 62
     7
100
AcDbLine
 10
104.2595275878906
 20
300.5903516981336
 30
0.0
 11
91.35661146375866
 21
301.0109978569878
 31
0.0
1001
AcDbBlockRepETag
1070
     1
1071
      387
1005
3931
  0
LINE
  5
3932
330
23FC
100
AcDbEntity
  8
LAYER_1
 62
     7
100
AcDbLine
 10
91.35661146375866
 20
301.0109978569878
 30
0.0
 11
78.87020738389757
 21
299.3270351833767
 31
0.0
1001
AcDbBlockRepETag
1070
     1
1071
      388
1005
3932
  0
LINE
  5
3933
330
23FC
100
AcDbEntity
  8
LAYER_1
 62
     7
100
AcDbLine
 10
74.70887654622394
 20
303.9581047905816
 30
0.0
 11
74.70887654622394
 21
301.4323330349392
 31
0.0
1001
AcDbBlockRepETag
1070
     1
1071
      389
1005
3933
  0
LINE
  5
3934
330
23FC
100
AcDbEntity
  8
LAYER_1
 62
     7
100
AcDbLine
 10
74.70887654622394
 20
301.4323330349392
 30
0.0
 11
76.37389119466146
 21
299.7475090874566
 31
0.0
1001
AcDbBlockRepETag
1070
     1
1071
      390
1005
3934
  0
LINE
  5
3935
330
23FC
100
AcDbEntity
  8
LAYER_1
 62
     7
100
AcDbLine
 10
76.37389119466146
 20
299.7475090874566
 30
0.0
 11
78.87020738389757
 21
299.3270351833767
 31
0.0
1001
AcDbBlockRepETag
1070
     1
1071
      391
1005
3935
  0
LINE
  5
3936
330
23FC
100
AcDbEntity
  8
LAYER_1
 62
     7
100
AcDbLine
 10
88.44343872070311
 20
338.4791673448351
 30
0.0
 11
83.032571750217
 21
327.5337544759115
 31
0.0
1001
AcDbBlockRepETag
1070
     1
1071
      392
1005
3936
  0
LINE
  5
3937
330
23FC
100
AcDbEntity
  8
LAYER_1
 62
     7
100
AcDbLine
 10
83.032571750217
 20
327.5337544759115
 30
0.0
 11
78.45507337782118
 21
315.7454989963107
 31
0.0
1001
AcDbBlockRepETag
1070
     1
1071
      393
1005
3937
  0
LINE
  5
3938
330
23FC
100
AcDbEntity
  8
LAYER_1
 62
     7
100
AcDbLine
 10
78.45507337782118
 20
315.7454989963107
 30
0.0
 11
74.70887654622394
 21
303.9581047905816
 31
0.0
1001
AcDbBlockRepETag
1070
     1
1071
      394
1005
3938
  0
LINE
  5
3939
330
23FC
100
AcDbEntity
  8
LAYER_1
 62
     7
100
AcDbLine
 10
88.44343872070311
 20
338.4791673448351
 30
0.0
 11
92.18963555230034
 21
343.9523905436197
 31
0.0
1001
AcDbBlockRepETag
1070
     1
1071
      395
1005
3939
  0
LINE
  5
393A
330
23FC
100
AcDbEntity
  8
LAYER_1
 62
     7
100
AcDbLine
 10
92.18963555230034
 20
343.9523905436197
 30
0.0
 11
94.68595174153646
 21
349.8460876464843
 31
0.0
1001
AcDbBlockRepETag
1070
     1
1071
      396
1005
393A
  0
LINE
  5
393B
330
23FC
100
AcDbEntity
  8
LAYER_1
 62
     7
100
AcDbLine
 10
94.68595174153646
 20
349.8460876464843
 30
0.0
 11
95.51932033962673
 21
356.5824551052517
 31
0.0
1001
AcDbBlockRepETag
1070
     1
1071
      397
1005
393B
  0
LINE
  5
393C
330
23FC
100
AcDbEntity
  8
LAYER_1
 62
     7
100
AcDbLine
 10
95.51932033962673
 20
356.5824551052517
 30
0.0
 11
95.10246378580729
 21
362.8967983669705
 31
0.0
1001
AcDbBlockRepETag
1070
     1
1071
      398
1005
393C
  0
LINE
  5
410A
330
23FC
100
AcDbEntity
  8
LAYER_1
 62
     7
100
AcDbLine
 10
68.46498548719617
 20
297.2217373318142
 30
0.0
 11
68.46498548719617
 21
207.550380452474
 31
0.0
1001
AcDbBlockRepETag
1070
     1
1071
      399
1005
410A
  0
LINE
  5
4124
330
23FC
100
AcDbEntity
  8
LAYER_1
 62
     7
100
AcDbLine
 10
38.0830329047309
 20
268.5943718804253
 30
0.0
 11
58.47662014431423
 21
287.9601148817274
 31
0.0
1001
AcDbBlockRepETag
1070
     1
1071
      400
1005
4124
  0
LINE
  5
4125
330
23FC
100
AcDbEntity
  8
LAYER_1
 62
     7
100
AcDbLine
 10
16.43956502278645
 20
266.9104092068142
 30
0.0
 11
57.644974093967
 21
293.853811984592
 31
0.0
1001
AcDbBlockRepETag
1070
     1
1071
      401
1005
4125
  0
LINE
  5
4150
330
23FC
100
AcDbEntity
  8
LAYER_1
 62
     7
100
AcDbLine
 10
58.47662014431423
 20
227.7582770453559
 30
0.0
 11
65.13530069986979
 21
260.5953769259983
 31
0.0
1001
AcDbBlockRepETag
1070
     1
1071
      402
1005
4150
  0
LINE
  5
415E
330
23FC
100
AcDbEntity
  8
LAYER_1
 62
     7
100
AcDbLine
 10
26.42965291341146
 20
290.4860588921441
 30
0.0
 11
50.56943698459201
 21
294.6957933213976
 31
0.0
1001
AcDbBlockRepETag
1070
     1
1071
      403
1005
415E
  0
LINE
  5
415F
330
23FC
100
AcDbEntity
  8
LAYER_1
 62
     7
100
AcDbLine
 10
180.8410719129774
 20
302.6947882758246
 30
0.0
 11
192.0782843695746
 21
309.0099928114149
 31
0.0
1001
AcDbBlockRepETag
1070
     1
1071
      404
1005
415F
  0
LINE
  5
4160
330
23FC
100
AcDbEntity
  8
LAYER_1
 62
     7
100
AcDbLine
 10
192.0782843695746
 20
309.0099928114149
 30
0.0
 11
199.153476969401
 21
306.0625413682725
 31
0.0
1001
AcDbBlockRepETag
1070
     1
1071
      405
1005
4160
  0
LINE
  5
4161
330
23FC
100
AcDbEntity
  8
LAYER_1
 62
     7
100
AcDbLine
 10
199.153476969401
 20
306.0625413682725
 30
0.0
 11
206.6455261230469
 21
305.2207322862413
 31
0.0
1001
AcDbBlockRepETag
1070
     1
1071
      406
1005
4161
  0
LINE
  5
4162
330
23FC
100
AcDbEntity
  8
LAYER_1
 62
     7
100
AcDbLine
 10
206.6455261230469
 20
305.2207322862413
 30
0.0
 11
214.5530537923177
 21
306.0625413682725
 31
0.0
1001
AcDbBlockRepETag
1070
     1
1071
      407
1005
4162
  0
LINE
  5
4163
330
23FC
100
AcDbEntity
  8
LAYER_1
 62
     7
100
AcDbLine
 10
214.5530537923177
 20
306.0625413682725
 30
0.0
 11
222.0454474555122
 21
308.5884853786892
 31
0.0
1001
AcDbBlockRepETag
1070
     1
1071
      408
1005
4163
  0
LINE
  5
4164
330
23FC
100
AcDbEntity
  8
LAYER_1
 62
     7
100
AcDbLine
 10
222.0454474555122
 20
308.5884853786892
 30
0.0
 11
228.7041280110677
 21
312.7990810818142
 31
0.0
1001
AcDbBlockRepETag
1070
     1
1071
      409
1005
4164
  0
LINE
  5
4165
330
23FC
100
AcDbEntity
  8
LAYER_1
 62
     7
100
AcDbLine
 10
228.7041280110677
 20
312.7990810818142
 30
0.0
 11
233.6981384277343
 21
318.2714430067274
 31
0.0
1001
AcDbBlockRepETag
1070
     1
1071
      410
1005
4165
  0
LINE
  5
4166
330
23FC
100
AcDbEntity
  8
LAYER_1
 62
     7
100
AcDbLine
 10
233.6981384277343
 20
318.2714430067274
 30
0.0
 11
234.5318515353732
 21
308.5884853786892
 31
0.0
1001
AcDbBlockRepETag
1070
     1
1071
      411
1005
4166
  0
LINE
  5
4167
330
23FC
100
AcDbEntity
  8
LAYER_1
 62
     7
100
AcDbLine
 10
234.5318515353732
 20
308.5884853786892
 30
0.0
 11
236.6126892089844
 21
299.3270351833767
 31
0.0
1001
AcDbBlockRepETag
1070
     1
1071
      412
1005
4167
  0
LINE
  5
4168
330
23FC
100
AcDbEntity
  8
LAYER_1
 62
     7
100
AcDbLine
 10
236.6126892089844
 20
299.3270351833767
 30
0.0
 11
237.861191813151
 21
297.2217373318142
 31
0.0
1001
AcDbBlockRepETag
1070
     1
1071
      413
1005
4168
  0
LINE
  5
4169
330
23FC
100
AcDbEntity
  8
LAYER_1
 62
     7
100
AcDbLine
 10
237.861191813151
 20
297.2217373318142
 30
0.0
 11
239.9427185058593
 21
296.8010911729601
 31
0.0
1001
AcDbBlockRepETag
1070
     1
1071
      414
1005
4169
  0
LINE
  5
416A
330
23FC
100
AcDbEntity
  8
LAYER_1
 62
     7
100
AcDbLine
 10
239.9427185058593
 20
296.8010911729601
 30
0.0
 11
242.022178141276
 21
298.4850538465711
 31
0.0
1001
AcDbBlockRepETag
1070
     1
1071
      415
1005
416A
  0
LINE
  5
416B
330
23FC
100
AcDbEntity
  8
LAYER_1
 62
     7
100
AcDbLine
 10
242.022178141276
 20
298.4850538465711
 30
0.0
 11
242.4390346950955
 21
300.5903516981336
 31
0.0
1001
AcDbBlockRepETag
1070
     1
1071
      416
1005
416B
  0
LINE
  5
416C
330
23FC
100
AcDbEntity
  8
LAYER_1
 62
     7
100
AcDbLine
 10
242.4390346950955
 20
300.5903516981336
 30
0.0
 11
254.0920701768663
 21
291.749375406901
 31
0.0
1001
AcDbBlockRepETag
1070
     1
1071
      417
1005
416C
  0
LINE
  5
416D
330
23FC
100
AcDbEntity
  8
LAYER_1
 62
     7
100
AcDbLine
 10
254.0920701768663
 20
291.749375406901
 30
0.0
 11
256.173252360026
 21
290.0655849880642
 31
0.0
1001
AcDbBlockRepETag
1070
     1
1071
      418
1005
416D
  0
LINE
  5
416E
330
23FC
100
AcDbEntity
  8
LAYER_1
 62
     7
100
AcDbLine
 10
256.173252360026
 20
290.0655849880642
 30
0.0
 11
258.2547790527343
 21
289.6440775553385
 31
0.0
1001
AcDbBlockRepETag
1070
     1
1071
      419
1005
416E
  0
LINE
  5
416F
330
23FC
100
AcDbEntity
  8
LAYER_1
 62
     7
100
AcDbLine
 10
258.2547790527343
 20
289.6440775553385
 30
0.0
 11
260.7524732801649
 21
290.0655849880642
 31
0.0
1001
AcDbBlockRepETag
1070
     1
1071
      420
1005
416F
  0
LINE
  5
4170
330
23FC
100
AcDbEntity
  8
LAYER_1
 62
     7
100
AcDbLine
 10
260.7524732801649
 20
290.0655849880642
 30
0.0
 11
262.4171434190538
 21
291.749375406901
 31
0.0
1001
AcDbBlockRepETag
1070
     1
1071
      421
1005
4170
  0
LINE
  5
4171
330
23FC
100
AcDbEntity
  8
LAYER_1
 62
     7
100
AcDbLine
 10
262.4171434190538
 20
291.749375406901
 30
0.0
 11
263.248789469401
 21
294.2753194173177
 31
0.0
1001
AcDbBlockRepETag
1070
     1
1071
      422
1005
4171
  0
LINE
  5
4172
330
23FC
100
AcDbEntity
  8
LAYER_1
 62
     7
100
AcDbLine
 10
263.248789469401
 20
294.2753194173177
 30
0.0
 11
262.8326219346788
 21
296.3797559950087
 31
0.0
1001
AcDbBlockRepETag
1070
     1
1071
      423
1005
4172
  0
LINE
  5
4173
330
23FC
100
AcDbEntity
  8
LAYER_1
 62
     7
100
AcDbLine
 10
262.8326219346788
 20
296.3797559950087
 30
0.0
 11
268.6596564398871
 21
295.5377746582031
 31
0.0
1001
AcDbBlockRepETag
1070
     1
1071
      424
1005
4173
  0
LINE
  5
4174
330
23FC
100
AcDbEntity
  8
LAYER_1
 62
     7
100
AcDbLine
 10
268.6596564398871
 20
295.5377746582031
 30
0.0
 11
274.4870354546441
 21
295.117128499349
 31
0.0
1001
AcDbBlockRepETag
1070
     1
1071
      425
1005
4174
  0
LINE
  5
4175
330
23FC
100
AcDbEntity
  8
LAYER_1
 62
     7
100
AcDbLine
 10
274.4870354546441
 20
295.117128499349
 30
0.0
 11
276.9833516438802
 21
296.3797559950087
 31
0.0
1001
AcDbBlockRepETag
1070
     1
1071
      426
1005
4175
  0
LINE
  5
4176
330
23FC
100
AcDbEntity
  8
LAYER_1
 62
     7
100
AcDbLine
 10
276.9833516438802
 20
296.3797559950087
 30
0.0
 11
278.6483662923177
 21
298.4850538465711
 31
0.0
1001
AcDbBlockRepETag
1070
     1
1071
      427
1005
4176
  0
LINE
  5
4177
330
23FC
100
AcDbEntity
  8
LAYER_1
 62
     7
100
AcDbLine
 10
278.6483662923177
 20
298.4850538465711
 30
0.0
 11
271.1580396864149
 21
306.4840488009982
 31
0.0
1001
AcDbBlockRepETag
1070
     1
1071
      428
1005
4177
  0
LINE
  5
4178
330
23FC
100
AcDbEntity
  8
LAYER_1
 62
     7
100
AcDbLine
 10
276.567184109158
 20
311.1152906629774
 30
0.0
 11
271.1580396864149
 21
306.4840488009982
 31
0.0
1001
AcDbBlockRepETag
1070
     1
1071
      429
1005
4178
  0
LINE
  5
4179
330
23FC
100
AcDbEntity
  8
LAYER_1
 62
     7
100
AcDbLine
 10
260.3363057454427
 20
323.7444939507378
 30
0.0
 11
267.8280103895399
 21
316.587308078342
 31
0.0
1001
AcDbBlockRepETag
1070
     1
1071
      430
1005
4179
  0
LINE
  5
417A
330
23FC
100
AcDbEntity
  8
LAYER_1
 62
     7
100
AcDbLine
 10
267.8280103895399
 20
316.587308078342
 30
0.0
 11
276.567184109158
 21
311.1152906629774
 31
0.0
1001
AcDbBlockRepETag
1070
     1
1071
      431
1005
417A
  0
LINE
  5
417B
330
23FC
100
AcDbEntity
  8
LAYER_1
 62
     7
100
AcDbLine
 10
279.0652228461372
 20
315.3250250922309
 30
0.0
 11
275.3190260145399
 21
319.113424343533
 31
0.0
1001
AcDbBlockRepETag
1070
     1
1071
      432
1005
417B
  0
LINE
  5
417C
330
23FC
100
AcDbEntity
  8
LAYER_1
 62
     7
100
AcDbLine
 10
275.3190260145399
 20
319.113424343533
 30
0.0
 11
270.7411831325954
 21
322.060703531901
 31
0.0
1001
AcDbBlockRepETag
1070
     1
1071
      433
1005
417C
  0
LINE
  5
417D
330
23FC
100
AcDbEntity
  8
LAYER_1
 62
     7
100
AcDbLine
 10
270.7411831325954
 20
322.060703531901
 30
0.0
 11
265.7471727159288
 21
323.7444939507378
 31
0.0
1001
AcDbBlockRepETag
1070
     1
1071
      434
1005
417D
  0
LINE
  5
417E
330
23FC
100
AcDbEntity
  8
LAYER_1
 62
     7
100
AcDbLine
 10
265.7471727159288
 20
323.7444939507378
 30
0.0
 11
260.3363057454427
 21
323.7444939507378
 31
0.0
1001
AcDbBlockRepETag
1070
     1
1071
      435
1005
417E
  0
LINE
  5
417F
330
23FC
100
AcDbEntity
  8
LAYER_1
 62
     7
100
AcDbLine
 10
279.0652228461372
 20
315.3250250922309
 30
0.0
 11
281.1460605197482
 21
314.0617085774739
 31
0.0
1001
AcDbBlockRepETag
1070
     1
1071
      436
1005
417F
  0
LINE
  5
4180
330
23FC
100
AcDbEntity
  8
LAYER_1
 62
     7
100
AcDbLine
 10
281.1460605197482
 20
314.0617085774739
 30
0.0
 11
283.2275872124565
 21
315.3250250922309
 31
0.0
1001
AcDbBlockRepETag
1070
     1
1071
      437
1005
4180
  0
LINE
  5
4181
330
23FC
100
AcDbEntity
  8
LAYER_1
 62
     7
100
AcDbLine
 10
283.2275872124565
 20
315.3250250922309
 30
0.0
 11
283.6423767089844
 21
317.4294616699218
 31
0.0
1001
AcDbBlockRepETag
1070
     1
1071
      438
1005
4181
  0
LINE
  5
4182
330
23FC
100
AcDbEntity
  8
LAYER_1
 62
     7
100
AcDbLine
 10
283.6423767089844
 20
317.4294616699218
 30
0.0
 11
282.3942186143663
 21
319.113424343533
 31
0.0
1001
AcDbBlockRepETag
1070
     1
1071
      439
1005
4182
  0
LINE
  5
4183
330
23FC
100
AcDbEntity
  8
LAYER_1
 62
     7
100
AcDbLine
 10
281.978051079644
 20
321.6400573730468
 30
0.0
 11
281.5629170735677
 21
320.3765686035156
 31
0.0
1001
AcDbBlockRepETag
1070
     1
1071
      440
1005
4183
  0
LINE
  5
4184
330
23FC
100
AcDbEntity
  8
LAYER_1
 62
     7
100
AcDbLine
 10
281.5629170735677
 20
320.3765686035156
 30
0.0
 11
282.3942186143663
 21
319.113424343533
 31
0.0
1001
AcDbBlockRepETag
1070
     1
1071
      441
1005
4184
  0
LINE
  5
4185
330
23FC
100
AcDbEntity
  8
LAYER_1
 62
     7
100
AcDbLine
 10
281.978051079644
 20
321.6400573730468
 30
0.0
 11
288.2219421386718
 21
319.9554056803385
 31
0.0
1001
AcDbBlockRepETag
1070
     1
1071
      442
1005
4185
  0
LINE
  5
4186
330
23FC
100
AcDbEntity
  8
LAYER_1
 62
     7
100
AcDbLine
 10
288.2219421386718
 20
319.9554056803385
 30
0.0
 11
294.880967203776
 21
320.3765686035156
 31
0.0
1001
AcDbBlockRepETag
1070
     1
1071
      443
1005
4186
  0
LINE
  5
4187
330
23FC
100
AcDbEntity
  8
LAYER_1
 62
     7
100
AcDbLine
 10
292.3832729763454
 20
327.1124192979601
 30
0.0
 11
293.2162970648871
 21
323.7444939507378
 31
0.0
1001
AcDbBlockRepETag
1070
     1
1071
      444
1005
4187
  0
LINE
  5
4188
330
23FC
100
AcDbEntity
  8
LAYER_1
 62
     7
100
AcDbLine
 10
293.2162970648871
 20
323.7444939507378
 30
0.0
 11
294.880967203776
 21
320.3765686035156
 31
0.0
1001
AcDbBlockRepETag
1070
     1
1071
      445
1005
4188
  0
LINE
  5
4189
330
23FC
100
AcDbEntity
  8
LAYER_1
 62
     7
100
AcDbLine
 10
292.3832729763454
 20
327.1124192979601
 30
0.0
 11
296.5456373426649
 21
327.1124192979601
 31
0.0
1001
AcDbBlockRepETag
1070
     1
1071
      446
1005
4189
  0
LINE
  5
418A
330
23FC
100
AcDbEntity
  8
LAYER_1
 62
     7
100
AcDbLine
 10
296.5456373426649
 20
327.1124192979601
 30
0.0
 11
300.7086907280816
 21
328.375735812717
 31
0.0
1001
AcDbBlockRepETag
1070
     1
1071
      447
1005
418A
  0
LINE
  5
418B
330
23FC
100
AcDbEntity
  8
LAYER_1
 62
     7
100
AcDbLine
 10
300.7086907280816
 20
328.375735812717
 30
0.0
 11
304.4528205023871
 21
330.9016798231336
 31
0.0
1001
AcDbBlockRepETag
1070
     1
1071
      448
1005
418B
  0
LINE
  5
418C
330
23FC
100
AcDbEntity
  8
LAYER_1
 62
     7
100
AcDbLine
 10
304.4528205023871
 20
330.9016798231336
 30
0.0
 11
306.9505147298177
 21
334.2694329155815
 31
0.0
1001
AcDbBlockRepETag
1070
     1
1071
      449
1005
418C
  0
LINE
  5
418D
330
23FC
100
AcDbEntity
  8
LAYER_1
 62
     7
100
AcDbLine
 10
306.9505147298177
 20
334.2694329155815
 30
0.0
 11
308.6151848687066
 21
338.4791673448351
 31
0.0
1001
AcDbBlockRepETag
1070
     1
1071
      450
1005
418D
  0
LINE
  5
418E
330
23FC
100
AcDbEntity
  8
LAYER_1
 62
     7
100
AcDbLine
 10
308.6151848687066
 20
338.4791673448351
 30
0.0
 11
306.5343471950955
 21
341.4264465332031
 31
0.0
1001
AcDbBlockRepETag
1070
     1
1071
      451
1005
418E
  0
LINE
  5
418F
330
23FC
100
AcDbEntity
  8
LAYER_1
 62
     7
100
AcDbLine
 10
306.5343471950955
 20
341.4264465332031
 30
0.0
 11
303.2043178982204
 21
343.9523905436197
 31
0.0
1001
AcDbBlockRepETag
1070
     1
1071
      452
1005
418F
  0
LINE
  5
4190
330
23FC
100
AcDbEntity
  8
LAYER_1
 62
     7
100
AcDbLine
 10
303.2043178982204
 20
343.9523905436197
 30
0.0
 11
299.4584655761719
 21
344.7943718804253
 31
0.0
1001
AcDbBlockRepETag
1070
     1
1071
      453
1005
4190
  0
LINE
  5
4191
330
23FC
100
AcDbEntity
  8
LAYER_1
 62
     7
100
AcDbLine
 10
299.4584655761719
 20
344.7943718804253
 30
0.0
 11
295.7122687445746
 21
344.7943718804253
 31
0.0
1001
AcDbBlockRepETag
1070
     1
1071
      454
1005
4191
  0
LINE
  5
4192
330
23FC
100
AcDbEntity
  8
LAYER_1
 62
     7
100
AcDbLine
 10
295.7122687445746
 20
344.7943718804253
 30
0.0
 11
296.5456373426649
 21
345.6361809624566
 31
0.0
1001
AcDbBlockRepETag
1070
     1
1071
      455
1005
4192
  0
LINE
  5
4193
330
23FC
100
AcDbEntity
  8
LAYER_1
 62
     7
100
AcDbLine
 10
296.5456373426649
 20
345.6361809624566
 30
0.0
 11
296.9621493869357
 21
346.8996697319878
 31
0.0
1001
AcDbBlockRepETag
1070
     1
1071
      456
1005
4193
  0
LINE
  5
4194
330
23FC
100
AcDbEntity
  8
LAYER_1
 62
     7
100
AcDbLine
 10
296.9621493869357
 20
346.8996697319878
 30
0.0
 11
296.5456373426649
 21
347.741478814019
 31
0.0
1001
AcDbBlockRepETag
1070
     1
1071
      457
1005
4194
  0
LINE
  5
4195
330
23FC
100
AcDbEntity
  8
LAYER_1
 62
     7
100
AcDbLine
 10
296.5456373426649
 20
347.741478814019
 30
0.0
 11
295.2978237575954
 21
348.1621249728732
 31
0.0
1001
AcDbBlockRepETag
1070
     1
1071
      458
1005
4195
  0
LINE
  5
4196
330
23FC
100
AcDbEntity
  8
LAYER_1
 62
     7
100
AcDbLine
 10
295.2978237575954
 20
348.1621249728732
 30
0.0
 11
294.4641106499566
 21
347.741478814019
 31
0.0
1001
AcDbBlockRepETag
1070
     1
1071
      459
1005
4196
  0
LINE
  5
4197
330
23FC
100
AcDbEntity
  8
LAYER_1
 62
     7
100
AcDbLine
 10
294.4641106499566
 20
347.741478814019
 30
0.0
 11
290.3034688313802
 21
349.4252692328559
 31
0.0
1001
AcDbBlockRepETag
1070
     1
1071
      460
1005
4197
  0
LINE
  5
4198
330
23FC
100
AcDbEntity
  8
LAYER_1
 62
     7
100
AcDbLine
 10
290.3034688313802
 20
349.4252692328559
 30
0.0
 11
286.5569274902343
 21
349.4252692328559
 31
0.0
1001
AcDbBlockRepETag
1070
     1
1071
      461
1005
4198
  0
LINE
  5
4199
330
23FC
100
AcDbEntity
  8
LAYER_1
 62
     7
100
AcDbLine
 10
286.5569274902343
 20
349.4252692328559
 30
0.0
 11
282.3942186143663
 21
348.1621249728732
 31
0.0
1001
AcDbBlockRepETag
1070
     1
1071
      462
1005
4199
  0
LINE
  5
419A
330
23FC
100
AcDbEntity
  8
LAYER_1
 62
     7
100
AcDbLine
 10
282.3942186143663
 20
348.1621249728732
 30
0.0
 11
279.0652228461372
 21
345.6361809624566
 31
0.0
1001
AcDbBlockRepETag
1070
     1
1071
      463
1005
419A
  0
LINE
  5
419B
330
23FC
100
AcDbEntity
  8
LAYER_1
 62
     7
100
AcDbLine
 10
279.0652228461372
 20
345.6361809624566
 30
0.0
 11
280.3130364312066
 21
347.3201436360676
 31
0.0
1001
AcDbBlockRepETag
1070
     1
1071
      464
1005
419B
  0
LINE
  5
419C
330
23FC
100
AcDbEntity
  8
LAYER_1
 62
     7
100
AcDbLine
 10
280.3130364312066
 20
347.3201436360676
 30
0.0
 11
279.8982469346788
 21
349.0039340549045
 31
0.0
1001
AcDbBlockRepETag
1070
     1
1071
      465
1005
419C
  0
LINE
  5
419D
330
23FC
100
AcDbEntity
  8
LAYER_1
 62
     7
100
AcDbLine
 10
279.8982469346788
 20
349.0039340549045
 30
0.0
 11
278.2335767957899
 21
349.8460876464843
 31
0.0
1001
AcDbBlockRepETag
1070
     1
1071
      466
1005
419D
  0
LINE
  5
419E
330
23FC
100
AcDbEntity
  8
LAYER_1
 62
     7
100
AcDbLine
 10
278.2335767957899
 20
349.8460876464843
 30
0.0
 11
276.567184109158
 21
349.4252692328559
 31
0.0
1001
AcDbBlockRepETag
1070
     1
1071
      467
1005
419E
  0
LINE
  5
419F
330
23FC
100
AcDbEntity
  8
LAYER_1
 62
     7
100
AcDbLine
 10
276.567184109158
 20
349.4252692328559
 30
0.0
 11
275.7351935492621
 21
347.741478814019
 31
0.0
1001
AcDbBlockRepETag
1070
     1
1071
      468
1005
419F
  0
LINE
  5
41A0
330
23FC
100
AcDbEntity
  8
LAYER_1
 62
     7
100
AcDbLine
 10
263.248789469401
 20
341.0051113552517
 30
0.0
 11
269.9081590440538
 21
343.5317443847656
 31
0.0
1001
AcDbBlockRepETag
1070
     1
1071
      469
1005
41A0
  0
LINE
  5
41A1
330
23FC
100
AcDbEntity
  8
LAYER_1
 62
     7
100
AcDbLine
 10
269.9081590440538
 20
343.5317443847656
 30
0.0
 11
275.7351935492621
 21
347.741478814019
 31
0.0
1001
AcDbBlockRepETag
1070
     1
1071
      470
1005
41A1
  0
LINE
  5
41A2
330
23FC
100
AcDbEntity
  8
LAYER_1
 62
     7
100
AcDbLine
 10
260.7524732801649
 20
346.4783345540364
 30
0.0
 11
259.087803141276
 21
344.7943718804253
 31
0.0
1001
AcDbBlockRepETag
1070
     1
1071
      471
1005
41A2
  0
LINE
  5
41A3
330
23FC
100
AcDbEntity
  8
LAYER_1
 62
     7
100
AcDbLine
 10
259.087803141276
 20
344.7943718804253
 30
0.0
 11
259.087803141276
 21
342.2684278700086
 31
0.0
1001
AcDbBlockRepETag
1070
     1
1071
      472
1005
41A3
  0
LINE
  5
41A4
330
23FC
100
AcDbEntity
  8
LAYER_1
 62
     7
100
AcDbLine
 10
259.087803141276
 20
342.2684278700086
 30
0.0
 11
261.1679517957899
 21
340.5844651963976
 31
0.0
1001
AcDbBlockRepETag
1070
     1
1071
      473
1005
41A4
  0
LINE
  5
41A5
330
23FC
100
AcDbEntity
  8
LAYER_1
 62
     7
100
AcDbLine
 10
261.1679517957899
 20
340.5844651963976
 30
0.0
 11
263.248789469401
 21
341.0051113552517
 31
0.0
1001
AcDbBlockRepETag
1070
     1
1071
      474
1005
41A5
  0
LINE
  5
41A6
330
23FC
100
AcDbEntity
  8
LAYER_1
 62
     7
100
AcDbLine
 10
269.9081590440538
 20
357.0031012641059
 30
0.0
 11
260.7524732801649
 21
346.4783345540364
 31
0.0
1001
AcDbBlockRepETag
1070
     1
1071
      475
1005
41A6
  0
LINE
  5
41A7
330
23FC
100
AcDbEntity
  8
LAYER_1
 62
     7
100
AcDbLine
 10
239.1093499077691
 20
327.1124192979601
 30
0.0
 11
255.7570848253038
 21
328.375735812717
 31
0.0
1001
AcDbBlockRepETag
1070
     1
1071
      476
1005
41A7
  0
LINE
  5
41A8
330
23FC
100
AcDbEntity
  8
LAYER_1
 62
     7
100
AcDbLine
 10
255.7570848253038
 20
328.375735812717
 30
0.0
 11
271.9889967176649
 21
331.3221537272135
 31
0.0
1001
AcDbBlockRepETag
1070
     1
1071
      477
1005
41A8
  0
LINE
  5
41A9
330
23FC
100
AcDbEntity
  8
LAYER_1
 62
     7
100
AcDbLine
 10
271.9889967176649
 20
331.3221537272135
 30
0.0
 11
288.2219421386718
 21
335.1112419976128
 31
0.0
1001
AcDbBlockRepETag
1070
     1
1071
      478
1005
41A9
  0
LINE
  5
41AA
330
23FC
100
AcDbEntity
  8
LAYER_1
 62
     7
100
AcDbLine
 10
288.2219421386718
 20
335.1112419976128
 30
0.0
 11
304.0376864963107
 21
340.1631300184462
 31
0.0
1001
AcDbBlockRepETag
1070
     1
1071
      479
1005
41AA
  0
LINE
  5
41AB
330
23FC
100
AcDbEntity
  8
LAYER_1
 62
     7
100
AcDbLine
 10
166.2734856499565
 20
284.5923617892795
 30
0.0
 11
165.442184109158
 21
287.5386074490017
 31
0.0
1001
AcDbBlockRepETag
1070
     1
1071
      480
1005
41AB
  0
LINE
  5
41AC
330
23FC
100
AcDbEntity
  8
LAYER_1
 62
     7
100
AcDbLine
 10
165.442184109158
 20
287.5386074490017
 30
0.0
 11
163.7771694607204
 21
290.4860588921441
 31
0.0
1001
AcDbBlockRepETag
1070
     1
1071
      481
1005
41AC
  0
LINE
  5
41AD
330
23FC
100
AcDbEntity
  8
LAYER_1
 62
     7
100
AcDbLine
 10
163.7771694607204
 20
290.4860588921441
 30
0.0
 11
161.2794752332899
 21
292.1700215657552
 31
0.0
1001
AcDbBlockRepETag
1070
     1
1071
      482
1005
41AD
  0
LINE
  5
41AE
330
23FC
100
AcDbEntity
  8
LAYER_1
 62
     7
100
AcDbLine
 10
161.2794752332899
 20
292.1700215657552
 30
0.0
 11
158.3663024902343
 21
292.5915289984809
 31
0.0
1001
AcDbBlockRepETag
1070
     1
1071
      483
1005
41AE
  0
LINE
  5
41AF
330
23FC
100
AcDbEntity
  8
LAYER_1
 62
     7
100
AcDbLine
 10
158.3663024902343
 20
292.5915289984809
 30
0.0
 11
155.0369622124566
 21
292.1700215657552
 31
0.0
1001
AcDbBlockRepETag
1070
     1
1071
      484
1005
41AF
  0
LINE
  5
41B0
330
23FC
100
AcDbEntity
  8
LAYER_1
 62
     7
100
AcDbLine
 10
155.0369622124566
 20
292.1700215657552
 30
0.0
 11
152.539267985026
 21
290.4860588921441
 31
0.0
1001
AcDbBlockRepETag
1070
     1
1071
      485
1005
41B0
  0
LINE
  5
41B1
330
23FC
100
AcDbEntity
  8
LAYER_1
 62
     7
100
AcDbLine
 10
152.539267985026
 20
290.4860588921441
 30
0.0
 11
150.8739088270399
 21
287.5386074490017
 31
0.0
1001
AcDbBlockRepETag
1070
     1
1071
      486
1005
41B1
  0
LINE
  5
41B2
330
23FC
100
AcDbEntity
  8
LAYER_1
 62
     7
100
AcDbLine
 10
150.8739088270399
 20
287.5386074490017
 30
0.0
 11
150.4577412923177
 21
284.5923617892795
 31
0.0
1001
AcDbBlockRepETag
1070
     1
1071
      487
1005
41B2
  0
LINE
  5
41B3
330
23FC
100
AcDbEntity
  8
LAYER_1
 62
     7
100
AcDbLine
 10
150.4577412923177
 20
284.5923617892795
 30
0.0
 11
150.8739088270399
 21
281.6450826009115
 31
0.0
1001
AcDbBlockRepETag
1070
     1
1071
      488
1005
41B3
  0
LINE
  5
41B4
330
23FC
100
AcDbEntity
  8
LAYER_1
 62
     7
100
AcDbLine
 10
150.8739088270399
 20
281.6450826009115
 30
0.0
 11
152.539267985026
 21
279.1193108452691
 31
0.0
1001
AcDbBlockRepETag
1070
     1
1071
      489
1005
41B4
  0
LINE
  5
41B5
330
23FC
100
AcDbEntity
  8
LAYER_1
 62
     7
100
AcDbLine
 10
152.539267985026
 20
279.1193108452691
 30
0.0
 11
155.0369622124566
 21
277.435348171658
 31
0.0
1001
AcDbBlockRepETag
1070
     1
1071
      490
1005
41B5
  0
LINE
  5
41B6
330
23FC
100
AcDbEntity
  8
LAYER_1
 62
     7
100
AcDbLine
 10
155.0369622124566
 20
277.435348171658
 30
0.0
 11
158.3663024902343
 21
276.5931945800781
 31
0.0
1001
AcDbBlockRepETag
1070
     1
1071
      491
1005
41B6
  0
LINE
  5
41B7
330
23FC
100
AcDbEntity
  8
LAYER_1
 62
     7
100
AcDbLine
 10
158.3663024902343
 20
276.5931945800781
 30
0.0
 11
161.2794752332899
 21
277.435348171658
 31
0.0
1001
AcDbBlockRepETag
1070
     1
1071
      492
1005
41B7
  0
LINE
  5
41B8
330
23FC
100
AcDbEntity
  8
LAYER_1
 62
     7
100
AcDbLine
 10
161.2794752332899
 20
277.435348171658
 30
0.0
 11
163.7771694607204
 21
279.1193108452691
 31
0.0
1001
AcDbBlockRepETag
1070
     1
1071
      493
1005
41B8
  0
LINE
  5
41B9
330
23FC
100
AcDbEntity
  8
LAYER_1
 62
     7
100
AcDbLine
 10
163.7771694607204
 20
279.1193108452691
 30
0.0
 11
165.442184109158
 21
281.6450826009115
 31
0.0
1001
AcDbBlockRepETag
1070
     1
1071
      494
1005
41B9
  0
LINE
  5
41BA
330
23FC
100
AcDbEntity
  8
LAYER_1
 62
     7
100
AcDbLine
 10
165.442184109158
 20
281.6450826009115
 30
0.0
 11
166.2734856499565
 21
284.5923617892795
 31
0.0
1001
AcDbBlockRepETag
1070
     1
1071
      495
1005
41BA
  0
LINE
  5
41BB
330
23FC
100
AcDbEntity
  8
LAYER_1
 62
     7
100
AcDbLine
 10
73.4607184516059
 20
292.5915289984809
 30
0.0
 11
106.3410542805989
 21
283.3290452745226
 31
0.0
1001
AcDbBlockRepETag
1070
     1
1071
      496
1005
41BB
  0
LINE
  5
41BC
330
23FC
100
AcDbEntity
  8
LAYER_1
 62
     7
100
AcDbLine
 10
134.6413079155816
 20
283.3290452745226
 30
0.0
 11
134.2265184190538
 21
286.2763244628906
 31
0.0
1001
AcDbBlockRepETag
1070
     1
1071
      497
1005
41BC
  0
LINE
  5
41BD
330
23FC
100
AcDbEntity
  8
LAYER_1
 62
     7
100
AcDbLine
 10
134.2265184190538
 20
286.2763244628906
 30
0.0
 11
132.5618482801649
 21
288.3807610405816
 31
0.0
1001
AcDbBlockRepETag
1070
     1
1071
      498
1005
41BD
  0
LINE
  5
41BE
330
23FC
100
AcDbEntity
  8
LAYER_1
 62
     7
100
AcDbLine
 10
132.5618482801649
 20
288.3807610405816
 30
0.0
 11
130.0641540527343
 21
290.0655849880642
 31
0.0
1001
AcDbBlockRepETag
1070
     1
1071
      499
1005
41BE
  0
LINE
  5
41BF
330
23FC
100
AcDbEntity
  8
LAYER_1
 62
     7
100
AcDbLine
 10
130.0641540527343
 20
290.0655849880642
 30
0.0
 11
127.5659430609809
 21
290.4860588921441
 31
0.0
1001
AcDbBlockRepETag
1070
     1
1071
      500
1005
41BF
  0
LINE
  5
41C0
330
23FC
100
AcDbEntity
  8
LAYER_1
 62
     7
100
AcDbLine
 10
127.5659430609809
 20
290.4860588921441
 30
0.0
 11
124.6531148274739
 21
290.0655849880642
 31
0.0
1001
AcDbBlockRepETag
1070
     1
1071
      501
1005
41C0
  0
LINE
  5
41C1
330
23FC
100
AcDbEntity
  8
LAYER_1
 62
     7
100
AcDbLine
 10
124.6531148274739
 20
290.0655849880642
 30
0.0
 11
122.1567986382378
 21
288.3807610405816
 31
0.0
1001
AcDbBlockRepETag
1070
     1
1071
      502
1005
41C1
  0
LINE
  5
41C2
330
23FC
100
AcDbEntity
  8
LAYER_1
 62
     7
100
AcDbLine
 10
122.1567986382378
 20
288.3807610405816
 30
0.0
 11
120.4904059516059
 21
286.2763244628906
 31
0.0
1001
AcDbBlockRepETag
1070
     1
1071
      503
1005
41C2
  0
LINE
  5
41C3
330
23FC
100
AcDbEntity
  8
LAYER_1
 62
     7
100
AcDbLine
 10
120.4904059516059
 20
286.2763244628906
 30
0.0
 11
120.0756164550781
 21
283.3290452745226
 31
0.0
1001
AcDbBlockRepETag
1070
     1
1071
      504
1005
41C3
  0
LINE
  5
41C4
330
23FC
100
AcDbEntity
  8
LAYER_1
 62
     7
100
AcDbLine
 10
120.0756164550781
 20
283.3290452745226
 30
0.0
 11
120.4904059516059
 21
280.382627360026
 31
0.0
1001
AcDbBlockRepETag
1070
     1
1071
      505
1005
41C4
  0
LINE
  5
41C5
330
23FC
100
AcDbEntity
  8
LAYER_1
 62
     7
100
AcDbLine
 10
120.4904059516059
 20
280.382627360026
 30
0.0
 11
122.1567986382378
 21
278.2773295084636
 31
0.0
1001
AcDbBlockRepETag
1070
     1
1071
      506
1005
41C5
  0
LINE
  5
41C6
330
23FC
100
AcDbEntity
  8
LAYER_1
 62
     7
100
AcDbLine
 10
122.1567986382378
 20
278.2773295084636
 30
0.0
 11
124.6531148274739
 21
276.5931945800781
 31
0.0
1001
AcDbBlockRepETag
1070
     1
1071
      507
1005
41C6
  0
LINE
  5
41C7
330
23FC
100
AcDbEntity
  8
LAYER_1
 62
     7
100
AcDbLine
 10
124.6531148274739
 20
276.5931945800781
 30
0.0
 11
127.5659430609809
 21
276.172031656901
 31
0.0
1001
AcDbBlockRepETag
1070
     1
1071
      508
1005
41C7
  0
LINE
  5
41C8
330
23FC
100
AcDbEntity
  8
LAYER_1
 62
     7
100
AcDbLine
 10
127.5659430609809
 20
276.172031656901
 30
0.0
 11
130.0641540527343
 21
276.5931945800781
 31
0.0
1001
AcDbBlockRepETag
1070
     1
1071
      509
1005
41C8
  0
LINE
  5
41C9
330
23FC
100
AcDbEntity
  8
LAYER_1
 62
     7
100
AcDbLine
 10
130.0641540527343
 20
276.5931945800781
 30
0.0
 11
132.5618482801649
 21
278.2773295084636
 31
0.0
1001
AcDbBlockRepETag
1070
     1
1071
      510
1005
41C9
  0
LINE
  5
41CA
330
23FC
100
AcDbEntity
  8
LAYER_1
 62
     7
100
AcDbLine
 10
132.5618482801649
 20
278.2773295084636
 30
0.0
 11
134.2265184190538
 21
280.382627360026
 31
0.0
1001
AcDbBlockRepETag
1070
     1
1071
      511
1005
41CA
  0
LINE
  5
41CB
330
23FC
100
AcDbEntity
  8
LAYER_1
 62
     7
100
AcDbLine
 10
134.2265184190538
 20
280.382627360026
 30
0.0
 11
134.6413079155816
 21
283.3290452745226
 31
0.0
1001
AcDbBlockRepETag
1070
     1
1071
      512
1005
41CB
  0
LINE
  5
41CC
330
23FC
100
AcDbEntity
  8
LAYER_1
 62
     7
100
AcDbLine
 10
149.6260952419704
 20
282.487063937717
 30
0.0
 11
148.7927266438802
 21
285.8548170301649
 31
0.0
1001
AcDbBlockRepETag
1070
     1
1071
      513
1005
41CC
  0
LINE
  5
41CD
330
23FC
100
AcDbEntity
  8
LAYER_1
 62
     7
100
AcDbLine
 10
148.7927266438802
 20
285.8548170301649
 30
0.0
 11
147.1284010145399
 21
288.3807610405816
 31
0.0
1001
AcDbBlockRepETag
1070
     1
1071
      514
1005
41CD
  0
LINE
  5
41CE
330
23FC
100
AcDbEntity
  8
LAYER_1
 62
     7
100
AcDbLine
 10
147.1284010145399
 20
288.3807610405816
 30
0.0
 11
144.2152282714843
 21
290.4860588921441
 31
0.0
1001
AcDbBlockRepETag
1070
     1
1071
      515
1005
41CE
  0
LINE
  5
41CF
330
23FC
100
AcDbEntity
  8
LAYER_1
 62
     7
100
AcDbLine
 10
144.2152282714843
 20
290.4860588921441
 30
0.0
 11
141.3006774902343
 21
290.9072218153212
 31
0.0
1001
AcDbBlockRepETag
1070
     1
1071
      516
1005
41CF
  0
LINE
  5
41D0
330
23FC
100
AcDbEntity
  8
LAYER_1
 62
     7
100
AcDbLine
 10
141.3006774902343
 20
290.9072218153212
 30
0.0
 11
137.9713372124566
 21
290.4860588921441
 31
0.0
1001
AcDbBlockRepETag
1070
     1
1071
      517
1005
41D0
  0
LINE
  5
41D1
330
23FC
100
AcDbEntity
  8
LAYER_1
 62
     7
100
AcDbLine
 10
137.9713372124566
 20
290.4860588921441
 30
0.0
 11
135.4750210232205
 21
288.3807610405816
 31
0.0
1001
AcDbBlockRepETag
1070
     1
1071
      518
1005
41D1
  0
LINE
  5
41D2
330
23FC
100
AcDbEntity
  8
LAYER_1
 62
     7
100
AcDbLine
 10
135.4750210232205
 20
288.3807610405816
 30
0.0
 11
133.3934943305121
 21
285.8548170301649
 31
0.0
1001
AcDbBlockRepETag
1070
     1
1071
      519
1005
41D2
  0
LINE
  5
41D3
330
23FC
100
AcDbEntity
  8
LAYER_1
 62
     7
100
AcDbLine
 10
133.3934943305121
 20
285.8548170301649
 30
0.0
 11
132.9766377766927
 21
282.487063937717
 31
0.0
1001
AcDbBlockRepETag
1070
     1
1071
      520
1005
41D3
  0
LINE
  5
41D4
330
23FC
100
AcDbEntity
  8
LAYER_1
 62
     7
100
AcDbLine
 10
132.9766377766927
 20
282.487063937717
 30
0.0
 11
133.3934943305121
 21
279.5406460232205
 31
0.0
1001
AcDbBlockRepETag
1070
     1
1071
      521
1005
41D4
  0
LINE
  5
41D5
330
23FC
100
AcDbEntity
  8
LAYER_1
 62
     7
100
AcDbLine
 10
133.3934943305121
 20
279.5406460232205
 30
0.0
 11
135.4750210232205
 21
276.5931945800781
 31
0.0
1001
AcDbBlockRepETag
1070
     1
1071
      522
1005
41D5
  0
LINE
  5
41D6
330
23FC
100
AcDbEntity
  8
LAYER_1
 62
     7
100
AcDbLine
 10
135.4750210232205
 20
276.5931945800781
 30
0.0
 11
137.9713372124566
 21
274.9094041612413
 31
0.0
1001
AcDbBlockRepETag
1070
     1
1071
      523
1005
41D6
  0
LINE
  5
41D7
330
23FC
100
AcDbEntity
  8
LAYER_1
 62
     7
100
AcDbLine
 10
137.9713372124566
 20
274.9094041612413
 30
0.0
 11
141.3006774902343
 21
274.0674228244358
 31
0.0
1001
AcDbBlockRepETag
1070
     1
1071
      524
1005
41D7
  0
LINE
  5
41D8
330
23FC
100
AcDbEntity
  8
LAYER_1
 62
     7
100
AcDbLine
 10
141.3006774902343
 20
274.0674228244358
 30
0.0
 11
144.2152282714843
 21
274.9094041612413
 31
0.0
1001
AcDbBlockRepETag
1070
     1
1071
      525
1005
41D8
  0
LINE
  5
41D9
330
23FC
100
AcDbEntity
  8
LAYER_1
 62
     7
100
AcDbLine
 10
144.2152282714843
 20
274.9094041612413
 30
0.0
 11
147.1284010145399
 21
276.5931945800781
 31
0.0
1001
AcDbBlockRepETag
1070
     1
1071
      526
1005
41D9
  0
LINE
  5
41DA
330
23FC
100
AcDbEntity
  8
LAYER_1
 62
     7
100
AcDbLine
 10
147.1284010145399
 20
276.5931945800781
 30
0.0
 11
148.7927266438802
 21
279.5406460232205
 31
0.0
1001
AcDbBlockRepETag
1070
     1
1071
      527
1005
41DA
  0
LINE
  5
41DB
330
23FC
100
AcDbEntity
  8
LAYER_1
 62
     7
100
AcDbLine
 10
148.7927266438802
 20
279.5406460232205
 30
0.0
 11
149.6260952419704
 21
282.487063937717
 31
0.0
1001
AcDbBlockRepETag
1070
     1
1071
      528
1005
41DB
  0
LINE
  5
41DC
330
23FC
100
AcDbEntity
  8
LAYER_1
 62
     7
100
AcDbLine
 10
170.851328531901
 20
290.9072218153212
 30
0.0
 11
168.3550123426649
 21
289.2227423773871
 31
0.0
1001
AcDbBlockRepETag
1070
     1
1071
      529
1005
41DC
  0
LINE
  5
41DD
330
23FC
100
AcDbEntity
  8
LAYER_1
 62
     7
100
AcDbLine
 10
168.3550123426649
 20
289.2227423773871
 30
0.0
 11
166.2734856499565
 21
286.6967983669705
 31
0.0
1001
AcDbBlockRepETag
1070
     1
1071
      530
1005
41DD
  0
LINE
  5
41DE
330
23FC
100
AcDbEntity
  8
LAYER_1
 62
     7
100
AcDbLine
 10
166.2734856499565
 20
286.6967983669705
 30
0.0
 11
165.8566290961371
 21
283.3290452745226
 31
0.0
1001
AcDbBlockRepETag
1070
     1
1071
      531
1005
41DE
  0
LINE
  5
41DF
330
23FC
100
AcDbEntity
  8
LAYER_1
 62
     7
100
AcDbLine
 10
165.8566290961371
 20
283.3290452745226
 30
0.0
 11
166.2734856499565
 21
280.382627360026
 31
0.0
1001
AcDbBlockRepETag
1070
     1
1071
      532
1005
41DF
  0
LINE
  5
41E0
330
23FC
100
AcDbEntity
  8
LAYER_1
 62
     7
100
AcDbLine
 10
166.2734856499565
 20
280.382627360026
 30
0.0
 11
167.9381557888454
 21
277.435348171658
 31
0.0
1001
AcDbBlockRepETag
1070
     1
1071
      533
1005
41E0
  0
LINE
  5
41E1
330
23FC
100
AcDbEntity
  8
LAYER_1
 62
     7
100
AcDbLine
 10
167.9381557888454
 20
277.435348171658
 30
0.0
 11
170.4365390353732
 21
275.7513854980468
 31
0.0
1001
AcDbBlockRepETag
1070
     1
1071
      534
1005
41E1
  0
LINE
  5
41E2
330
23FC
100
AcDbEntity
  8
LAYER_1
 62
     7
100
AcDbLine
 10
170.4365390353732
 20
275.7513854980468
 30
0.0
 11
173.765879313151
 21
274.9094041612413
 31
0.0
1001
AcDbBlockRepETag
1070
     1
1071
      535
1005
41E2
  0
LINE
  5
41E3
330
23FC
100
AcDbEntity
  8
LAYER_1
 62
     7
100
AcDbLine
 10
173.765879313151
 20
274.9094041612413
 30
0.0
 11
177.0952195909288
 21
275.3300503200954
 31
0.0
1001
AcDbBlockRepETag
1070
     1
1071
      536
1005
41E3
  0
LINE
  5
41E4
330
23FC
100
AcDbEntity
  8
LAYER_1
 62
     7
100
AcDbLine
 10
177.0952195909288
 20
275.3300503200954
 30
0.0
 11
179.5915357801649
 21
277.0138407389323
 31
0.0
1001
AcDbBlockRepETag
1070
     1
1071
      537
1005
41E4
  0
LINE
  5
41E5
330
23FC
100
AcDbEntity
  8
LAYER_1
 62
     7
100
AcDbLine
 10
179.5915357801649
 20
277.0138407389323
 30
0.0
 11
181.6730624728732
 21
279.9611199273003
 31
0.0
1001
AcDbBlockRepETag
1070
     1
1071
      538
1005
41E5
  0
LINE
  5
41E6
330
23FC
100
AcDbEntity
  8
LAYER_1
 62
     7
100
AcDbLine
 10
181.6730624728732
 20
279.9611199273003
 30
0.0
 11
182.0892300075954
 21
282.9083991156684
 31
0.0
1001
AcDbBlockRepETag
1070
     1
1071
      539
1005
41E6
  0
LINE
  5
41E7
330
23FC
100
AcDbEntity
  8
LAYER_1
 62
     7
100
AcDbLine
 10
182.0892300075954
 20
282.9083991156684
 30
0.0
 11
181.6730624728732
 21
286.2763244628906
 31
0.0
1001
AcDbBlockRepETag
1070
     1
1071
      540
1005
41E7
  0
LINE
  5
41E8
330
23FC
100
AcDbEntity
  8
LAYER_1
 62
     7
100
AcDbLine
 10
181.6730624728732
 20
286.2763244628906
 30
0.0
 11
180.0083923339843
 21
289.2227423773871
 31
0.0
1001
AcDbBlockRepETag
1070
     1
1071
      541
1005
41E8
  0
LINE
  5
41E9
330
23FC
100
AcDbEntity
  8
LAYER_1
 62
     7
100
AcDbLine
 10
76.79040323893229
 20
252.5963819715712
 30
0.0
 11
88.02692667643228
 21
222.2850538465712
 31
0.0
1001
AcDbBlockRepETag
1070
     1
1071
      542
1005
41E9
  0
LINE
  5
41EA
330
23FC
100
AcDbEntity
  8
LAYER_1
 62
     7
100
AcDbLine
 10
151.2907653808593
 20
242.0714430067274
 30
0.0
 11
150.4577412923177
 21
245.860703531901
 31
0.0
1001
AcDbBlockRepETag
1070
     1
1071
      543
1005
41EA
  0
LINE
  5
41EB
330
23FC
100
AcDbEntity
  8
LAYER_1
 62
     7
100
AcDbLine
 10
150.4577412923177
 20
245.860703531901
 30
0.0
 11
147.9614251030816
 21
248.3866475423177
 31
0.0
1001
AcDbBlockRepETag
1070
     1
1071
      544
1005
41EB
  0
LINE
  5
41EC
330
23FC
100
AcDbEntity
  8
LAYER_1
 62
     7
100
AcDbLine
 10
147.9614251030816
 20
248.3866475423177
 30
0.0
 11
144.6320848253038
 21
249.2284566243489
 31
0.0
1001
AcDbBlockRepETag
1070
     1
1071
      545
1005
41EC
  0
LINE
  5
41ED
330
23FC
100
AcDbEntity
  8
LAYER_1
 62
     7
100
AcDbLine
 10
144.6320848253038
 20
249.2284566243489
 30
0.0
 11
140.8858879937065
 21
248.3866475423177
 31
0.0
1001
AcDbBlockRepETag
1070
     1
1071
      546
1005
41ED
  0
LINE
  5
41EE
330
23FC
100
AcDbEntity
  8
LAYER_1
 62
     7
100
AcDbLine
 10
140.8858879937065
 20
248.3866475423177
 30
0.0
 11
138.3875047471788
 21
245.860703531901
 31
0.0
1001
AcDbBlockRepETag
1070
     1
1071
      547
1005
41EE
  0
LINE
  5
41EF
330
23FC
100
AcDbEntity
  8
LAYER_1
 62
     7
100
AcDbLine
 10
138.3875047471788
 20
245.860703531901
 30
0.0
 11
137.5565477159288
 21
242.0714430067274
 31
0.0
1001
AcDbBlockRepETag
1070
     1
1071
      548
1005
41EF
  0
LINE
  5
41F0
330
23FC
100
AcDbEntity
  8
LAYER_1
 62
     7
100
AcDbLine
 10
137.5565477159288
 20
242.0714430067274
 30
0.0
 11
138.3875047471788
 21
238.7036899142795
 31
0.0
1001
AcDbBlockRepETag
1070
     1
1071
      549
1005
41F0
  0
LINE
  5
41F1
330
23FC
100
AcDbEntity
  8
LAYER_1
 62
     7
100
AcDbLine
 10
138.3875047471788
 20
238.7036899142795
 30
0.0
 11
140.8858879937065
 21
236.1777459038628
 31
0.0
1001
AcDbBlockRepETag
1070
     1
1071
      550
1005
41F1
  0
LINE
  5
41F2
330
23FC
100
AcDbEntity
  8
LAYER_1
 62
     7
100
AcDbLine
 10
140.8858879937065
 20
236.1777459038628
 30
0.0
 11
144.6320848253038
 21
235.3359368218316
 31
0.0
1001
AcDbBlockRepETag
1070
     1
1071
      551
1005
41F2
  0
LINE
  5
41F3
330
23FC
100
AcDbEntity
  8
LAYER_1
 62
     7
100
AcDbLine
 10
144.6320848253038
 20
235.3359368218316
 30
0.0
 11
147.9614251030816
 21
236.1777459038628
 31
0.0
1001
AcDbBlockRepETag
1070
     1
1071
      552
1005
41F3
  0
LINE
  5
41F4
330
23FC
100
AcDbEntity
  8
LAYER_1
 62
     7
100
AcDbLine
 10
147.9614251030816
 20
236.1777459038628
 30
0.0
 11
150.4577412923177
 21
238.7036899142795
 31
0.0
1001
AcDbBlockRepETag
1070
     1
1071
      553
1005
41F4
  0
LINE
  5
41F5
330
23FC
100
AcDbEntity
  8
LAYER_1
 62
     7
100
AcDbLine
 10
150.4577412923177
 20
238.7036899142795
 30
0.0
 11
151.2907653808593
 21
242.0714430067274
 31
0.0
1001
AcDbBlockRepETag
1070
     1
1071
      554
1005
41F5
  0
LINE
  5
41F6
330
23FC
100
AcDbEntity
  8
LAYER_1
 62
     7
100
AcDbLine
 10
141.7175340440538
 20
269.8576883951822
 30
0.0
 11
141.3006774902343
 21
272.8039340549045
 31
0.0
1001
AcDbBlockRepETag
1070
     1
1071
      555
1005
41F6
  0
LINE
  5
41F7
330
23FC
100
AcDbEntity
  8
LAYER_1
 62
     7
100
AcDbLine
 10
141.3006774902343
 20
272.8039340549045
 30
0.0
 11
139.6360073513455
 21
275.3300503200954
 31
0.0
1001
AcDbBlockRepETag
1070
     1
1071
      556
1005
41F7
  0
LINE
  5
41F8
330
23FC
100
AcDbEntity
  8
LAYER_1
 62
     7
100
AcDbLine
 10
139.6360073513455
 20
275.3300503200954
 30
0.0
 11
137.5565477159288
 21
277.0138407389323
 31
0.0
1001
AcDbBlockRepETag
1070
     1
1071
      557
1005
41F8
  0
LINE
  5
41F9
330
23FC
100
AcDbEntity
  8
LAYER_1
 62
     7
100
AcDbLine
 10
137.5565477159288
 20
277.0138407389323
 30
0.0
 11
134.6413079155816
 21
277.435348171658
 31
0.0
1001
AcDbBlockRepETag
1070
     1
1071
      558
1005
41F9
  0
LINE
  5
41FA
330
23FC
100
AcDbEntity
  8
LAYER_1
 62
     7
100
AcDbLine
 10
134.6413079155816
 20
277.435348171658
 30
0.0
 11
131.7284796820746
 21
277.0138407389323
 31
0.0
1001
AcDbBlockRepETag
1070
     1
1071
      559
1005
41FA
  0
LINE
  5
41FB
330
23FC
100
AcDbEntity
  8
LAYER_1
 62
     7
100
AcDbLine
 10
131.7284796820746
 20
277.0138407389323
 30
0.0
 11
129.2306131998698
 21
275.3300503200954
 31
0.0
1001
AcDbBlockRepETag
1070
     1
1071
      560
1005
41FB
  0
LINE
  5
41FC
330
23FC
100
AcDbEntity
  8
LAYER_1
 62
     7
100
AcDbLine
 10
129.2306131998698
 20
275.3300503200954
 30
0.0
 11
127.9827996148003
 21
272.8039340549045
 31
0.0
1001
AcDbBlockRepETag
1070
     1
1071
      561
1005
41FC
  0
LINE
  5
41FD
330
23FC
100
AcDbEntity
  8
LAYER_1
 62
     7
100
AcDbLine
 10
127.9827996148003
 20
272.8039340549045
 30
0.0
 11
127.1511535644531
 21
269.8576883951822
 31
0.0
1001
AcDbBlockRepETag
1070
     1
1071
      562
1005
41FD
  0
LINE
  5
41FE
330
23FC
100
AcDbEntity
  8
LAYER_1
 62
     7
100
AcDbLine
 10
127.1511535644531
 20
269.8576883951822
 30
0.0
 11
127.9827996148003
 21
267.3310553656683
 31
0.0
1001
AcDbBlockRepETag
1070
     1
1071
      563
1005
41FE
  0
LINE
  5
41FF
330
23FC
100
AcDbEntity
  8
LAYER_1
 62
     7
100
AcDbLine
 10
127.9827996148003
 20
267.3310553656683
 30
0.0
 11
129.2306131998698
 21
264.8051113552517
 31
0.0
1001
AcDbBlockRepETag
1070
     1
1071
      564
1005
41FF
  0
LINE
  5
4200
330
23FC
100
AcDbEntity
  8
LAYER_1
 62
     7
100
AcDbLine
 10
129.2306131998698
 20
264.8051113552517
 30
0.0
 11
131.7284796820746
 21
263.1211486816406
 31
0.0
1001
AcDbBlockRepETag
1070
     1
1071
      565
1005
4200
  0
LINE
  5
4201
330
23FC
100
AcDbEntity
  8
LAYER_1
 62
     7
100
AcDbLine
 10
131.7284796820746
 20
263.1211486816406
 30
0.0
 11
134.6413079155816
 21
262.7006747775607
 31
0.0
1001
AcDbBlockRepETag
1070
     1
1071
      566
1005
4201
  0
LINE
  5
4202
330
23FC
100
AcDbEntity
  8
LAYER_1
 62
     7
100
AcDbLine
 10
134.6413079155816
 20
262.7006747775607
 30
0.0
 11
137.5565477159288
 21
263.1211486816406
 31
0.0
1001
AcDbBlockRepETag
1070
     1
1071
      567
1005
4202
  0
LINE
  5
4203
330
23FC
100
AcDbEntity
  8
LAYER_1
 62
     7
100
AcDbLine
 10
137.5565477159288
 20
263.1211486816406
 30
0.0
 11
139.6360073513455
 21
264.8051113552517
 31
0.0
1001
AcDbBlockRepETag
1070
     1
1071
      568
1005
4203
  0
LINE
  5
4204
330
23FC
100
AcDbEntity
  8
LAYER_1
 62
     7
100
AcDbLine
 10
139.6360073513455
 20
264.8051113552517
 30
0.0
 11
141.3006774902343
 21
267.3310553656683
 31
0.0
1001
AcDbBlockRepETag
1070
     1
1071
      569
1005
4204
  0
LINE
  5
4205
330
23FC
100
AcDbEntity
  8
LAYER_1
 62
     7
100
AcDbLine
 10
141.3006774902343
 20
267.3310553656683
 30
0.0
 11
141.7175340440538
 21
269.8576883951822
 31
0.0
1001
AcDbBlockRepETag
1070
     1
1071
      570
1005
4205
  0
LINE
  5
4206
330
23FC
100
AcDbEntity
  8
LAYER_1
 62
     7
100
AcDbLine
 10
137.1393466525607
 20
258.9114142523872
 30
0.0
 11
136.3066670735677
 21
262.2791673448351
 31
0.0
1001
AcDbBlockRepETag
1070
     1
1071
      571
1005
4206
  0
LINE
  5
4207
330
23FC
100
AcDbEntity
  8
LAYER_1
 62
     7
100
AcDbLine
 10
136.3066670735677
 20
262.2791673448351
 30
0.0
 11
133.8100063747829
 21
264.3846374511718
 31
0.0
1001
AcDbBlockRepETag
1070
     1
1071
      572
1005
4207
  0
LINE
  5
4208
330
23FC
100
AcDbEntity
  8
LAYER_1
 62
     7
100
AcDbLine
 10
133.8100063747829
 20
264.3846374511718
 30
0.0
 11
130.4803215874566
 21
265.2266187879774
 31
0.0
1001
AcDbBlockRepETag
1070
     1
1071
      573
1005
4208
  0
LINE
  5
4209
330
23FC
100
AcDbEntity
  8
LAYER_1
 62
     7
100
AcDbLine
 10
130.4803215874566
 20
265.2266187879774
 30
0.0
 11
127.5659430609809
 21
264.3846374511718
 31
0.0
1001
AcDbBlockRepETag
1070
     1
1071
      574
1005
4209
  0
LINE
  5
420A
330
23FC
100
AcDbEntity
  8
LAYER_1
 62
     7
100
AcDbLine
 10
127.5659430609809
 20
264.3846374511718
 30
0.0
 11
125.0696268717447
 21
262.2791673448351
 31
0.0
1001
AcDbBlockRepETag
1070
     1
1071
      575
1005
420A
  0
LINE
  5
420B
330
23FC
100
AcDbEntity
  8
LAYER_1
 62
     7
100
AcDbLine
 10
125.0696268717447
 20
262.2791673448351
 30
0.0
 11
124.2366027832031
 21
258.9114142523872
 31
0.0
1001
AcDbBlockRepETag
1070
     1
1071
      576
1005
420B
  0
LINE
  5
420C
330
23FC
100
AcDbEntity
  8
LAYER_1
 62
     7
100
AcDbLine
 10
124.2366027832031
 20
258.9114142523872
 30
0.0
 11
125.0696268717447
 21
255.5436611599392
 31
0.0
1001
AcDbBlockRepETag
1070
     1
1071
      577
1005
420C
  0
LINE
  5
420D
330
23FC
100
AcDbEntity
  8
LAYER_1
 62
     7
100
AcDbLine
 10
125.0696268717447
 20
255.5436611599392
 30
0.0
 11
127.5659430609809
 21
253.0177171495226
 31
0.0
1001
AcDbBlockRepETag
1070
     1
1071
      578
1005
420D
  0
LINE
  5
420E
330
23FC
100
AcDbEntity
  8
LAYER_1
 62
     7
100
AcDbLine
 10
127.5659430609809
 20
253.0177171495226
 30
0.0
 11
130.4803215874566
 21
252.175735812717
 31
0.0
1001
AcDbBlockRepETag
1070
     1
1071
      579
1005
420E
  0
LINE
  5
420F
330
23FC
100
AcDbEntity
  8
LAYER_1
 62
     7
100
AcDbLine
 10
130.4803215874566
 20
252.175735812717
 30
0.0
 11
133.8100063747829
 21
253.0177171495226
 31
0.0
1001
AcDbBlockRepETag
1070
     1
1071
      580
1005
420F
  0
LINE
  5
4210
330
23FC
100
AcDbEntity
  8
LAYER_1
 62
     7
100
AcDbLine
 10
133.8100063747829
 20
253.0177171495226
 30
0.0
 11
136.3066670735677
 21
255.5436611599392
 31
0.0
1001
AcDbBlockRepETag
1070
     1
1071
      581
1005
4210
  0
LINE
  5
4211
330
23FC
100
AcDbEntity
  8
LAYER_1
 62
     7
100
AcDbLine
 10
136.3066670735677
 20
255.5436611599392
 30
0.0
 11
137.1393466525607
 21
258.9114142523872
 31
0.0
1001
AcDbBlockRepETag
1070
     1
1071
      582
1005
4211
  0
LINE
  5
4212
330
23FC
100
AcDbEntity
  8
LAYER_1
 62
     7
100
AcDbLine
 10
88.44343872070311
 20
282.0664177788628
 30
0.0
 11
97.18399047851562
 21
258.0694329155816
 31
0.0
1001
AcDbBlockRepETag
1070
     1
1071
      583
1005
4212
  0
LINE
  5
4213
330
23FC
100
AcDbEntity
  8
LAYER_1
 62
     7
100
AcDbLine
 10
92.60649210611978
 20
282.487063937717
 30
0.0
 11
111.751921251085
 21
263.9631300184462
 31
0.0
1001
AcDbBlockRepETag
1070
     1
1071
      584
1005
4213
  0
LINE
  5
4214
330
23FC
100
AcDbEntity
  8
LAYER_1
 62
     7
100
AcDbLine
 10
162.5272888183593
 20
254.7016798231336
 30
0.0
 11
161.6956427680121
 21
258.0694329155816
 31
0.0
1001
AcDbBlockRepETag
1070
     1
1071
      585
1005
4214
  0
LINE
  5
4215
330
23FC
100
AcDbEntity
  8
LAYER_1
 62
     7
100
AcDbLine
 10
161.6956427680121
 20
258.0694329155816
 30
0.0
 11
160.0309726291232
 21
260.5953769259983
 31
0.0
1001
AcDbBlockRepETag
1070
     1
1071
      586
1005
4215
  0
LINE
  5
4216
330
23FC
100
AcDbEntity
  8
LAYER_1
 62
     7
100
AcDbLine
 10
160.0309726291232
 20
260.5953769259983
 30
0.0
 11
157.5332784016927
 21
262.2791673448351
 31
0.0
1001
AcDbBlockRepETag
1070
     1
1071
      587
1005
4216
  0
LINE
  5
4217
330
23FC
100
AcDbEntity
  8
LAYER_1
 62
     7
100
AcDbLine
 10
157.5332784016927
 20
262.2791673448351
 30
0.0
 11
154.2035936143663
 21
263.1211486816406
 31
0.0
1001
AcDbBlockRepETag
1070
     1
1071
      588
1005
4217
  0
LINE
  5
4218
330
23FC
100
AcDbEntity
  8
LAYER_1
 62
     7
100
AcDbLine
 10
154.2035936143663
 20
263.1211486816406
 30
0.0
 11
151.2907653808593
 21
262.2791673448351
 31
0.0
1001
AcDbBlockRepETag
1070
     1
1071
      589
1005
4218
  0
LINE
  5
4219
330
23FC
100
AcDbEntity
  8
LAYER_1
 62
     7
100
AcDbLine
 10
151.2907653808593
 20
262.2791673448351
 30
0.0
 11
148.3765591091579
 21
260.5953769259983
 31
0.0
1001
AcDbBlockRepETag
1070
     1
1071
      590
1005
4219
  0
LINE
  5
421A
330
23FC
100
AcDbEntity
  8
LAYER_1
 62
     7
100
AcDbLine
 10
148.3765591091579
 20
260.5953769259983
 30
0.0
 11
146.7111999511718
 21
258.0694329155816
 31
0.0
1001
AcDbBlockRepETag
1070
     1
1071
      591
1005
421A
  0
LINE
  5
421B
330
23FC
100
AcDbEntity
  8
LAYER_1
 62
     7
100
AcDbLine
 10
146.7111999511718
 20
258.0694329155816
 30
0.0
 11
146.2967549641927
 21
254.7016798231336
 31
0.0
1001
AcDbBlockRepETag
1070
     1
1071
      592
1005
421B
  0
LINE
  5
421C
330
23FC
100
AcDbEntity
  8
LAYER_1
 62
     7
100
AcDbLine
 10
146.2967549641927
 20
254.7016798231336
 30
0.0
 11
146.7111999511718
 21
251.7544006347656
 31
0.0
1001
AcDbBlockRepETag
1070
     1
1071
      593
1005
421C
  0
LINE
  5
421D
330
23FC
100
AcDbEntity
  8
LAYER_1
 62
     7
100
AcDbLine
 10
146.7111999511718
 20
251.7544006347656
 30
0.0
 11
148.3765591091579
 21
248.8079827202691
 31
0.0
1001
AcDbBlockRepETag
1070
     1
1071
      594
1005
421D
  0
LINE
  5
421E
330
23FC
100
AcDbEntity
  8
LAYER_1
 62
     7
100
AcDbLine
 10
148.3765591091579
 20
248.8079827202691
 30
0.0
 11
151.2907653808593
 21
247.1231587727864
 31
0.0
1001
AcDbBlockRepETag
1070
     1
1071
      595
1005
421E
  0
LINE
  5
421F
330
23FC
100
AcDbEntity
  8
LAYER_1
 62
     7
100
AcDbLine
 10
151.2907653808593
 20
247.1231587727864
 30
0.0
 11
154.2035936143663
 21
246.7026848687066
 31
0.0
1001
AcDbBlockRepETag
1070
     1
1071
      596
1005
421F
  0
LINE
  5
4220
330
23FC
100
AcDbEntity
  8
LAYER_1
 62
     7
100
AcDbLine
 10
154.2035936143663
 20
246.7026848687066
 30
0.0
 11
157.5332784016927
 21
247.1231587727864
 31
0.0
1001
AcDbBlockRepETag
1070
     1
1071
      597
1005
4220
  0
LINE
  5
4221
330
23FC
100
AcDbEntity
  8
LAYER_1
 62
     7
100
AcDbLine
 10
157.5332784016927
 20
247.1231587727864
 30
0.0
 11
160.0309726291232
 21
248.8079827202691
 31
0.0
1001
AcDbBlockRepETag
1070
     1
1071
      598
1005
4221
  0
LINE
  5
4222
330
23FC
100
AcDbEntity
  8
LAYER_1
 62
     7
100
AcDbLine
 10
160.0309726291232
 20
248.8079827202691
 30
0.0
 11
161.6956427680121
 21
251.7544006347656
 31
0.0
1001
AcDbBlockRepETag
1070
     1
1071
      599
1005
4222
  0
LINE
  5
4223
330
23FC
100
AcDbEntity
  8
LAYER_1
 62
     7
100
AcDbLine
 10
161.6956427680121
 20
251.7544006347656
 30
0.0
 11
162.5272888183593
 21
254.7016798231336
 31
0.0
1001
AcDbBlockRepETag
1070
     1
1071
      600
1005
4223
  0
LINE
  5
4224
330
23FC
100
AcDbEntity
  8
LAYER_1
 62
     7
100
AcDbLine
 10
157.5332784016927
 20
268.5943718804253
 30
0.0
 11
157.1164218478732
 21
271.9621249728732
 31
0.0
1001
AcDbBlockRepETag
1070
     1
1071
      601
1005
4224
  0
LINE
  5
4225
330
23FC
100
AcDbEntity
  8
LAYER_1
 62
     7
100
AcDbLine
 10
157.1164218478732
 20
271.9621249728732
 30
0.0
 11
155.4517517089843
 21
274.4880689832899
 31
0.0
1001
AcDbBlockRepETag
1070
     1
1071
      602
1005
4225
  0
LINE
  5
4226
330
23FC
100
AcDbEntity
  8
LAYER_1
 62
     7
100
AcDbLine
 10
155.4517517089843
 20
274.4880689832899
 30
0.0
 11
152.539267985026
 21
276.172031656901
 31
0.0
1001
AcDbBlockRepETag
1070
     1
1071
      603
1005
4226
  0
LINE
  5
4227
330
23FC
100
AcDbEntity
  8
LAYER_1
 62
     7
100
AcDbLine
 10
152.539267985026
 20
276.172031656901
 30
0.0
 11
149.6260952419704
 21
276.5931945800781
 31
0.0
1001
AcDbBlockRepETag
1070
     1
1071
      604
1005
4227
  0
LINE
  5
4228
330
23FC
100
AcDbEntity
  8
LAYER_1
 62
     7
100
AcDbLine
 10
149.6260952419704
 20
276.5931945800781
 30
0.0
 11
146.7111999511718
 21
276.172031656901
 31
0.0
1001
AcDbBlockRepETag
1070
     1
1071
      605
1005
4228
  0
LINE
  5
4229
330
23FC
100
AcDbEntity
  8
LAYER_1
 62
     7
100
AcDbLine
 10
146.7111999511718
 20
276.172031656901
 30
0.0
 11
144.2152282714843
 21
274.4880689832899
 31
0.0
1001
AcDbBlockRepETag
1070
     1
1071
      606
1005
4229
  0
LINE
  5
422A
330
23FC
100
AcDbEntity
  8
LAYER_1
 62
     7
100
AcDbLine
 10
144.2152282714843
 20
274.4880689832899
 30
0.0
 11
142.5502136230468
 21
271.9621249728732
 31
0.0
1001
AcDbBlockRepETag
1070
     1
1071
      607
1005
422A
  0
LINE
  5
422B
330
23FC
100
AcDbEntity
  8
LAYER_1
 62
     7
100
AcDbLine
 10
142.5502136230468
 20
271.9621249728732
 30
0.0
 11
141.7175340440538
 21
268.5943718804253
 31
0.0
1001
AcDbBlockRepETag
1070
     1
1071
      608
1005
422B
  0
LINE
  5
422C
330
23FC
100
AcDbEntity
  8
LAYER_1
 62
     7
100
AcDbLine
 10
141.7175340440538
 20
268.5943718804253
 30
0.0
 11
142.5502136230468
 21
265.6470926920572
 31
0.0
1001
AcDbBlockRepETag
1070
     1
1071
      609
1005
422C
  0
LINE
  5
422D
330
23FC
100
AcDbEntity
  8
LAYER_1
 62
     7
100
AcDbLine
 10
142.5502136230468
 20
265.6470926920572
 30
0.0
 11
144.2152282714843
 21
263.1211486816406
 31
0.0
1001
AcDbBlockRepETag
1070
     1
1071
      610
1005
422D
  0
LINE
  5
422E
330
23FC
100
AcDbEntity
  8
LAYER_1
 62
     7
100
AcDbLine
 10
144.2152282714843
 20
263.1211486816406
 30
0.0
 11
146.7111999511718
 21
261.4373582628038
 31
0.0
1001
AcDbBlockRepETag
1070
     1
1071
      611
1005
422E
  0
LINE
  5
422F
330
23FC
100
AcDbEntity
  8
LAYER_1
 62
     7
100
AcDbLine
 10
146.7111999511718
 20
261.4373582628038
 30
0.0
 11
149.6260952419704
 21
260.5953769259983
 31
0.0
1001
AcDbBlockRepETag
1070
     1
1071
      612
1005
422F
  0
LINE
  5
4230
330
23FC
100
AcDbEntity
  8
LAYER_1
 62
     7
100
AcDbLine
 10
149.6260952419704
 20
260.5953769259983
 30
0.0
 11
152.539267985026
 21
261.4373582628038
 31
0.0
1001
AcDbBlockRepETag
1070
     1
1071
      613
1005
4230
  0
LINE
  5
4231
330
23FC
100
AcDbEntity
  8
LAYER_1
 62
     7
100
AcDbLine
 10
152.539267985026
 20
261.4373582628038
 30
0.0
 11
155.4517517089843
 21
263.1211486816406
 31
0.0
1001
AcDbBlockRepETag
1070
     1
1071
      614
1005
4231
  0
LINE
  5
4232
330
23FC
100
AcDbEntity
  8
LAYER_1
 62
     7
100
AcDbLine
 10
155.4517517089843
 20
263.1211486816406
 30
0.0
 11
157.1164218478732
 21
265.6470926920572
 31
0.0
1001
AcDbBlockRepETag
1070
     1
1071
      615
1005
4232
  0
LINE
  5
4233
330
23FC
100
AcDbEntity
  8
LAYER_1
 62
     7
100
AcDbLine
 10
157.1164218478732
 20
265.6470926920572
 30
0.0
 11
157.5332784016927
 21
268.5943718804253
 31
0.0
1001
AcDbBlockRepETag
1070
     1
1071
      616
1005
4233
  0
LINE
  5
4234
330
23FC
100
AcDbEntity
  8
LAYER_1
 62
     7
100
AcDbLine
 10
133.8100063747829
 20
253.0177171495226
 30
0.0
 11
136.3066670735677
 21
250.9124192979601
 31
0.0
1001
AcDbBlockRepETag
1070
     1
1071
      617
1005
4234
  0
LINE
  5
4235
330
23FC
100
AcDbEntity
  8
LAYER_1
 62
     7
100
AcDbLine
 10
136.3066670735677
 20
250.9124192979601
 30
0.0
 11
138.8043613009982
 21
250.0704379611545
 31
0.0
1001
AcDbBlockRepETag
1070
     1
1071
      618
1005
4235
  0
LINE
  5
4236
330
23FC
100
AcDbEntity
  8
LAYER_1
 62
     7
100
AcDbLine
 10
138.8043613009982
 20
250.0704379611545
 30
0.0
 11
141.7175340440538
 21
250.4919453938802
 31
0.0
1001
AcDbBlockRepETag
1070
     1
1071
      619
1005
4236
  0
LINE
  5
4237
330
23FC
100
AcDbEntity
  8
LAYER_1
 62
     7
100
AcDbLine
 10
141.7175340440538
 20
250.4919453938802
 30
0.0
 11
144.6320848253038
 21
251.7544006347656
 31
0.0
1001
AcDbBlockRepETag
1070
     1
1071
      620
1005
4237
  0
LINE
  5
4238
330
23FC
100
AcDbEntity
  8
LAYER_1
 62
     7
100
AcDbLine
 10
144.6320848253038
 20
251.7544006347656
 30
0.0
 11
146.2967549641927
 21
253.8596984863281
 31
0.0
1001
AcDbBlockRepETag
1070
     1
1071
      621
1005
4238
  0
LINE
  5
4239
330
23FC
100
AcDbEntity
  8
LAYER_1
 62
     7
100
AcDbLine
 10
146.2967549641927
 20
253.8596984863281
 30
0.0
 11
147.1284010145399
 21
256.8061164008246
 31
0.0
1001
AcDbBlockRepETag
1070
     1
1071
      622
1005
4239
  0
LINE
  5
423A
330
23FC
100
AcDbEntity
  8
LAYER_1
 62
     7
100
AcDbLine
 10
147.1284010145399
 20
256.8061164008246
 30
0.0
 11
146.7111999511718
 21
259.7533955891927
 31
0.0
1001
AcDbBlockRepETag
1070
     1
1071
      623
1005
423A
  0
LINE
  5
423B
330
23FC
100
AcDbEntity
  8
LAYER_1
 62
     7
100
AcDbLine
 10
146.7111999511718
 20
259.7533955891927
 30
0.0
 11
145.0468743218316
 21
262.2791673448351
 31
0.0
1001
AcDbBlockRepETag
1070
     1
1071
      624
1005
423B
  0
LINE
  5
423C
330
23FC
100
AcDbEntity
  8
LAYER_1
 62
     7
100
AcDbLine
 10
145.0468743218316
 20
262.2791673448351
 30
0.0
 11
142.9670701768663
 21
263.9631300184462
 31
0.0
1001
AcDbBlockRepETag
1070
     1
1071
      625
1005
423C
  0
LINE
  5
423D
330
23FC
100
AcDbEntity
  8
LAYER_1
 62
     7
100
AcDbLine
 10
142.9670701768663
 20
263.9631300184462
 30
0.0
 11
140.0521748860677
 21
264.8051113552517
 31
0.0
1001
AcDbBlockRepETag
1070
     1
1071
      626
1005
423D
  0
LINE
  5
423E
330
23FC
100
AcDbEntity
  8
LAYER_1
 62
     7
100
AcDbLine
 10
140.0521748860677
 20
264.8051113552517
 30
0.0
 11
137.1393466525607
 21
264.3846374511718
 31
0.0
1001
AcDbBlockRepETag
1070
     1
1071
      627
1005
423E
  0
LINE
  5
423F
330
23FC
100
AcDbEntity
  8
LAYER_1
 62
     7
100
AcDbLine
 10
137.1393466525607
 20
264.3846374511718
 30
0.0
 11
134.6413079155816
 21
262.7006747775607
 31
0.0
1001
AcDbBlockRepETag
1070
     1
1071
      628
1005
423F
  0
LINE
  5
4240
330
23FC
100
AcDbEntity
  8
LAYER_1
 62
     7
100
AcDbLine
 10
172.1008646647135
 20
269.4363532172309
 30
0.0
 11
171.6843526204427
 21
272.8039340549045
 31
0.0
1001
AcDbBlockRepETag
1070
     1
1071
      629
1005
4240
  0
LINE
  5
4241
330
23FC
100
AcDbEntity
  8
LAYER_1
 62
     7
100
AcDbLine
 10
171.6843526204427
 20
272.8039340549045
 30
0.0
 11
169.6028259277343
 21
275.7513854980468
 31
0.0
1001
AcDbBlockRepETag
1070
     1
1071
      630
1005
4241
  0
LINE
  5
4242
330
23FC
100
AcDbEntity
  8
LAYER_1
 62
     7
100
AcDbLine
 10
169.6028259277343
 20
275.7513854980468
 30
0.0
 11
166.690342203776
 21
277.435348171658
 31
0.0
1001
AcDbBlockRepETag
1070
     1
1071
      631
1005
4242
  0
LINE
  5
4243
330
23FC
100
AcDbEntity
  8
LAYER_1
 62
     7
100
AcDbLine
 10
166.690342203776
 20
277.435348171658
 30
0.0
 11
163.3610019259982
 21
278.2773295084636
 31
0.0
1001
AcDbBlockRepETag
1070
     1
1071
      632
1005
4243
  0
LINE
  5
4244
330
23FC
100
AcDbEntity
  8
LAYER_1
 62
     7
100
AcDbLine
 10
163.3610019259982
 20
278.2773295084636
 30
0.0
 11
160.0309726291232
 21
277.435348171658
 31
0.0
1001
AcDbBlockRepETag
1070
     1
1071
      633
1005
4244
  0
LINE
  5
4245
330
23FC
100
AcDbEntity
  8
LAYER_1
 62
     7
100
AcDbLine
 10
160.0309726291232
 20
277.435348171658
 30
0.0
 11
157.1164218478732
 21
275.7513854980468
 31
0.0
1001
AcDbBlockRepETag
1070
     1
1071
      634
1005
4245
  0
LINE
  5
4246
330
23FC
100
AcDbEntity
  8
LAYER_1
 62
     7
100
AcDbLine
 10
157.1164218478732
 20
275.7513854980468
 30
0.0
 11
155.4517517089843
 21
272.8039340549045
 31
0.0
1001
AcDbBlockRepETag
1070
     1
1071
      635
1005
4246
  0
LINE
  5
4247
330
23FC
100
AcDbEntity
  8
LAYER_1
 62
     7
100
AcDbLine
 10
155.4517517089843
 20
272.8039340549045
 30
0.0
 11
154.6201056586371
 21
269.4363532172309
 31
0.0
1001
AcDbBlockRepETag
1070
     1
1071
      636
1005
4247
  0
LINE
  5
4248
330
23FC
100
AcDbEntity
  8
LAYER_1
 62
     7
100
AcDbLine
 10
154.6201056586371
 20
269.4363532172309
 30
0.0
 11
155.4517517089843
 21
266.0684278700086
 31
0.0
1001
AcDbBlockRepETag
1070
     1
1071
      637
1005
4248
  0
LINE
  5
4249
330
23FC
100
AcDbEntity
  8
LAYER_1
 62
     7
100
AcDbLine
 10
155.4517517089843
 20
266.0684278700086
 30
0.0
 11
157.1164218478732
 21
263.1211486816406
 31
0.0
1001
AcDbBlockRepETag
1070
     1
1071
      638
1005
4249
  0
LINE
  5
424A
330
23FC
100
AcDbEntity
  8
LAYER_1
 62
     7
100
AcDbLine
 10
157.1164218478732
 20
263.1211486816406
 30
0.0
 11
160.0309726291232
 21
261.0167121039496
 31
0.0
1001
AcDbBlockRepETag
1070
     1
1071
      639
1005
424A
  0
LINE
  5
424B
330
23FC
100
AcDbEntity
  8
LAYER_1
 62
     7
100
AcDbLine
 10
160.0309726291232
 20
261.0167121039496
 30
0.0
 11
163.3610019259982
 21
260.5953769259983
 31
0.0
1001
AcDbBlockRepETag
1070
     1
1071
      640
1005
424B
  0
LINE
  5
424C
330
23FC
100
AcDbEntity
  8
LAYER_1
 62
     7
100
AcDbLine
 10
163.3610019259982
 20
260.5953769259983
 30
0.0
 11
166.690342203776
 21
261.0167121039496
 31
0.0
1001
AcDbBlockRepETag
1070
     1
1071
      641
1005
424C
  0
LINE
  5
424D
330
23FC
100
AcDbEntity
  8
LAYER_1
 62
     7
100
AcDbLine
 10
166.690342203776
 20
261.0167121039496
 30
0.0
 11
169.6028259277343
 21
263.1211486816406
 31
0.0
1001
AcDbBlockRepETag
1070
     1
1071
      642
1005
424D
  0
LINE
  5
424E
330
23FC
100
AcDbEntity
  8
LAYER_1
 62
     7
100
AcDbLine
 10
169.6028259277343
 20
263.1211486816406
 30
0.0
 11
171.6843526204427
 21
266.0684278700086
 31
0.0
1001
AcDbBlockRepETag
1070
     1
1071
      643
1005
424E
  0
LINE
  5
424F
330
23FC
100
AcDbEntity
  8
LAYER_1
 62
     7
100
AcDbLine
 10
171.6843526204427
 20
266.0684278700086
 30
0.0
 11
172.1008646647135
 21
269.4363532172309
 31
0.0
1001
AcDbBlockRepETag
1070
     1
1071
      644
1005
424F
  0
LINE
  5
4250
330
23FC
100
AcDbEntity
  8
LAYER_1
 62
     7
100
AcDbLine
 10
154.2035936143663
 20
328.375735812717
 30
0.0
 11
153.7870815700954
 21
331.3221537272135
 31
0.0
1001
AcDbBlockRepETag
1070
     1
1071
      645
1005
4250
  0
LINE
  5
4251
330
23FC
100
AcDbEntity
  8
LAYER_1
 62
     7
100
AcDbLine
 10
153.7870815700954
 20
331.3221537272135
 30
0.0
 11
152.1220669216579
 21
334.2694329155815
 31
0.0
1001
AcDbBlockRepETag
1070
     1
1071
      646
1005
4251
  0
LINE
  5
4252
330
23FC
100
AcDbEntity
  8
LAYER_1
 62
     7
100
AcDbLine
 10
152.1220669216579
 20
334.2694329155815
 30
0.0
 11
149.6260952419704
 21
335.9533955891927
 31
0.0
1001
AcDbBlockRepETag
1070
     1
1071
      647
1005
4252
  0
LINE
  5
4253
330
23FC
100
AcDbEntity
  8
LAYER_1
 62
     7
100
AcDbLine
 10
149.6260952419704
 20
335.9533955891927
 30
0.0
 11
146.2967549641927
 21
336.3747307671441
 31
0.0
1001
AcDbBlockRepETag
1070
     1
1071
      648
1005
4253
  0
LINE
  5
4254
330
23FC
100
AcDbEntity
  8
LAYER_1
 62
     7
100
AcDbLine
 10
146.2967549641927
 20
336.3747307671441
 30
0.0
 11
143.381859673394
 21
335.9533955891927
 31
0.0
1001
AcDbBlockRepETag
1070
     1
1071
      649
1005
4254
  0
LINE
  5
4255
330
23FC
100
AcDbEntity
  8
LAYER_1
 62
     7
100
AcDbLine
 10
143.381859673394
 20
335.9533955891927
 30
0.0
 11
140.8858879937065
 21
334.2694329155815
 31
0.0
1001
AcDbBlockRepETag
1070
     1
1071
      650
1005
4255
  0
LINE
  5
4256
330
23FC
100
AcDbEntity
  8
LAYER_1
 62
     7
100
AcDbLine
 10
140.8858879937065
 20
334.2694329155815
 30
0.0
 11
139.2208733452691
 21
331.3221537272135
 31
0.0
1001
AcDbBlockRepETag
1070
     1
1071
      651
1005
4256
  0
LINE
  5
4257
330
23FC
100
AcDbEntity
  8
LAYER_1
 62
     7
100
AcDbLine
 10
139.2208733452691
 20
331.3221537272135
 30
0.0
 11
138.3875047471788
 21
328.375735812717
 31
0.0
1001
AcDbBlockRepETag
1070
     1
1071
      652
1005
4257
  0
LINE
  5
4258
330
23FC
100
AcDbEntity
  8
LAYER_1
 62
     7
100
AcDbLine
 10
138.3875047471788
 20
328.375735812717
 30
0.0
 11
139.2208733452691
 21
325.428456624349
 31
0.0
1001
AcDbBlockRepETag
1070
     1
1071
      653
1005
4258
  0
LINE
  5
4259
330
23FC
100
AcDbEntity
  8
LAYER_1
 62
     7
100
AcDbLine
 10
139.2208733452691
 20
325.428456624349
 30
0.0
 11
140.8858879937065
 21
322.9026848687066
 31
0.0
1001
AcDbBlockRepETag
1070
     1
1071
      654
1005
4259
  0
LINE
  5
425A
330
23FC
100
AcDbEntity
  8
LAYER_1
 62
     7
100
AcDbLine
 10
140.8858879937065
 20
322.9026848687066
 30
0.0
 11
143.381859673394
 21
320.7972147623698
 31
0.0
1001
AcDbBlockRepETag
1070
     1
1071
      655
1005
425A
  0
LINE
  5
425B
330
23FC
100
AcDbEntity
  8
LAYER_1
 62
     7
100
AcDbLine
 10
143.381859673394
 20
320.7972147623698
 30
0.0
 11
146.2967549641927
 21
320.3765686035156
 31
0.0
1001
AcDbBlockRepETag
1070
     1
1071
      656
1005
425B
  0
LINE
  5
425C
330
23FC
100
AcDbEntity
  8
LAYER_1
 62
     7
100
AcDbLine
 10
146.2967549641927
 20
320.3765686035156
 30
0.0
 11
149.6260952419704
 21
320.7972147623698
 31
0.0
1001
AcDbBlockRepETag
1070
     1
1071
      657
1005
425C
  0
LINE
  5
425D
330
23FC
100
AcDbEntity
  8
LAYER_1
 62
     7
100
AcDbLine
 10
149.6260952419704
 20
320.7972147623698
 30
0.0
 11
152.1220669216579
 21
322.9026848687066
 31
0.0
1001
AcDbBlockRepETag
1070
     1
1071
      658
1005
425D
  0
LINE
  5
425E
330
23FC
100
AcDbEntity
  8
LAYER_1
 62
     7
100
AcDbLine
 10
152.1220669216579
 20
322.9026848687066
 30
0.0
 11
153.7870815700954
 21
325.428456624349
 31
0.0
1001
AcDbBlockRepETag
1070
     1
1071
      659
1005
425E
  0
LINE
  5
425F
330
23FC
100
AcDbEntity
  8
LAYER_1
 62
     7
100
AcDbLine
 10
153.7870815700954
 20
325.428456624349
 30
0.0
 11
154.2035936143663
 21
328.375735812717
 31
0.0
1001
AcDbBlockRepETag
1070
     1
1071
      660
1005
425F
  0
LINE
  5
4260
330
23FC
100
AcDbEntity
  8
LAYER_1
 62
     7
100
AcDbLine
 10
169.1863138834635
 20
327.9544006347656
 30
0.0
 11
168.3550123426649
 21
330.9016798231336
 31
0.0
1001
AcDbBlockRepETag
1070
     1
1071
      661
1005
4260
  0
LINE
  5
4261
330
23FC
100
AcDbEntity
  8
LAYER_1
 62
     7
100
AcDbLine
 10
168.3550123426649
 20
330.9016798231336
 30
0.0
 11
166.690342203776
 21
333.427451578776
 31
0.0
1001
AcDbBlockRepETag
1070
     1
1071
      662
1005
4261
  0
LINE
  5
4262
330
23FC
100
AcDbEntity
  8
LAYER_1
 62
     7
100
AcDbLine
 10
166.690342203776
 20
333.427451578776
 30
0.0
 11
163.7771694607204
 21
335.5327494303385
 31
0.0
1001
AcDbBlockRepETag
1070
     1
1071
      663
1005
4262
  0
LINE
  5
4263
330
23FC
100
AcDbEntity
  8
LAYER_1
 62
     7
100
AcDbLine
 10
163.7771694607204
 20
335.5327494303385
 30
0.0
 11
160.8626186794704
 21
335.9533955891927
 31
0.0
1001
AcDbBlockRepETag
1070
     1
1071
      664
1005
4263
  0
LINE
  5
4264
330
23FC
100
AcDbEntity
  8
LAYER_1
 62
     7
100
AcDbLine
 10
160.8626186794704
 20
335.9533955891927
 30
0.0
 11
157.5332784016927
 21
335.5327494303385
 31
0.0
1001
AcDbBlockRepETag
1070
     1
1071
      665
1005
4264
  0
LINE
  5
4265
330
23FC
100
AcDbEntity
  8
LAYER_1
 62
     7
100
AcDbLine
 10
157.5332784016927
 20
335.5327494303385
 30
0.0
 11
155.0369622124566
 21
333.427451578776
 31
0.0
1001
AcDbBlockRepETag
1070
     1
1071
      666
1005
4265
  0
LINE
  5
4266
330
23FC
100
AcDbEntity
  8
LAYER_1
 62
     7
100
AcDbLine
 10
155.0369622124566
 20
333.427451578776
 30
0.0
 11
153.3722920735677
 21
330.9016798231336
 31
0.0
1001
AcDbBlockRepETag
1070
     1
1071
      667
1005
4266
  0
LINE
  5
4267
330
23FC
100
AcDbEntity
  8
LAYER_1
 62
     7
100
AcDbLine
 10
153.3722920735677
 20
330.9016798231336
 30
0.0
 11
152.539267985026
 21
327.9544006347656
 31
0.0
1001
AcDbBlockRepETag
1070
     1
1071
      668
1005
4267
  0
LINE
  5
4268
330
23FC
100
AcDbEntity
  8
LAYER_1
 62
     7
100
AcDbLine
 10
152.539267985026
 20
327.9544006347656
 30
0.0
 11
153.3722920735677
 21
324.5864752875434
 31
0.0
1001
AcDbBlockRepETag
1070
     1
1071
      669
1005
4268
  0
LINE
  5
4269
330
23FC
100
AcDbEntity
  8
LAYER_1
 62
     7
100
AcDbLine
 10
153.3722920735677
 20
324.5864752875434
 30
0.0
 11
155.0369622124566
 21
322.060703531901
 31
0.0
1001
AcDbBlockRepETag
1070
     1
1071
      670
1005
4269
  0
LINE
  5
426A
330
23FC
100
AcDbEntity
  8
LAYER_1
 62
     7
100
AcDbLine
 10
155.0369622124566
 20
322.060703531901
 30
0.0
 11
157.5332784016927
 21
319.9554056803385
 31
0.0
1001
AcDbBlockRepETag
1070
     1
1071
      671
1005
426A
  0
LINE
  5
426B
330
23FC
100
AcDbEntity
  8
LAYER_1
 62
     7
100
AcDbLine
 10
157.5332784016927
 20
319.9554056803385
 30
0.0
 11
160.8626186794704
 21
319.5349317762587
 31
0.0
1001
AcDbBlockRepETag
1070
     1
1071
      672
1005
426B
  0
LINE
  5
426C
330
23FC
100
AcDbEntity
  8
LAYER_1
 62
     7
100
AcDbLine
 10
160.8626186794704
 20
319.5349317762587
 30
0.0
 11
163.7771694607204
 21
319.9554056803385
 31
0.0
1001
AcDbBlockRepETag
1070
     1
1071
      673
1005
426C
  0
LINE
  5
426D
330
23FC
100
AcDbEntity
  8
LAYER_1
 62
     7
100
AcDbLine
 10
163.7771694607204
 20
319.9554056803385
 30
0.0
 11
166.690342203776
 21
322.060703531901
 31
0.0
1001
AcDbBlockRepETag
1070
     1
1071
      674
1005
426D
  0
LINE
  5
426E
330
23FC
100
AcDbEntity
  8
LAYER_1
 62
     7
100
AcDbLine
 10
166.690342203776
 20
322.060703531901
 30
0.0
 11
168.3550123426649
 21
324.5864752875434
 31
0.0
1001
AcDbBlockRepETag
1070
     1
1071
      675
1005
426E
  0
LINE
  5
426F
330
23FC
100
AcDbEntity
  8
LAYER_1
 62
     7
100
AcDbLine
 10
168.3550123426649
 20
324.5864752875434
 30
0.0
 11
169.1863138834635
 21
327.9544006347656
 31
0.0
1001
AcDbBlockRepETag
1070
     1
1071
      676
1005
426F
  0
LINE
  5
4270
330
23FC
100
AcDbEntity
  8
LAYER_1
 62
     7
100
AcDbLine
 10
83.86594034830729
 20
329.2177171495225
 30
0.0
 11
94.27116224500867
 21
320.3765686035156
 31
0.0
1001
AcDbBlockRepETag
1070
     1
1071
      677
1005
4270
  0
LINE
  5
4271
330
23FC
100
AcDbEntity
  8
LAYER_1
 62
     7
100
AcDbLine
 10
94.27116224500867
 20
320.3765686035156
 30
0.0
 11
105.5076856825086
 21
312.3777459038628
 31
0.0
1001
AcDbBlockRepETag
1070
     1
1071
      678
1005
4271
  0
LINE
  5
4272
330
23FC
100
AcDbEntity
  8
LAYER_1
 62
     7
100
AcDbLine
 10
105.5076856825086
 20
312.3777459038628
 30
0.0
 11
117.5775777180989
 21
306.0625413682725
 31
0.0
1001
AcDbBlockRepETag
1070
     1
1071
      679
1005
4272
  0
LINE
  5
4273
330
23FC
100
AcDbEntity
  8
LAYER_1
 62
     7
100
AcDbLine
 10
89.27508477105034
 20
339.742483859592
 30
0.0
 11
98.01563652886285
 21
330.4800001356337
 31
0.0
1001
AcDbBlockRepETag
1070
     1
1071
      680
1005
4273
  0
LINE
  5
4274
330
23FC
100
AcDbEntity
  8
LAYER_1
 62
     7
100
AcDbLine
 10
98.01563652886285
 20
330.4800001356337
 30
0.0
 11
107.589212375217
 21
322.9026848687066
 31
0.0
1001
AcDbBlockRepETag
1070
     1
1071
      681
1005
4274
  0
LINE
  5
4275
330
23FC
100
AcDbEntity
  8
LAYER_1
 62
     7
100
AcDbLine
 10
107.589212375217
 20
322.9026848687066
 30
0.0
 11
118.825735812717
 21
317.008987765842
 31
0.0
1001
AcDbBlockRepETag
1070
     1
1071
      682
1005
4275
  0
LINE
  5
4276
330
23FC
100
AcDbEntity
  8
LAYER_1
 62
     7
100
AcDbLine
 10
139.6360073513455
 20
325.8497918023004
 30
0.0
 11
139.2208733452691
 21
329.2177171495225
 31
0.0
1001
AcDbBlockRepETag
1070
     1
1071
      683
1005
4276
  0
LINE
  5
4277
330
23FC
100
AcDbEntity
  8
LAYER_1
 62
     7
100
AcDbLine
 10
139.2208733452691
 20
329.2177171495225
 30
0.0
 11
137.1393466525607
 21
332.1649963378906
 31
0.0
1001
AcDbBlockRepETag
1070
     1
1071
      684
1005
4277
  0
LINE
  5
4278
330
23FC
100
AcDbEntity
  8
LAYER_1
 62
     7
100
AcDbLine
 10
137.1393466525607
 20
332.1649963378906
 30
0.0
 11
134.2265184190538
 21
334.2694329155815
 31
0.0
1001
AcDbBlockRepETag
1070
     1
1071
      685
1005
4278
  0
LINE
  5
4279
330
23FC
100
AcDbEntity
  8
LAYER_1
 62
     7
100
AcDbLine
 10
134.2265184190538
 20
334.2694329155815
 30
0.0
 11
130.4803215874566
 21
335.1112419976128
 31
0.0
1001
AcDbBlockRepETag
1070
     1
1071
      686
1005
4279
  0
LINE
  5
427A
330
23FC
100
AcDbEntity
  8
LAYER_1
 62
     7
100
AcDbLine
 10
130.4803215874566
 20
335.1112419976128
 30
0.0
 11
127.1511535644531
 21
334.2694329155815
 31
0.0
1001
AcDbBlockRepETag
1070
     1
1071
      687
1005
427A
  0
LINE
  5
427B
330
23FC
100
AcDbEntity
  8
LAYER_1
 62
     7
100
AcDbLine
 10
127.1511535644531
 20
334.2694329155815
 30
0.0
 11
124.2366027832031
 21
332.1649963378906
 31
0.0
1001
AcDbBlockRepETag
1070
     1
1071
      688
1005
427B
  0
LINE
  5
427C
330
23FC
100
AcDbEntity
  8
LAYER_1
 62
     7
100
AcDbLine
 10
124.2366027832031
 20
332.1649963378906
 30
0.0
 11
122.1567986382378
 21
329.2177171495225
 31
0.0
1001
AcDbBlockRepETag
1070
     1
1071
      689
1005
427C
  0
LINE
  5
427D
330
23FC
100
AcDbEntity
  8
LAYER_1
 62
     7
100
AcDbLine
 10
122.1567986382378
 20
329.2177171495225
 30
0.0
 11
121.3237745496961
 21
325.8497918023004
 31
0.0
1001
AcDbBlockRepETag
1070
     1
1071
      690
1005
427D
  0
LINE
  5
427E
330
23FC
100
AcDbEntity
  8
LAYER_1
 62
     7
100
AcDbLine
 10
121.3237745496961
 20
325.8497918023004
 30
0.0
 11
122.1567986382378
 21
322.060703531901
 31
0.0
1001
AcDbBlockRepETag
1070
     1
1071
      691
1005
427E
  0
LINE
  5
427F
330
23FC
100
AcDbEntity
  8
LAYER_1
 62
     7
100
AcDbLine
 10
122.1567986382378
 20
322.060703531901
 30
0.0
 11
124.2366027832031
 21
319.113424343533
 31
0.0
1001
AcDbBlockRepETag
1070
     1
1071
      692
1005
427F
  0
LINE
  5
4280
330
23FC
100
AcDbEntity
  8
LAYER_1
 62
     7
100
AcDbLine
 10
124.2366027832031
 20
319.113424343533
 30
0.0
 11
127.1511535644531
 21
317.4294616699218
 31
0.0
1001
AcDbBlockRepETag
1070
     1
1071
      693
1005
4280
  0
LINE
  5
4281
330
23FC
100
AcDbEntity
  8
LAYER_1
 62
     7
100
AcDbLine
 10
127.1511535644531
 20
317.4294616699218
 30
0.0
 11
130.4803215874566
 21
316.587308078342
 31
0.0
1001
AcDbBlockRepETag
1070
     1
1071
      694
1005
4281
  0
LINE
  5
4282
330
23FC
100
AcDbEntity
  8
LAYER_1
 62
     7
100
AcDbLine
 10
130.4803215874566
 20
316.587308078342
 30
0.0
 11
134.2265184190538
 21
317.4294616699218
 31
0.0
1001
AcDbBlockRepETag
1070
     1
1071
      695
1005
4282
  0
LINE
  5
4283
330
23FC
100
AcDbEntity
  8
LAYER_1
 62
     7
100
AcDbLine
 10
134.2265184190538
 20
317.4294616699218
 30
0.0
 11
137.1393466525607
 21
319.113424343533
 31
0.0
1001
AcDbBlockRepETag
1070
     1
1071
      696
1005
4283
  0
LINE
  5
4284
330
23FC
100
AcDbEntity
  8
LAYER_1
 62
     7
100
AcDbLine
 10
137.1393466525607
 20
319.113424343533
 30
0.0
 11
139.2208733452691
 21
322.060703531901
 31
0.0
1001
AcDbBlockRepETag
1070
     1
1071
      697
1005
4284
  0
LINE
  5
4285
330
23FC
100
AcDbEntity
  8
LAYER_1
 62
     7
100
AcDbLine
 10
139.2208733452691
 20
322.060703531901
 30
0.0
 11
139.6360073513455
 21
325.8497918023004
 31
0.0
1001
AcDbBlockRepETag
1070
     1
1071
      698
1005
4285
  0
LINE
  5
4286
330
23FC
100
AcDbEntity
  8
LAYER_1
 62
     7
100
AcDbLine
 10
132.5618482801649
 20
310.6937832302517
 30
0.0
 11
132.1456807454427
 21
313.6410624186197
 31
0.0
1001
AcDbBlockRepETag
1070
     1
1071
      699
1005
4286
  0
LINE
  5
4287
330
23FC
100
AcDbEntity
  8
LAYER_1
 62
     7
100
AcDbLine
 10
132.1456807454427
 20
313.6410624186197
 30
0.0
 11
130.4803215874566
 21
316.1670064290364
 31
0.0
1001
AcDbBlockRepETag
1070
     1
1071
      700
1005
4287
  0
LINE
  5
4288
330
23FC
100
AcDbEntity
  8
LAYER_1
 62
     7
100
AcDbLine
 10
130.4803215874566
 20
316.1670064290364
 30
0.0
 11
127.9827996148003
 21
317.8507968478732
 31
0.0
1001
AcDbBlockRepETag
1070
     1
1071
      701
1005
4288
  0
LINE
  5
4289
330
23FC
100
AcDbEntity
  8
LAYER_1
 62
     7
100
AcDbLine
 10
127.9827996148003
 20
317.8507968478732
 30
0.0
 11
124.6531148274739
 21
318.6927781846788
 31
0.0
1001
AcDbBlockRepETag
1070
     1
1071
      702
1005
4289
  0
LINE
  5
428A
330
23FC
100
AcDbEntity
  8
LAYER_1
 62
     7
100
AcDbLine
 10
124.6531148274739
 20
318.6927781846788
 30
0.0
 11
121.740286593967
 21
317.8507968478732
 31
0.0
1001
AcDbBlockRepETag
1070
     1
1071
      703
1005
428A
  0
LINE
  5
428B
330
23FC
100
AcDbEntity
  8
LAYER_1
 62
     7
100
AcDbLine
 10
121.740286593967
 20
317.8507968478732
 30
0.0
 11
119.2422478569878
 21
316.1670064290364
 31
0.0
1001
AcDbBlockRepETag
1070
     1
1071
      704
1005
428B
  0
LINE
  5
428C
330
23FC
100
AcDbEntity
  8
LAYER_1
 62
     7
100
AcDbLine
 10
119.2422478569878
 20
316.1670064290364
 30
0.0
 11
117.1610656738281
 21
313.6410624186197
 31
0.0
1001
AcDbBlockRepETag
1070
     1
1071
      705
1005
428C
  0
LINE
  5
428D
330
23FC
100
AcDbEntity
  8
LAYER_1
 62
     7
100
AcDbLine
 10
117.1610656738281
 20
313.6410624186197
 30
0.0
 11
116.7459316677517
 21
310.6937832302517
 31
0.0
1001
AcDbBlockRepETag
1070
     1
1071
      706
1005
428D
  0
LINE
  5
428E
330
23FC
100
AcDbEntity
  8
LAYER_1
 62
     7
100
AcDbLine
 10
116.7459316677517
 20
310.6937832302517
 30
0.0
 11
117.1610656738281
 21
307.3260301378038
 31
0.0
1001
AcDbBlockRepETag
1070
     1
1071
      707
1005
428E
  0
LINE
  5
428F
330
23FC
100
AcDbEntity
  8
LAYER_1
 62
     7
100
AcDbLine
 10
117.1610656738281
 20
307.3260301378038
 30
0.0
 11
119.2422478569878
 21
304.8000861273871
 31
0.0
1001
AcDbBlockRepETag
1070
     1
1071
      708
1005
428F
  0
LINE
  5
4290
330
23FC
100
AcDbEntity
  8
LAYER_1
 62
     7
100
AcDbLine
 10
119.2422478569878
 20
304.8000861273871
 30
0.0
 11
121.740286593967
 21
303.1162957085503
 31
0.0
1001
AcDbBlockRepETag
1070
     1
1071
      709
1005
4290
  0
LINE
  5
4291
330
23FC
100
AcDbEntity
  8
LAYER_1
 62
     7
100
AcDbLine
 10
121.740286593967
 20
303.1162957085503
 30
0.0
 11
124.6531148274739
 21
302.2743143717448
 31
0.0
1001
AcDbBlockRepETag
1070
     1
1071
      710
1005
4291
  0
LINE
  5
4292
330
23FC
100
AcDbEntity
  8
LAYER_1
 62
     7
100
AcDbLine
 10
124.6531148274739
 20
302.2743143717448
 30
0.0
 11
127.9827996148003
 21
303.1162957085503
 31
0.0
1001
AcDbBlockRepETag
1070
     1
1071
      711
1005
4292
  0
LINE
  5
4293
330
23FC
100
AcDbEntity
  8
LAYER_1
 62
     7
100
AcDbLine
 10
127.9827996148003
 20
303.1162957085503
 30
0.0
 11
130.4803215874566
 21
304.8000861273871
 31
0.0
1001
AcDbBlockRepETag
1070
     1
1071
      712
1005
4293
  0
LINE
  5
4294
330
23FC
100
AcDbEntity
  8
LAYER_1
 62
     7
100
AcDbLine
 10
130.4803215874566
 20
304.8000861273871
 30
0.0
 11
132.1456807454427
 21
307.3260301378038
 31
0.0
1001
AcDbBlockRepETag
1070
     1
1071
      713
1005
4294
  0
LINE
  5
4295
330
23FC
100
AcDbEntity
  8
LAYER_1
 62
     7
100
AcDbLine
 10
132.1456807454427
 20
307.3260301378038
 30
0.0
 11
132.5618482801649
 21
310.6937832302517
 31
0.0
1001
AcDbBlockRepETag
1070
     1
1071
      714
1005
4295
  0
LINE
  5
4296
330
23FC
100
AcDbEntity
  8
LAYER_1
 62
     7
100
AcDbLine
 10
142.5502136230468
 20
296.3797559950087
 30
0.0
 11
142.133701578776
 21
299.3270351833767
 31
0.0
1001
AcDbBlockRepETag
1070
     1
1071
      715
1005
4296
  0
LINE
  5
4297
330
23FC
100
AcDbEntity
  8
LAYER_1
 62
     7
100
AcDbLine
 10
142.133701578776
 20
299.3270351833767
 30
0.0
 11
140.4690314398871
 21
301.8526346842448
 31
0.0
1001
AcDbBlockRepETag
1070
     1
1071
      716
1005
4297
  0
LINE
  5
4298
330
23FC
100
AcDbEntity
  8
LAYER_1
 62
     7
100
AcDbLine
 10
140.4690314398871
 20
301.8526346842448
 30
0.0
 11
137.9713372124566
 21
303.5367696126302
 31
0.0
1001
AcDbBlockRepETag
1070
     1
1071
      717
1005
4298
  0
LINE
  5
4299
330
23FC
100
AcDbEntity
  8
LAYER_1
 62
     7
100
AcDbLine
 10
137.9713372124566
 20
303.5367696126302
 30
0.0
 11
135.058164469401
 21
303.9581047905816
 31
0.0
1001
AcDbBlockRepETag
1070
     1
1071
      718
1005
4299
  0
LINE
  5
429A
330
23FC
100
AcDbEntity
  8
LAYER_1
 62
     7
100
AcDbLine
 10
135.058164469401
 20
303.9581047905816
 30
0.0
 11
132.5618482801649
 21
303.5367696126302
 31
0.0
1001
AcDbBlockRepETag
1070
     1
1071
      719
1005
429A
  0
LINE
  5
429B
330
23FC
100
AcDbEntity
  8
LAYER_1
 62
     7
100
AcDbLine
 10
132.5618482801649
 20
303.5367696126302
 30
0.0
 11
130.0641540527343
 21
301.8526346842448
 31
0.0
1001
AcDbBlockRepETag
1070
     1
1071
      720
1005
429B
  0
LINE
  5
429C
330
23FC
100
AcDbEntity
  8
LAYER_1
 62
     7
100
AcDbLine
 10
130.0641540527343
 20
301.8526346842448
 30
0.0
 11
128.3993116590711
 21
299.3270351833767
 31
0.0
1001
AcDbBlockRepETag
1070
     1
1071
      721
1005
429C
  0
LINE
  5
429D
330
23FC
100
AcDbEntity
  8
LAYER_1
 62
     7
100
AcDbLine
 10
128.3993116590711
 20
299.3270351833767
 30
0.0
 11
127.9827996148003
 21
296.3797559950087
 31
0.0
1001
AcDbBlockRepETag
1070
     1
1071
      722
1005
429D
  0
LINE
  5
429E
330
23FC
100
AcDbEntity
  8
LAYER_1
 62
     7
100
AcDbLine
 10
127.9827996148003
 20
296.3797559950087
 30
0.0
 11
128.3993116590711
 21
293.853811984592
 31
0.0
1001
AcDbBlockRepETag
1070
     1
1071
      723
1005
429E
  0
LINE
  5
429F
330
23FC
100
AcDbEntity
  8
LAYER_1
 62
     7
100
AcDbLine
 10
128.3993116590711
 20
293.853811984592
 30
0.0
 11
130.0641540527343
 21
291.3278679741753
 31
0.0
1001
AcDbBlockRepETag
1070
     1
1071
      724
1005
429F
  0
LINE
  5
42A0
330
23FC
100
AcDbEntity
  8
LAYER_1
 62
     7
100
AcDbLine
 10
130.0641540527343
 20
291.3278679741753
 30
0.0
 11
132.5618482801649
 21
289.6440775553385
 31
0.0
1001
AcDbBlockRepETag
1070
     1
1071
      725
1005
42A0
  0
LINE
  5
42A1
330
23FC
100
AcDbEntity
  8
LAYER_1
 62
     7
100
AcDbLine
 10
132.5618482801649
 20
289.6440775553385
 30
0.0
 11
135.058164469401
 21
289.2227423773871
 31
0.0
1001
AcDbBlockRepETag
1070
     1
1071
      726
1005
42A1
  0
LINE
  5
42A2
330
23FC
100
AcDbEntity
  8
LAYER_1
 62
     7
100
AcDbLine
 10
135.058164469401
 20
289.2227423773871
 30
0.0
 11
137.9713372124566
 21
289.6440775553385
 31
0.0
1001
AcDbBlockRepETag
1070
     1
1071
      727
1005
42A2
  0
LINE
  5
42A3
330
23FC
100
AcDbEntity
  8
LAYER_1
 62
     7
100
AcDbLine
 10
137.9713372124566
 20
289.6440775553385
 30
0.0
 11
140.4690314398871
 21
291.3278679741753
 31
0.0
1001
AcDbBlockRepETag
1070
     1
1071
      728
1005
42A3
  0
LINE
  5
42A4
330
23FC
100
AcDbEntity
  8
LAYER_1
 62
     7
100
AcDbLine
 10
140.4690314398871
 20
291.3278679741753
 30
0.0
 11
142.133701578776
 21
293.853811984592
 31
0.0
1001
AcDbBlockRepETag
1070
     1
1071
      729
1005
42A4
  0
LINE
  5
42A5
330
23FC
100
AcDbEntity
  8
LAYER_1
 62
     7
100
AcDbLine
 10
142.133701578776
 20
293.853811984592
 30
0.0
 11
142.5502136230468
 21
296.3797559950087
 31
0.0
1001
AcDbBlockRepETag
1070
     1
1071
      730
1005
42A5
  0
LINE
  5
42A6
330
23FC
100
AcDbEntity
  8
LAYER_1
 62
     7
100
AcDbLine
 10
128.815823703342
 20
295.117128499349
 30
0.0
 11
127.9827996148003
 21
298.4850538465711
 31
0.0
1001
AcDbBlockRepETag
1070
     1
1071
      731
1005
42A6
  0
LINE
  5
42A7
330
23FC
100
AcDbEntity
  8
LAYER_1
 62
     7
100
AcDbLine
 10
127.9827996148003
 20
298.4850538465711
 30
0.0
 11
125.4864834255642
 21
301.0109978569878
 31
0.0
1001
AcDbBlockRepETag
1070
     1
1071
      732
1005
42A7
  0
LINE
  5
42A8
330
23FC
100
AcDbEntity
  8
LAYER_1
 62
     7
100
AcDbLine
 10
125.4864834255642
 20
301.0109978569878
 30
0.0
 11
122.1567986382378
 21
301.8526346842448
 31
0.0
1001
AcDbBlockRepETag
1070
     1
1071
      733
1005
42A8
  0
LINE
  5
42A9
330
23FC
100
AcDbEntity
  8
LAYER_1
 62
     7
100
AcDbLine
 10
122.1567986382378
 20
301.8526346842448
 30
0.0
 11
118.825735812717
 21
301.0109978569878
 31
0.0
1001
AcDbBlockRepETag
1070
     1
1071
      734
1005
42A9
  0
LINE
  5
42AA
330
23FC
100
AcDbEntity
  8
LAYER_1
 62
     7
100
AcDbLine
 10
118.825735812717
 20
301.0109978569878
 30
0.0
 11
116.3294196234809
 21
298.4850538465711
 31
0.0
1001
AcDbBlockRepETag
1070
     1
1071
      735
1005
42AA
  0
LINE
  5
42AB
330
23FC
100
AcDbEntity
  8
LAYER_1
 62
     7
100
AcDbLine
 10
116.3294196234809
 20
298.4850538465711
 30
0.0
 11
115.4960510253906
 21
295.117128499349
 31
0.0
1001
AcDbBlockRepETag
1070
     1
1071
      736
1005
42AB
  0
LINE
  5
42AC
330
23FC
100
AcDbEntity
  8
LAYER_1
 62
     7
100
AcDbLine
 10
115.4960510253906
 20
295.117128499349
 30
0.0
 11
116.3294196234809
 21
291.749375406901
 31
0.0
1001
AcDbBlockRepETag
1070
     1
1071
      737
1005
42AC
  0
LINE
  5
42AD
330
23FC
100
AcDbEntity
  8
LAYER_1
 62
     7
100
AcDbLine
 10
116.3294196234809
 20
291.749375406901
 30
0.0
 11
118.825735812717
 21
289.6440775553385
 31
0.0
1001
AcDbBlockRepETag
1070
     1
1071
      738
1005
42AD
  0
LINE
  5
42AE
330
23FC
100
AcDbEntity
  8
LAYER_1
 62
     7
100
AcDbLine
 10
118.825735812717
 20
289.6440775553385
 30
0.0
 11
122.1567986382378
 21
288.3807610405816
 31
0.0
1001
AcDbBlockRepETag
1070
     1
1071
      739
1005
42AE
  0
LINE
  5
42AF
330
23FC
100
AcDbEntity
  8
LAYER_1
 62
     7
100
AcDbLine
 10
122.1567986382378
 20
288.3807610405816
 30
0.0
 11
125.4864834255642
 21
289.6440775553385
 31
0.0
1001
AcDbBlockRepETag
1070
     1
1071
      740
1005
42AF
  0
LINE
  5
42B0
330
23FC
100
AcDbEntity
  8
LAYER_1
 62
     7
100
AcDbLine
 10
125.4864834255642
 20
289.6440775553385
 30
0.0
 11
127.9827996148003
 21
291.749375406901
 31
0.0
1001
AcDbBlockRepETag
1070
     1
1071
      741
1005
42B0
  0
LINE
  5
42B1
330
23FC
100
AcDbEntity
  8
LAYER_1
 62
     7
100
AcDbLine
 10
127.9827996148003
 20
291.749375406901
 30
0.0
 11
128.815823703342
 21
295.117128499349
 31
0.0
1001
AcDbBlockRepETag
1070
     1
1071
      742
1005
42B1
  0
LINE
  5
42B2
330
23FC
100
AcDbEntity
  8
LAYER_1
 62
     7
100
AcDbLine
 10
162.9441453721788
 20
313.2197272406683
 30
0.0
 11
162.1111212836371
 21
316.1670064290364
 31
0.0
1001
AcDbBlockRepETag
1070
     1
1071
      743
1005
42B2
  0
LINE
  5
42B3
330
23FC
100
AcDbEntity
  8
LAYER_1
 62
     7
100
AcDbLine
 10
162.1111212836371
 20
316.1670064290364
 30
0.0
 11
160.445762125651
 21
318.6927781846788
 31
0.0
1001
AcDbBlockRepETag
1070
     1
1071
      744
1005
42B3
  0
LINE
  5
42B4
330
23FC
100
AcDbEntity
  8
LAYER_1
 62
     7
100
AcDbLine
 10
160.445762125651
 20
318.6927781846788
 30
0.0
 11
157.9501349555121
 21
320.3765686035156
 31
0.0
1001
AcDbBlockRepETag
1070
     1
1071
      745
1005
42B4
  0
LINE
  5
42B5
330
23FC
100
AcDbEntity
  8
LAYER_1
 62
     7
100
AcDbLine
 10
157.9501349555121
 20
320.3765686035156
 30
0.0
 11
155.0369622124566
 21
321.2187221950955
 31
0.0
1001
AcDbBlockRepETag
1070
     1
1071
      746
1005
42B5
  0
LINE
  5
42B6
330
23FC
100
AcDbEntity
  8
LAYER_1
 62
     7
100
AcDbLine
 10
155.0369622124566
 20
321.2187221950955
 30
0.0
 11
151.7055548773871
 21
320.3765686035156
 31
0.0
1001
AcDbBlockRepETag
1070
     1
1071
      747
1005
42B6
  0
LINE
  5
42B7
330
23FC
100
AcDbEntity
  8
LAYER_1
 62
     7
100
AcDbLine
 10
151.7055548773871
 20
320.3765686035156
 30
0.0
 11
149.209238688151
 21
318.6927781846788
 31
0.0
1001
AcDbBlockRepETag
1070
     1
1071
      748
1005
42B7
  0
LINE
  5
42B8
330
23FC
100
AcDbEntity
  8
LAYER_1
 62
     7
100
AcDbLine
 10
149.209238688151
 20
318.6927781846788
 30
0.0
 11
147.5445685492621
 21
316.1670064290364
 31
0.0
1001
AcDbBlockRepETag
1070
     1
1071
      749
1005
42B8
  0
LINE
  5
42B9
330
23FC
100
AcDbEntity
  8
LAYER_1
 62
     7
100
AcDbLine
 10
147.5445685492621
 20
316.1670064290364
 30
0.0
 11
147.1284010145399
 21
313.2197272406683
 31
0.0
1001
AcDbBlockRepETag
1070
     1
1071
      750
1005
42B9
  0
LINE
  5
42BA
330
23FC
100
AcDbEntity
  8
LAYER_1
 62
     7
100
AcDbLine
 10
147.1284010145399
 20
313.2197272406683
 30
0.0
 11
147.5445685492621
 21
310.2724480523003
 31
0.0
1001
AcDbBlockRepETag
1070
     1
1071
      751
1005
42BA
  0
LINE
  5
42BB
330
23FC
100
AcDbEntity
  8
LAYER_1
 62
     7
100
AcDbLine
 10
147.5445685492621
 20
310.2724480523003
 30
0.0
 11
149.209238688151
 21
307.3260301378038
 31
0.0
1001
AcDbBlockRepETag
1070
     1
1071
      752
1005
42BB
  0
LINE
  5
42BC
330
23FC
100
AcDbEntity
  8
LAYER_1
 62
     7
100
AcDbLine
 10
149.209238688151
 20
307.3260301378038
 30
0.0
 11
151.7055548773871
 21
305.6418952094184
 31
0.0
1001
AcDbBlockRepETag
1070
     1
1071
      753
1005
42BC
  0
LINE
  5
42BD
330
23FC
100
AcDbEntity
  8
LAYER_1
 62
     7
100
AcDbLine
 10
151.7055548773871
 20
305.6418952094184
 30
0.0
 11
155.0369622124566
 21
305.2207322862413
 31
0.0
1001
AcDbBlockRepETag
1070
     1
1071
      754
1005
42BD
  0
LINE
  5
42BE
330
23FC
100
AcDbEntity
  8
LAYER_1
 62
     7
100
AcDbLine
 10
155.0369622124566
 20
305.2207322862413
 30
0.0
 11
157.9501349555121
 21
305.6418952094184
 31
0.0
1001
AcDbBlockRepETag
1070
     1
1071
      755
1005
42BE
  0
LINE
  5
42BF
330
23FC
100
AcDbEntity
  8
LAYER_1
 62
     7
100
AcDbLine
 10
157.9501349555121
 20
305.6418952094184
 30
0.0
 11
160.445762125651
 21
307.3260301378038
 31
0.0
1001
AcDbBlockRepETag
1070
     1
1071
      756
1005
42BF
  0
LINE
  5
42C0
330
23FC
100
AcDbEntity
  8
LAYER_1
 62
     7
100
AcDbLine
 10
160.445762125651
 20
307.3260301378038
 30
0.0
 11
162.1111212836371
 21
310.2724480523003
 31
0.0
1001
AcDbBlockRepETag
1070
     1
1071
      757
1005
42C0
  0
LINE
  5
42C1
330
23FC
100
AcDbEntity
  8
LAYER_1
 62
     7
100
AcDbLine
 10
162.1111212836371
 20
310.2724480523003
 30
0.0
 11
162.9441453721788
 21
313.2197272406683
 31
0.0
1001
AcDbBlockRepETag
1070
     1
1071
      758
1005
42C1
  0
LINE
  5
42C2
330
23FC
100
AcDbEntity
  8
LAYER_1
 62
     7
100
AcDbLine
 10
149.209238688151
 20
311.1152906629774
 30
0.0
 11
148.3765591091579
 21
314.9036899142795
 31
0.0
1001
AcDbBlockRepETag
1070
     1
1071
      759
1005
42C2
  0
LINE
  5
42C3
330
23FC
100
AcDbEntity
  8
LAYER_1
 62
     7
100
AcDbLine
 10
148.3765591091579
 20
314.9036899142795
 30
0.0
 11
146.2967549641927
 21
317.8507968478732
 31
0.0
1001
AcDbBlockRepETag
1070
     1
1071
      760
1005
42C3
  0
LINE
  5
42C4
330
23FC
100
AcDbEntity
  8
LAYER_1
 62
     7
100
AcDbLine
 10
146.2967549641927
 20
317.8507968478732
 30
0.0
 11
143.381859673394
 21
319.9554056803385
 31
0.0
1001
AcDbBlockRepETag
1070
     1
1071
      761
1005
42C4
  0
LINE
  5
42C5
330
23FC
100
AcDbEntity
  8
LAYER_1
 62
     7
100
AcDbLine
 10
143.381859673394
 20
319.9554056803385
 30
0.0
 11
139.6360073513455
 21
320.7972147623698
 31
0.0
1001
AcDbBlockRepETag
1070
     1
1071
      762
1005
42C5
  0
LINE
  5
42C6
330
23FC
100
AcDbEntity
  8
LAYER_1
 62
     7
100
AcDbLine
 10
139.6360073513455
 20
320.7972147623698
 30
0.0
 11
136.3066670735677
 21
319.9554056803385
 31
0.0
1001
AcDbBlockRepETag
1070
     1
1071
      763
1005
42C6
  0
LINE
  5
42C7
330
23FC
100
AcDbEntity
  8
LAYER_1
 62
     7
100
AcDbLine
 10
136.3066670735677
 20
319.9554056803385
 30
0.0
 11
133.3934943305121
 21
317.8507968478732
 31
0.0
1001
AcDbBlockRepETag
1070
     1
1071
      764
1005
42C7
  0
LINE
  5
42C8
330
23FC
100
AcDbEntity
  8
LAYER_1
 62
     7
100
AcDbLine
 10
133.3934943305121
 20
317.8507968478732
 30
0.0
 11
131.3119676378038
 21
314.9036899142795
 31
0.0
1001
AcDbBlockRepETag
1070
     1
1071
      765
1005
42C8
  0
LINE
  5
42C9
330
23FC
100
AcDbEntity
  8
LAYER_1
 62
     7
100
AcDbLine
 10
131.3119676378038
 20
314.9036899142795
 30
0.0
 11
130.4803215874566
 21
311.1152906629774
 31
0.0
1001
AcDbBlockRepETag
1070
     1
1071
      766
1005
42C9
  0
LINE
  5
42CA
330
23FC
100
AcDbEntity
  8
LAYER_1
 62
     7
100
AcDbLine
 10
130.4803215874566
 20
311.1152906629774
 30
0.0
 11
131.3119676378038
 21
307.7465040418837
 31
0.0
1001
AcDbBlockRepETag
1070
     1
1071
      767
1005
42CA
  0
LINE
  5
42CB
330
23FC
100
AcDbEntity
  8
LAYER_1
 62
     7
100
AcDbLine
 10
131.3119676378038
 20
307.7465040418837
 30
0.0
 11
133.3934943305121
 21
304.3787509494358
 31
0.0
1001
AcDbBlockRepETag
1070
     1
1071
      768
1005
42CB
  0
LINE
  5
42CC
330
23FC
100
AcDbEntity
  8
LAYER_1
 62
     7
100
AcDbLine
 10
133.3934943305121
 20
304.3787509494358
 30
0.0
 11
136.3066670735677
 21
302.2743143717448
 31
0.0
1001
AcDbBlockRepETag
1070
     1
1071
      769
1005
42CC
  0
LINE
  5
42CD
330
23FC
100
AcDbEntity
  8
LAYER_1
 62
     7
100
AcDbLine
 10
136.3066670735677
 20
302.2743143717448
 30
0.0
 11
139.6360073513455
 21
301.8526346842448
 31
0.0
1001
AcDbBlockRepETag
1070
     1
1071
      770
1005
42CD
  0
LINE
  5
42CE
330
23FC
100
AcDbEntity
  8
LAYER_1
 62
     7
100
AcDbLine
 10
139.6360073513455
 20
301.8526346842448
 30
0.0
 11
143.381859673394
 21
302.2743143717448
 31
0.0
1001
AcDbBlockRepETag
1070
     1
1071
      771
1005
42CE
  0
LINE
  5
42CF
330
23FC
100
AcDbEntity
  8
LAYER_1
 62
     7
100
AcDbLine
 10
143.381859673394
 20
302.2743143717448
 30
0.0
 11
146.2967549641927
 21
304.3787509494358
 31
0.0
1001
AcDbBlockRepETag
1070
     1
1071
      772
1005
42CF
  0
LINE
  5
42D0
330
23FC
100
AcDbEntity
  8
LAYER_1
 62
     7
100
AcDbLine
 10
146.2967549641927
 20
304.3787509494358
 30
0.0
 11
148.3765591091579
 21
307.7465040418837
 31
0.0
1001
AcDbBlockRepETag
1070
     1
1071
      773
1005
42D0
  0
LINE
  5
42D1
330
23FC
100
AcDbEntity
  8
LAYER_1
 62
     7
100
AcDbLine
 10
148.3765591091579
 20
307.7465040418837
 30
0.0
 11
149.209238688151
 21
311.1152906629774
 31
0.0
1001
AcDbBlockRepETag
1070
     1
1071
      774
1005
42D1
  0
LINE
  5
42D2
330
23FC
100
AcDbEntity
  8
LAYER_1
 62
     7
100
AcDbLine
 10
172.1008646647135
 20
298.0637186686197
 30
0.0
 11
171.6843526204427
 21
301.0109978569878
 31
0.0
1001
AcDbBlockRepETag
1070
     1
1071
      775
1005
42D2
  0
LINE
  5
42D3
330
23FC
100
AcDbEntity
  8
LAYER_1
 62
     7
100
AcDbLine
 10
171.6843526204427
 20
301.0109978569878
 30
0.0
 11
169.6028259277343
 21
303.5367696126302
 31
0.0
1001
AcDbBlockRepETag
1070
     1
1071
      776
1005
42D3
  0
LINE
  5
42D4
330
23FC
100
AcDbEntity
  8
LAYER_1
 62
     7
100
AcDbLine
 10
169.6028259277343
 20
303.5367696126302
 30
0.0
 11
167.1065097384982
 21
305.2207322862413
 31
0.0
1001
AcDbBlockRepETag
1070
     1
1071
      777
1005
42D4
  0
LINE
  5
42D5
330
23FC
100
AcDbEntity
  8
LAYER_1
 62
     7
100
AcDbLine
 10
167.1065097384982
 20
305.2207322862413
 30
0.0
 11
164.1923034667968
 21
306.0625413682725
 31
0.0
1001
AcDbBlockRepETag
1070
     1
1071
      778
1005
42D5
  0
LINE
  5
42D6
330
23FC
100
AcDbEntity
  8
LAYER_1
 62
     7
100
AcDbLine
 10
164.1923034667968
 20
306.0625413682725
 30
0.0
 11
160.8626186794704
 21
305.2207322862413
 31
0.0
1001
AcDbBlockRepETag
1070
     1
1071
      779
1005
42D6
  0
LINE
  5
42D7
330
23FC
100
AcDbEntity
  8
LAYER_1
 62
     7
100
AcDbLine
 10
160.8626186794704
 20
305.2207322862413
 30
0.0
 11
158.3663024902343
 21
303.5367696126302
 31
0.0
1001
AcDbBlockRepETag
1070
     1
1071
      780
1005
42D7
  0
LINE
  5
42D8
330
23FC
100
AcDbEntity
  8
LAYER_1
 62
     7
100
AcDbLine
 10
158.3663024902343
 20
303.5367696126302
 30
0.0
 11
156.7016323513454
 21
301.0109978569878
 31
0.0
1001
AcDbBlockRepETag
1070
     1
1071
      781
1005
42D8
  0
LINE
  5
42D9
330
23FC
100
AcDbEntity
  8
LAYER_1
 62
     7
100
AcDbLine
 10
156.7016323513454
 20
301.0109978569878
 30
0.0
 11
156.284775797526
 21
298.0637186686197
 31
0.0
1001
AcDbBlockRepETag
1070
     1
1071
      782
1005
42D9
  0
LINE
  5
42DA
330
23FC
100
AcDbEntity
  8
LAYER_1
 62
     7
100
AcDbLine
 10
156.284775797526
 20
298.0637186686197
 30
0.0
 11
156.7016323513454
 21
294.6957933213976
 31
0.0
1001
AcDbBlockRepETag
1070
     1
1071
      783
1005
42DA
  0
LINE
  5
42DB
330
23FC
100
AcDbEntity
  8
LAYER_1
 62
     7
100
AcDbLine
 10
156.7016323513454
 20
294.6957933213976
 30
0.0
 11
158.3663024902343
 21
292.1700215657552
 31
0.0
1001
AcDbBlockRepETag
1070
     1
1071
      784
1005
42DB
  0
LINE
  5
42DC
330
23FC
100
AcDbEntity
  8
LAYER_1
 62
     7
100
AcDbLine
 10
158.3663024902343
 20
292.1700215657552
 30
0.0
 11
160.8626186794704
 21
290.4860588921441
 31
0.0
1001
AcDbBlockRepETag
1070
     1
1071
      785
1005
42DC
  0
LINE
  5
42DD
330
23FC
100
AcDbEntity
  8
LAYER_1
 62
     7
100
AcDbLine
 10
160.8626186794704
 20
290.4860588921441
 30
0.0
 11
164.1923034667968
 21
289.6440775553385
 31
0.0
1001
AcDbBlockRepETag
1070
     1
1071
      786
1005
42DD
  0
LINE
  5
42DE
330
23FC
100
AcDbEntity
  8
LAYER_1
 62
     7
100
AcDbLine
 10
164.1923034667968
 20
289.6440775553385
 30
0.0
 11
167.1065097384982
 21
290.4860588921441
 31
0.0
1001
AcDbBlockRepETag
1070
     1
1071
      787
1005
42DE
  0
LINE
  5
42DF
330
23FC
100
AcDbEntity
  8
LAYER_1
 62
     7
100
AcDbLine
 10
167.1065097384982
 20
290.4860588921441
 30
0.0
 11
169.6028259277343
 21
292.1700215657552
 31
0.0
1001
AcDbBlockRepETag
1070
     1
1071
      788
1005
42DF
  0
LINE
  5
42E0
330
23FC
100
AcDbEntity
  8
LAYER_1
 62
     7
100
AcDbLine
 10
169.6028259277343
 20
292.1700215657552
 30
0.0
 11
171.6843526204427
 21
294.6957933213976
 31
0.0
1001
AcDbBlockRepETag
1070
     1
1071
      789
1005
42E0
  0
LINE
  5
42E1
330
23FC
100
AcDbEntity
  8
LAYER_1
 62
     7
100
AcDbLine
 10
171.6843526204427
 20
294.6957933213976
 30
0.0
 11
172.1008646647135
 21
298.0637186686197
 31
0.0
1001
AcDbBlockRepETag
1070
     1
1071
      790
1005
42E1
  0
LINE
  5
42E2
330
23FC
100
AcDbEntity
  8
LAYER_1
 62
     7
100
AcDbLine
 10
157.5332784016927
 20
296.3797559950087
 30
0.0
 11
157.1164218478732
 21
299.7475090874566
 31
0.0
1001
AcDbBlockRepETag
1070
     1
1071
      791
1005
42E2
  0
LINE
  5
42E3
330
23FC
100
AcDbEntity
  8
LAYER_1
 62
     7
100
AcDbLine
 10
157.1164218478732
 20
299.7475090874566
 30
0.0
 11
155.4517517089843
 21
302.2743143717448
 31
0.0
1001
AcDbBlockRepETag
1070
     1
1071
      792
1005
42E3
  0
LINE
  5
42E4
330
23FC
100
AcDbEntity
  8
LAYER_1
 62
     7
100
AcDbLine
 10
155.4517517089843
 20
302.2743143717448
 30
0.0
 11
152.539267985026
 21
303.9581047905816
 31
0.0
1001
AcDbBlockRepETag
1070
     1
1071
      793
1005
42E4
  0
LINE
  5
42E5
330
23FC
100
AcDbEntity
  8
LAYER_1
 62
     7
100
AcDbLine
 10
152.539267985026
 20
303.9581047905816
 30
0.0
 11
149.6260952419704
 21
304.8000861273871
 31
0.0
1001
AcDbBlockRepETag
1070
     1
1071
      794
1005
42E5
  0
LINE
  5
42E6
330
23FC
100
AcDbEntity
  8
LAYER_1
 62
     7
100
AcDbLine
 10
149.6260952419704
 20
304.8000861273871
 30
0.0
 11
146.7111999511718
 21
303.9581047905816
 31
0.0
1001
AcDbBlockRepETag
1070
     1
1071
      795
1005
42E6
  0
LINE
  5
42E7
330
23FC
100
AcDbEntity
  8
LAYER_1
 62
     7
100
AcDbLine
 10
146.7111999511718
 20
303.9581047905816
 30
0.0
 11
144.2152282714843
 21
302.2743143717448
 31
0.0
1001
AcDbBlockRepETag
1070
     1
1071
      796
1005
42E7
  0
LINE
  5
42E8
330
23FC
100
AcDbEntity
  8
LAYER_1
 62
     7
100
AcDbLine
 10
144.2152282714843
 20
302.2743143717448
 30
0.0
 11
142.133701578776
 21
299.7475090874566
 31
0.0
1001
AcDbBlockRepETag
1070
     1
1071
      797
1005
42E8
  0
LINE
  5
42E9
330
23FC
100
AcDbEntity
  8
LAYER_1
 62
     7
100
AcDbLine
 10
142.133701578776
 20
299.7475090874566
 30
0.0
 11
141.7175340440538
 21
296.3797559950087
 31
0.0
1001
AcDbBlockRepETag
1070
     1
1071
      798
1005
42E9
  0
LINE
  5
42EA
330
23FC
100
AcDbEntity
  8
LAYER_1
 62
     7
100
AcDbLine
 10
141.7175340440538
 20
296.3797559950087
 30
0.0
 11
142.133701578776
 21
293.4333380805121
 31
0.0
1001
AcDbBlockRepETag
1070
     1
1071
      799
1005
42EA
  0
LINE
  5
42EB
330
23FC
100
AcDbEntity
  8
LAYER_1
 62
     7
100
AcDbLine
 10
142.133701578776
 20
293.4333380805121
 30
0.0
 11
144.2152282714843
 21
290.9072218153212
 31
0.0
1001
AcDbBlockRepETag
1070
     1
1071
      800
1005
42EB
  0
LINE
  5
42EC
330
23FC
100
AcDbEntity
  8
LAYER_1
 62
     7
100
AcDbLine
 10
144.2152282714843
 20
290.9072218153212
 30
0.0
 11
146.7111999511718
 21
289.2227423773871
 31
0.0
1001
AcDbBlockRepETag
1070
     1
1071
      801
1005
42EC
  0
LINE
  5
42ED
330
23FC
100
AcDbEntity
  8
LAYER_1
 62
     7
100
AcDbLine
 10
146.7111999511718
 20
289.2227423773871
 30
0.0
 11
149.6260952419704
 21
288.3807610405816
 31
0.0
1001
AcDbBlockRepETag
1070
     1
1071
      802
1005
42ED
  0
LINE
  5
42EE
330
23FC
100
AcDbEntity
  8
LAYER_1
 62
     7
100
AcDbLine
 10
149.6260952419704
 20
288.3807610405816
 30
0.0
 11
152.539267985026
 21
289.2227423773871
 31
0.0
1001
AcDbBlockRepETag
1070
     1
1071
      803
1005
42EE
  0
LINE
  5
42EF
330
23FC
100
AcDbEntity
  8
LAYER_1
 62
     7
100
AcDbLine
 10
152.539267985026
 20
289.2227423773871
 30
0.0
 11
155.4517517089843
 21
290.9072218153212
 31
0.0
1001
AcDbBlockRepETag
1070
     1
1071
      804
1005
42EF
  0
LINE
  5
42F0
330
23FC
100
AcDbEntity
  8
LAYER_1
 62
     7
100
AcDbLine
 10
155.4517517089843
 20
290.9072218153212
 30
0.0
 11
157.1164218478732
 21
293.4333380805121
 31
0.0
1001
AcDbBlockRepETag
1070
     1
1071
      805
1005
42F0
  0
LINE
  5
42F1
330
23FC
100
AcDbEntity
  8
LAYER_1
 62
     7
100
AcDbLine
 10
157.1164218478732
 20
293.4333380805121
 30
0.0
 11
157.5332784016927
 21
296.3797559950087
 31
0.0
1001
AcDbBlockRepETag
1070
     1
1071
      806
1005
42F1
  0
LINE
  5
42F2
330
23FC
100
AcDbEntity
  8
LAYER_1
 62
     7
100
AcDbLine
 10
183.7545891655816
 20
295.117128499349
 30
0.0
 11
182.5064310709635
 21
298.905527750651
 31
0.0
1001
AcDbBlockRepETag
1070
     1
1071
      807
1005
42F2
  0
LINE
  5
42F3
330
23FC
100
AcDbEntity
  8
LAYER_1
 62
     7
100
AcDbLine
 10
182.5064310709635
 20
298.905527750651
 30
0.0
 11
180.0083923339843
 21
301.4323330349392
 31
0.0
1001
AcDbBlockRepETag
1070
     1
1071
      808
1005
42F3
  0
LINE
  5
42F4
330
23FC
100
AcDbEntity
  8
LAYER_1
 62
     7
100
AcDbLine
 10
180.0083923339843
 20
301.4323330349392
 30
0.0
 11
176.6783630371094
 21
302.2743143717448
 31
0.0
1001
AcDbBlockRepETag
1070
     1
1071
      809
1005
42F4
  0
LINE
  5
42F5
330
23FC
100
AcDbEntity
  8
LAYER_1
 62
     7
100
AcDbLine
 10
176.6783630371094
 20
302.2743143717448
 30
0.0
 11
172.9328552246093
 21
301.4323330349392
 31
0.0
1001
AcDbBlockRepETag
1070
     1
1071
      810
1005
42F5
  0
LINE
  5
42F6
330
23FC
100
AcDbEntity
  8
LAYER_1
 62
     7
100
AcDbLine
 10
172.9328552246093
 20
301.4323330349392
 30
0.0
 11
170.4365390353732
 21
298.905527750651
 31
0.0
1001
AcDbBlockRepETag
1070
     1
1071
      811
1005
42F6
  0
LINE
  5
42F7
330
23FC
100
AcDbEntity
  8
LAYER_1
 62
     7
100
AcDbLine
 10
170.4365390353732
 20
298.905527750651
 30
0.0
 11
169.6028259277343
 21
295.117128499349
 31
0.0
1001
AcDbBlockRepETag
1070
     1
1071
      812
1005
42F7
  0
LINE
  5
42F8
330
23FC
100
AcDbEntity
  8
LAYER_1
 62
     7
100
AcDbLine
 10
169.6028259277343
 20
295.117128499349
 30
0.0
 11
170.4365390353732
 21
291.749375406901
 31
0.0
1001
AcDbBlockRepETag
1070
     1
1071
      813
1005
42F8
  0
LINE
  5
42F9
330
23FC
100
AcDbEntity
  8
LAYER_1
 62
     7
100
AcDbLine
 10
170.4365390353732
 20
291.749375406901
 30
0.0
 11
172.9328552246093
 21
289.2227423773871
 31
0.0
1001
AcDbBlockRepETag
1070
     1
1071
      814
1005
42F9
  0
LINE
  5
42FA
330
23FC
100
AcDbEntity
  8
LAYER_1
 62
     7
100
AcDbLine
 10
172.9328552246093
 20
289.2227423773871
 30
0.0
 11
176.6783630371094
 21
287.9601148817274
 31
0.0
1001
AcDbBlockRepETag
1070
     1
1071
      815
1005
42FA
  0
LINE
  5
42FB
330
23FC
100
AcDbEntity
  8
LAYER_1
 62
     7
100
AcDbLine
 10
176.6783630371094
 20
287.9601148817274
 30
0.0
 11
180.0083923339843
 21
289.2227423773871
 31
0.0
1001
AcDbBlockRepETag
1070
     1
1071
      816
1005
42FB
  0
LINE
  5
42FC
330
23FC
100
AcDbEntity
  8
LAYER_1
 62
     7
100
AcDbLine
 10
180.0083923339843
 20
289.2227423773871
 30
0.0
 11
182.5064310709635
 21
291.749375406901
 31
0.0
1001
AcDbBlockRepETag
1070
     1
1071
      817
1005
42FC
  0
LINE
  5
42FD
330
23FC
100
AcDbEntity
  8
LAYER_1
 62
     7
100
AcDbLine
 10
182.5064310709635
 20
291.749375406901
 30
0.0
 11
183.7545891655816
 21
295.117128499349
 31
0.0
1001
AcDbBlockRepETag
1070
     1
1071
      818
1005
42FD
  0
LINE
  5
42FE
330
23FC
100
AcDbEntity
  8
LAYER_1
 62
     7
100
AcDbLine
 10
175.4302049424913
 20
313.2197272406683
 30
0.0
 11
174.5971808539496
 21
316.587308078342
 31
0.0
1001
AcDbBlockRepETag
1070
     1
1071
      819
1005
42FE
  0
LINE
  5
42FF
330
23FC
100
AcDbEntity
  8
LAYER_1
 62
     7
100
AcDbLine
 10
174.5971808539496
 20
316.587308078342
 30
0.0
 11
172.1008646647135
 21
319.113424343533
 31
0.0
1001
AcDbBlockRepETag
1070
     1
1071
      820
1005
42FF
  0
LINE
  5
4300
330
23FC
100
AcDbEntity
  8
LAYER_1
 62
     7
100
AcDbLine
 10
172.1008646647135
 20
319.113424343533
 30
0.0
 11
168.7715243869357
 21
319.9554056803385
 31
0.0
1001
AcDbBlockRepETag
1070
     1
1071
      821
1005
4300
  0
LINE
  5
4301
330
23FC
100
AcDbEntity
  8
LAYER_1
 62
     7
100
AcDbLine
 10
168.7715243869357
 20
319.9554056803385
 30
0.0
 11
165.442184109158
 21
319.113424343533
 31
0.0
1001
AcDbBlockRepETag
1070
     1
1071
      822
1005
4301
  0
LINE
  5
4302
330
23FC
100
AcDbEntity
  8
LAYER_1
 62
     7
100
AcDbLine
 10
165.442184109158
 20
319.113424343533
 30
0.0
 11
162.9441453721788
 21
316.587308078342
 31
0.0
1001
AcDbBlockRepETag
1070
     1
1071
      823
1005
4302
  0
LINE
  5
4303
330
23FC
100
AcDbEntity
  8
LAYER_1
 62
     7
100
AcDbLine
 10
162.9441453721788
 20
316.587308078342
 30
0.0
 11
162.1111212836371
 21
313.2197272406683
 31
0.0
1001
AcDbBlockRepETag
1070
     1
1071
      824
1005
4303
  0
LINE
  5
4304
330
23FC
100
AcDbEntity
  8
LAYER_1
 62
     7
100
AcDbLine
 10
162.1111212836371
 20
313.2197272406683
 30
0.0
 11
162.9441453721788
 21
309.8518018934462
 31
0.0
1001
AcDbBlockRepETag
1070
     1
1071
      825
1005
4304
  0
LINE
  5
4305
330
23FC
100
AcDbEntity
  8
LAYER_1
 62
     7
100
AcDbLine
 10
162.9441453721788
 20
309.8518018934462
 30
0.0
 11
165.442184109158
 21
307.3260301378038
 31
0.0
1001
AcDbBlockRepETag
1070
     1
1071
      826
1005
4305
  0
LINE
  5
4306
330
23FC
100
AcDbEntity
  8
LAYER_1
 62
     7
100
AcDbLine
 10
165.442184109158
 20
307.3260301378038
 30
0.0
 11
168.7715243869357
 21
306.4840488009982
 31
0.0
1001
AcDbBlockRepETag
1070
     1
1071
      827
1005
4306
  0
LINE
  5
4307
330
23FC
100
AcDbEntity
  8
LAYER_1
 62
     7
100
AcDbLine
 10
168.7715243869357
 20
306.4840488009982
 30
0.0
 11
172.1008646647135
 21
307.3260301378038
 31
0.0
1001
AcDbBlockRepETag
1070
     1
1071
      828
1005
4307
  0
LINE
  5
4308
330
23FC
100
AcDbEntity
  8
LAYER_1
 62
     7
100
AcDbLine
 10
172.1008646647135
 20
307.3260301378038
 30
0.0
 11
174.5971808539496
 21
309.8518018934462
 31
0.0
1001
AcDbBlockRepETag
1070
     1
1071
      829
1005
4308
  0
LINE
  5
4309
330
23FC
100
AcDbEntity
  8
LAYER_1
 62
     7
100
AcDbLine
 10
174.5971808539496
 20
309.8518018934462
 30
0.0
 11
175.4302049424913
 21
313.2197272406683
 31
0.0
1001
AcDbBlockRepETag
1070
     1
1071
      830
1005
4309
  0
LINE
  5
430A
330
23FC
100
AcDbEntity
  8
LAYER_1
 62
     7
100
AcDbLine
 10
160.445762125651
 20
342.2684278700086
 30
0.0
 11
159.614805094401
 21
345.6361809624566
 31
0.0
1001
AcDbBlockRepETag
1070
     1
1071
      831
1005
430A
  0
LINE
  5
430B
330
23FC
100
AcDbEntity
  8
LAYER_1
 62
     7
100
AcDbLine
 10
159.614805094401
 20
345.6361809624566
 30
0.0
 11
157.9501349555121
 21
348.1621249728732
 31
0.0
1001
AcDbBlockRepETag
1070
     1
1071
      832
1005
430B
  0
LINE
  5
430C
330
23FC
100
AcDbEntity
  8
LAYER_1
 62
     7
100
AcDbLine
 10
157.9501349555121
 20
348.1621249728732
 30
0.0
 11
155.4517517089843
 21
349.8460876464843
 31
0.0
1001
AcDbBlockRepETag
1070
     1
1071
      833
1005
430C
  0
LINE
  5
430D
330
23FC
100
AcDbEntity
  8
LAYER_1
 62
     7
100
AcDbLine
 10
155.4517517089843
 20
349.8460876464843
 30
0.0
 11
152.1220669216579
 21
350.2674228244357
 31
0.0
1001
AcDbBlockRepETag
1070
     1
1071
      834
1005
430D
  0
LINE
  5
430E
330
23FC
100
AcDbEntity
  8
LAYER_1
 62
     7
100
AcDbLine
 10
152.1220669216579
 20
350.2674228244357
 30
0.0
 11
149.209238688151
 21
349.8460876464843
 31
0.0
1001
AcDbBlockRepETag
1070
     1
1071
      835
1005
430E
  0
LINE
  5
430F
330
23FC
100
AcDbEntity
  8
LAYER_1
 62
     7
100
AcDbLine
 10
149.209238688151
 20
349.8460876464843
 30
0.0
 11
146.7111999511718
 21
348.1621249728732
 31
0.0
1001
AcDbBlockRepETag
1070
     1
1071
      836
1005
430F
  0
LINE
  5
4310
330
23FC
100
AcDbEntity
  8
LAYER_1
 62
     7
100
AcDbLine
 10
146.7111999511718
 20
348.1621249728732
 30
0.0
 11
145.0468743218316
 21
345.6361809624566
 31
0.0
1001
AcDbBlockRepETag
1070
     1
1071
      837
1005
4310
  0
LINE
  5
4311
330
23FC
100
AcDbEntity
  8
LAYER_1
 62
     7
100
AcDbLine
 10
145.0468743218316
 20
345.6361809624566
 30
0.0
 11
144.2152282714843
 21
342.2684278700086
 31
0.0
1001
AcDbBlockRepETag
1070
     1
1071
      838
1005
4311
  0
LINE
  5
4312
330
23FC
100
AcDbEntity
  8
LAYER_1
 62
     7
100
AcDbLine
 10
144.2152282714843
 20
342.2684278700086
 30
0.0
 11
145.0468743218316
 21
339.3211486816406
 31
0.0
1001
AcDbBlockRepETag
1070
     1
1071
      839
1005
4312
  0
LINE
  5
4313
330
23FC
100
AcDbEntity
  8
LAYER_1
 62
     7
100
AcDbLine
 10
145.0468743218316
 20
339.3211486816406
 30
0.0
 11
146.7111999511718
 21
336.7953769259983
 31
0.0
1001
AcDbBlockRepETag
1070
     1
1071
      840
1005
4313
  0
LINE
  5
4314
330
23FC
100
AcDbEntity
  8
LAYER_1
 62
     7
100
AcDbLine
 10
146.7111999511718
 20
336.7953769259983
 30
0.0
 11
149.209238688151
 21
334.6905958387587
 31
0.0
1001
AcDbBlockRepETag
1070
     1
1071
      841
1005
4314
  0
LINE
  5
4315
330
23FC
100
AcDbEntity
  8
LAYER_1
 62
     7
100
AcDbLine
 10
149.209238688151
 20
334.6905958387587
 30
0.0
 11
152.1220669216579
 21
334.2694329155815
 31
0.0
1001
AcDbBlockRepETag
1070
     1
1071
      842
1005
4315
  0
LINE
  5
4316
330
23FC
100
AcDbEntity
  8
LAYER_1
 62
     7
100
AcDbLine
 10
152.1220669216579
 20
334.2694329155815
 30
0.0
 11
155.4517517089843
 21
334.6905958387587
 31
0.0
1001
AcDbBlockRepETag
1070
     1
1071
      843
1005
4316
  0
LINE
  5
4317
330
23FC
100
AcDbEntity
  8
LAYER_1
 62
     7
100
AcDbLine
 10
155.4517517089843
 20
334.6905958387587
 30
0.0
 11
157.9501349555121
 21
336.7953769259983
 31
0.0
1001
AcDbBlockRepETag
1070
     1
1071
      844
1005
4317
  0
LINE
  5
4318
330
23FC
100
AcDbEntity
  8
LAYER_1
 62
     7
100
AcDbLine
 10
157.9501349555121
 20
336.7953769259983
 30
0.0
 11
159.614805094401
 21
339.3211486816406
 31
0.0
1001
AcDbBlockRepETag
1070
     1
1071
      845
1005
4318
  0
LINE
  5
4319
330
23FC
100
AcDbEntity
  8
LAYER_1
 62
     7
100
AcDbLine
 10
159.614805094401
 20
339.3211486816406
 30
0.0
 11
160.445762125651
 21
342.2684278700086
 31
0.0
1001
AcDbBlockRepETag
1070
     1
1071
      846
1005
4319
  0
LINE
  5
431A
330
23FC
100
AcDbEntity
  8
LAYER_1
 62
     7
100
AcDbLine
 10
146.2967549641927
 20
341.8470926920573
 30
0.0
 11
145.4630418565538
 21
344.7943718804253
 31
0.0
1001
AcDbBlockRepETag
1070
     1
1071
      847
1005
431A
  0
LINE
  5
431B
330
23FC
100
AcDbEntity
  8
LAYER_1
 62
     7
100
AcDbLine
 10
145.4630418565538
 20
344.7943718804253
 30
0.0
 11
143.7983717176649
 21
347.741478814019
 31
0.0
1001
AcDbBlockRepETag
1070
     1
1071
      848
1005
431B
  0
LINE
  5
431C
330
23FC
100
AcDbEntity
  8
LAYER_1
 62
     7
100
AcDbLine
 10
143.7983717176649
 20
347.741478814019
 30
0.0
 11
140.8858879937065
 21
349.4252692328559
 31
0.0
1001
AcDbBlockRepETag
1070
     1
1071
      849
1005
431C
  0
LINE
  5
431D
330
23FC
100
AcDbEntity
  8
LAYER_1
 62
     7
100
AcDbLine
 10
140.8858879937065
 20
349.4252692328559
 30
0.0
 11
137.9713372124566
 21
350.2674228244357
 31
0.0
1001
AcDbBlockRepETag
1070
     1
1071
      850
1005
431D
  0
LINE
  5
431E
330
23FC
100
AcDbEntity
  8
LAYER_1
 62
     7
100
AcDbLine
 10
137.9713372124566
 20
350.2674228244357
 30
0.0
 11
134.6413079155816
 21
349.4252692328559
 31
0.0
1001
AcDbBlockRepETag
1070
     1
1071
      851
1005
431E
  0
LINE
  5
431F
330
23FC
100
AcDbEntity
  8
LAYER_1
 62
     7
100
AcDbLine
 10
134.6413079155816
 20
349.4252692328559
 30
0.0
 11
132.1456807454427
 21
347.741478814019
 31
0.0
1001
AcDbBlockRepETag
1070
     1
1071
      852
1005
431F
  0
LINE
  5
4320
330
23FC
100
AcDbEntity
  8
LAYER_1
 62
     7
100
AcDbLine
 10
132.1456807454427
 20
347.741478814019
 30
0.0
 11
130.0641540527343
 21
344.7943718804253
 31
0.0
1001
AcDbBlockRepETag
1070
     1
1071
      853
1005
4320
  0
LINE
  5
4321
330
23FC
100
AcDbEntity
  8
LAYER_1
 62
     7
100
AcDbLine
 10
130.0641540527343
 20
344.7943718804253
 30
0.0
 11
129.6474697536892
 21
341.8470926920573
 31
0.0
1001
AcDbBlockRepETag
1070
     1
1071
      854
1005
4321
  0
LINE
  5
4322
330
23FC
100
AcDbEntity
  8
LAYER_1
 62
     7
100
AcDbLine
 10
129.6474697536892
 20
341.8470926920573
 30
0.0
 11
130.0641540527343
 21
338.4791673448351
 31
0.0
1001
AcDbBlockRepETag
1070
     1
1071
      855
1005
4322
  0
LINE
  5
4323
330
23FC
100
AcDbEntity
  8
LAYER_1
 62
     7
100
AcDbLine
 10
130.0641540527343
 20
338.4791673448351
 30
0.0
 11
132.1456807454427
 21
335.9533955891927
 31
0.0
1001
AcDbBlockRepETag
1070
     1
1071
      856
1005
4323
  0
LINE
  5
4324
330
23FC
100
AcDbEntity
  8
LAYER_1
 62
     7
100
AcDbLine
 10
132.1456807454427
 20
335.9533955891927
 30
0.0
 11
134.6413079155816
 21
333.8489590115017
 31
0.0
1001
AcDbBlockRepETag
1070
     1
1071
      857
1005
4324
  0
LINE
  5
4325
330
23FC
100
AcDbEntity
  8
LAYER_1
 62
     7
100
AcDbLine
 10
134.6413079155816
 20
333.8489590115017
 30
0.0
 11
137.9713372124566
 21
333.427451578776
 31
0.0
1001
AcDbBlockRepETag
1070
     1
1071
      858
1005
4325
  0
LINE
  5
4326
330
23FC
100
AcDbEntity
  8
LAYER_1
 62
     7
100
AcDbLine
 10
137.9713372124566
 20
333.427451578776
 30
0.0
 11
140.8858879937065
 21
333.8489590115017
 31
0.0
1001
AcDbBlockRepETag
1070
     1
1071
      859
1005
4326
  0
LINE
  5
4327
330
23FC
100
AcDbEntity
  8
LAYER_1
 62
     7
100
AcDbLine
 10
140.8858879937065
 20
333.8489590115017
 30
0.0
 11
143.7983717176649
 21
335.9533955891927
 31
0.0
1001
AcDbBlockRepETag
1070
     1
1071
      860
1005
4327
  0
LINE
  5
4328
330
23FC
100
AcDbEntity
  8
LAYER_1
 62
     7
100
AcDbLine
 10
143.7983717176649
 20
335.9533955891927
 30
0.0
 11
145.4630418565538
 21
338.4791673448351
 31
0.0
1001
AcDbBlockRepETag
1070
     1
1071
      861
1005
4328
  0
LINE
  5
4329
330
23FC
100
AcDbEntity
  8
LAYER_1
 62
     7
100
AcDbLine
 10
145.4630418565538
 20
338.4791673448351
 30
0.0
 11
146.2967549641927
 21
341.8470926920573
 31
0.0
1001
AcDbBlockRepETag
1070
     1
1071
      862
1005
4329
  0
LINE
  5
432A
330
23FC
100
AcDbEntity
  8
LAYER_1
 62
     7
100
AcDbLine
 10
270.3246710883246
 20
330.9016798231336
 30
0.0
 11
286.5569274902343
 21
326.6917731391059
 31
0.0
1001
AcDbBlockRepETag
1070
     1
1071
      863
1005
432A
  0
LINE
  5
432B
330
23FC
100
AcDbEntity
  8
LAYER_1
 62
     7
100
AcDbLine
 10
241.1908766004774
 20
325.0079827202691
 30
0.0
 11
249.9307393391927
 21
315.3250250922309
 31
0.0
1001
AcDbBlockRepETag
1070
     1
1071
      864
1005
432B
  0
LINE
  5
432C
330
23FC
100
AcDbEntity
  8
LAYER_1
 62
     7
100
AcDbLine
 10
249.9307393391927
 20
315.3250250922309
 30
0.0
 11
259.5025926378038
 21
306.4840488009982
 31
0.0
1001
AcDbBlockRepETag
1070
     1
1071
      865
1005
432C
  0
LINE
  5
432D
330
23FC
100
AcDbEntity
  8
LAYER_1
 62
     7
100
AcDbLine
 10
259.5025926378038
 20
306.4840488009982
 30
0.0
 11
269.9081590440538
 21
298.4850538465711
 31
0.0
1001
AcDbBlockRepETag
1070
     1
1071
      866
1005
432D
  0
LINE
  5
432E
330
23FC
100
AcDbEntity
  8
LAYER_1
 62
     7
100
AcDbLine
 10
241.1908766004774
 20
319.113424343533
 30
0.0
 11
243.2717142740885
 21
302.6947882758246
 31
0.0
1001
AcDbBlockRepETag
1070
     1
1071
      867
1005
432E
  0
LINE
  5
432F
330
23FC
100
AcDbEntity
  8
LAYER_1
 62
     7
100
AcDbLine
 10
258.6712910970052
 20
368.7915289984809
 30
0.0
 11
239.1093499077691
 21
330.4800001356337
 31
0.0
1001
AcDbBlockRepETag
1070
     1
1071
      868
1005
432F
  0
LINE
  5
4330
330
23FC
100
AcDbEntity
  8
LAYER_1
 62
     7
100
AcDbLine
 10
237.861191813151
 20
332.5854702419705
 30
0.0
 11
239.9427185058593
 21
359.1083991156684
 31
0.0
1001
AcDbBlockRepETag
1070
     1
1071
      869
1005
4330
  0
LINE
  5
4331
330
23FC
100
AcDbEntity
  8
LAYER_1
 62
     7
100
AcDbLine
 10
246.1852315266927
 20
332.1649963378906
 30
0.0
 11
256.5901089138455
 21
344.7943718804253
 31
0.0
1001
AcDbBlockRepETag
1070
     1
1071
      870
1005
4331
  0
LINE
  5
442A
330
23FC
100
AcDbEntity
  8
LAYER_1
 62
     7
100
AcDbLine
 10
374.1422790527344
 20
402.0546149359808
 30
0.0
 11
373.127353922526
 21
410.9569139268662
 31
0.0
1001
AcDbBlockRepETag
1070
     1
1071
      871
1005
442A
  0
LINE
  5
442B
330
23FC
100
AcDbEntity
  8
LAYER_1
 62
     7
100
AcDbLine
 10
373.127353922526
 20
410.8905958387586
 30
0.0
 11
370.212803141276
 21
421.8361809624566
 31
0.0
1001
AcDbBlockRepETag
1070
     1
1071
      872
1005
442B
  0
LINE
  5
442C
330
23FC
100
AcDbEntity
  8
LAYER_1
 62
     7
100
AcDbLine
 10
370.212803141276
 20
421.8361809624566
 30
0.0
 11
360.6409498426649
 21
429.8351759168836
 31
0.0
1001
AcDbBlockRepETag
1070
     1
1071
      873
1005
442C
  0
LINE
  5
442D
330
23FC
100
AcDbEntity
  8
LAYER_1
 62
     7
100
AcDbLine
 10
360.6409498426649
 20
429.8351759168836
 30
0.0
 11
350.6522399902344
 21
436.5708543565538
 31
0.0
1001
AcDbBlockRepETag
1070
     1
1071
      874
1005
442D
  0
LINE
  5
442E
330
23FC
100
AcDbEntity
  8
LAYER_1
 62
     7
100
AcDbLine
 10
350.6522399902344
 20
436.5708543565538
 30
0.0
 11
339.8305060492621
 21
442.0439053005641
 31
0.0
1001
AcDbBlockRepETag
1070
     1
1071
      875
1005
442E
  0
LINE
  5
442F
330
23FC
100
AcDbEntity
  8
LAYER_1
 62
     7
100
AcDbLine
 10
339.8305060492621
 20
442.0439053005641
 30
0.0
 11
328.1778150770399
 21
446.2538119845919
 31
0.0
1001
AcDbBlockRepETag
1070
     1
1071
      876
1005
442F
  0
LINE
  5
4430
330
23FC
100
AcDbEntity
  8
LAYER_1
 62
     7
100
AcDbLine
 10
328.1778150770399
 20
446.2538119845919
 30
0.0
 11
316.5223680284288
 21
449.2009189181857
 31
0.0
1001
AcDbBlockRepETag
1070
     1
1071
      877
1005
4430
  0
LINE
  5
4431
330
23FC
100
AcDbEntity
  8
LAYER_1
 62
     7
100
AcDbLine
 10
316.5223680284288
 20
449.2009189181857
 30
0.0
 11
304.4528205023871
 21
450.4644076877169
 31
0.0
1001
AcDbBlockRepETag
1070
     1
1071
      878
1005
4431
  0
LINE
  5
4432
330
23FC
100
AcDbEntity
  8
LAYER_1
 62
     7
100
AcDbLine
 10
304.4528205023871
 20
450.4644076877169
 30
0.0
 11
292.3832729763454
 21
450.4644076877169
 31
0.0
1001
AcDbBlockRepETag
1070
     1
1071
      879
1005
4432
  0
LINE
  5
4433
330
23FC
100
AcDbEntity
  8
LAYER_1
 62
     7
100
AcDbLine
 10
292.3832729763454
 20
450.4644076877169
 30
0.0
 11
281.5629170735677
 21
447.9384636773003
 31
0.0
1001
AcDbBlockRepETag
1070
     1
1071
      880
1005
4433
  0
LINE
  5
4434
330
23FC
100
AcDbEntity
  8
LAYER_1
 62
     7
100
AcDbLine
 10
281.5629170735677
 20
447.9384636773003
 30
0.0
 11
271.5728291829427
 21
443.7278679741752
 31
0.0
1001
AcDbBlockRepETag
1070
     1
1071
      881
1005
4434
  0
LINE
  5
4435
330
23FC
100
AcDbEntity
  8
LAYER_1
 62
     7
100
AcDbLine
 10
271.5728291829427
 20
443.7278679741752
 30
0.0
 11
262.4171434190538
 21
437.8341708713107
 31
0.0
1001
AcDbBlockRepETag
1070
     1
1071
      882
1005
4435
  0
LINE
  5
4436
330
23FC
100
AcDbEntity
  8
LAYER_1
 62
     7
100
AcDbLine
 10
262.4171434190538
 20
437.8341708713107
 30
0.0
 11
254.0920701768663
 21
430.256511094835
 31
0.0
1001
AcDbBlockRepETag
1070
     1
1071
      883
1005
4436
  0
LINE
  5
4437
330
23FC
100
AcDbEntity
  8
LAYER_1
 62
     7
100
AcDbLine
 10
254.0920701768663
 20
430.256511094835
 30
0.0
 11
247.0179111056857
 21
421.8361809624566
 31
0.0
1001
AcDbBlockRepETag
1070
     1
1071
      884
1005
4437
  0
LINE
  5
4438
330
23FC
100
AcDbEntity
  8
LAYER_1
 62
     7
100
AcDbLine
 10
247.0179111056857
 20
421.8361809624566
 30
0.0
 11
241.6070441351996
 21
412.1532233344184
 31
0.0
1001
AcDbBlockRepETag
1070
     1
1071
      885
1005
4438
  0
LINE
  5
4439
330
23FC
100
AcDbEntity
  8
LAYER_1
 62
     7
100
AcDbLine
 10
259.5025926378038
 20
418.4684278700086
 30
0.0
 11
252.8435675726997
 21
409.627451578776
 31
0.0
1001
AcDbBlockRepETag
1070
     1
1071
      886
1005
4439
  0
LINE
  5
443A
330
23FC
100
AcDbEntity
  8
LAYER_1
 62
     7
100
AcDbLine
 10
283.2275872124565
 20
431.9404737684461
 30
0.0
 11
277.399863688151
 21
431.9404737684461
 31
0.0
1001
AcDbBlockRepETag
1070
     1
1071
      887
1005
443A
  0
LINE
  5
443B
330
23FC
100
AcDbEntity
  8
LAYER_1
 62
     7
100
AcDbLine
 10
277.399863688151
 20
431.9404737684461
 30
0.0
 11
271.5728291829427
 21
430.6771572536892
 31
0.0
1001
AcDbBlockRepETag
1070
     1
1071
      888
1005
443B
  0
LINE
  5
443C
330
23FC
100
AcDbEntity
  8
LAYER_1
 62
     7
100
AcDbLine
 10
271.5728291829427
 20
430.6771572536892
 30
0.0
 11
266.5784742567274
 21
427.7298780653211
 31
0.0
1001
AcDbBlockRepETag
1070
     1
1071
      889
1005
443C
  0
LINE
  5
443D
330
23FC
100
AcDbEntity
  8
LAYER_1
 62
     7
100
AcDbLine
 10
266.5784742567274
 20
427.7298780653211
 30
0.0
 11
262.4171434190538
 21
423.5201436360676
 31
0.0
1001
AcDbBlockRepETag
1070
     1
1071
      890
1005
443D
  0
LINE
  5
443E
330
23FC
100
AcDbEntity
  8
LAYER_1
 62
     7
100
AcDbLine
 10
262.4171434190538
 20
423.5201436360676
 30
0.0
 11
259.5025926378038
 21
418.4684278700086
 31
0.0
1001
AcDbBlockRepETag
1070
     1
1071
      891
1005
443E
  0
LINE
  5
443F
330
23FC
100
AcDbEntity
  8
LAYER_1
 62
     7
100
AcDbLine
 10
303.6211744520399
 20
419.3102369520398
 30
0.0
 11
301.5396477593315
 21
424.3621249728732
 31
0.0
1001
AcDbBlockRepETag
1070
     1
1071
      892
1005
443F
  0
LINE
  5
4440
330
23FC
100
AcDbEntity
  8
LAYER_1
 62
     7
100
AcDbLine
 10
301.5396477593315
 20
424.3621249728732
 30
0.0
 11
297.7934509277343
 21
428.1512132432725
 31
0.0
1001
AcDbBlockRepETag
1070
     1
1071
      893
1005
4440
  0
LINE
  5
4441
330
23FC
100
AcDbEntity
  8
LAYER_1
 62
     7
100
AcDbLine
 10
297.7934509277343
 20
428.1512132432725
 30
0.0
 11
293.632809109158
 21
431.0984924316406
 31
0.0
1001
AcDbBlockRepETag
1070
     1
1071
      894
1005
4441
  0
LINE
  5
4442
330
23FC
100
AcDbEntity
  8
LAYER_1
 62
     7
100
AcDbLine
 10
293.632809109158
 20
431.0984924316406
 30
0.0
 11
288.2219421386718
 21
432.3611199273003
 31
0.0
1001
AcDbBlockRepETag
1070
     1
1071
      895
1005
4442
  0
LINE
  5
4443
330
23FC
100
AcDbEntity
  8
LAYER_1
 62
     7
100
AcDbLine
 10
288.2219421386718
 20
432.3611199273003
 30
0.0
 11
283.2275872124565
 21
431.9404737684461
 31
0.0
1001
AcDbBlockRepETag
1070
     1
1071
      896
1005
4443
  0
LINE
  5
4444
330
23FC
100
AcDbEntity
  8
LAYER_1
 62
     7
100
AcDbLine
 10
288.2219421386718
 20
412.1532233344184
 30
0.0
 11
290.7179138183593
 21
409.627451578776
 31
0.0
1001
AcDbBlockRepETag
1070
     1
1071
      897
1005
4444
  0
LINE
  5
4445
330
23FC
100
AcDbEntity
  8
LAYER_1
 62
     7
100
AcDbLine
 10
290.7179138183593
 20
409.627451578776
 30
0.0
 11
294.0475986056857
 21
408.3648240831163
 31
0.0
1001
AcDbBlockRepETag
1070
     1
1071
      898
1005
4445
  0
LINE
  5
4446
330
23FC
100
AcDbEntity
  8
LAYER_1
 62
     7
100
AcDbLine
 10
294.0475986056857
 20
408.3648240831163
 30
0.0
 11
297.3769388834636
 21
408.7854702419704
 31
0.0
1001
AcDbBlockRepETag
1070
     1
1071
      899
1005
4446
  0
LINE
  5
4447
330
23FC
100
AcDbEntity
  8
LAYER_1
 62
     7
100
AcDbLine
 10
297.3769388834636
 20
408.7854702419704
 30
0.0
 11
300.2914896647135
 21
410.0487867567274
 31
0.0
1001
AcDbBlockRepETag
1070
     1
1071
      900
1005
4447
  0
LINE
  5
4448
330
23FC
100
AcDbEntity
  8
LAYER_1
 62
     7
100
AcDbLine
 10
300.2914896647135
 20
410.0487867567274
 30
0.0
 11
302.7881503634982
 21
412.574730767144
 31
0.0
1001
AcDbBlockRepETag
1070
     1
1071
      901
1005
4448
  0
LINE
  5
4449
330
23FC
100
AcDbEntity
  8
LAYER_1
 62
     7
100
AcDbLine
 10
302.7881503634982
 20
412.574730767144
 30
0.0
 11
303.6211744520399
 21
415.9424838595919
 31
0.0
1001
AcDbBlockRepETag
1070
     1
1071
      902
1005
4449
  0
LINE
  5
444A
330
23FC
100
AcDbEntity
  8
LAYER_1
 62
     7
100
AcDbLine
 10
303.6211744520399
 20
415.9424838595919
 30
0.0
 11
303.6211744520399
 21
419.3102369520398
 31
0.0
1001
AcDbBlockRepETag
1070
     1
1071
      903
1005
444A
  0
LINE
  5
444B
330
23FC
100
AcDbEntity
  8
LAYER_1
 62
     7
100
AcDbLine
 10
288.2219421386718
 20
412.1532233344184
 30
0.0
 11
286.9724060058593
 21
412.9952046712238
 31
0.0
1001
AcDbBlockRepETag
1070
     1
1071
      904
1005
444B
  0
LINE
  5
444C
330
23FC
100
AcDbEntity
  8
LAYER_1
 62
     7
100
AcDbLine
 10
286.9724060058593
 20
412.9952046712238
 30
0.0
 11
285.7242479112413
 21
412.574730767144
 31
0.0
1001
AcDbBlockRepETag
1070
     1
1071
      905
1005
444C
  0
LINE
  5
444D
330
23FC
100
AcDbEntity
  8
LAYER_1
 62
     7
100
AcDbLine
 10
285.7242479112413
 20
412.574730767144
 30
0.0
 11
284.4757453070747
 21
411.7327494303385
 31
0.0
1001
AcDbBlockRepETag
1070
     1
1071
      906
1005
444D
  0
LINE
  5
444E
330
23FC
100
AcDbEntity
  8
LAYER_1
 62
     7
100
AcDbLine
 10
284.4757453070747
 20
411.7327494303385
 30
0.0
 11
284.4757453070747
 21
410.0487867567274
 31
0.0
1001
AcDbBlockRepETag
1070
     1
1071
      907
1005
444E
  0
LINE
  5
444F
330
23FC
100
AcDbEntity
  8
LAYER_1
 62
     7
100
AcDbLine
 10
284.4757453070747
 20
410.0487867567274
 30
0.0
 11
286.5569274902343
 21
405.4175448947482
 31
0.0
1001
AcDbBlockRepETag
1070
     1
1071
      908
1005
444F
  0
LINE
  5
4450
330
23FC
100
AcDbEntity
  8
LAYER_1
 62
     7
100
AcDbLine
 10
286.5569274902343
 20
405.4175448947482
 30
0.0
 11
290.3034688313802
 21
401.6284566243489
 31
0.0
1001
AcDbBlockRepETag
1070
     1
1071
      909
1005
4450
  0
LINE
  5
4451
330
23FC
100
AcDbEntity
  8
LAYER_1
 62
     7
100
AcDbLine
 10
290.3034688313802
 20
401.6284566243489
 30
0.0
 11
294.880967203776
 21
399.524020046658
 31
0.0
1001
AcDbBlockRepETag
1070
     1
1071
      910
1005
4451
  0
LINE
  5
4452
330
23FC
100
AcDbEntity
  8
LAYER_1
 62
     7
100
AcDbLine
 10
294.880967203776
 20
399.524020046658
 30
0.0
 11
300.2914896647135
 21
399.524020046658
 31
0.0
1001
AcDbBlockRepETag
1070
     1
1071
      911
1005
4452
  0
LINE
  5
4453
330
23FC
100
AcDbEntity
  8
LAYER_1
 62
     7
100
AcDbLine
 10
300.2914896647135
 20
399.524020046658
 30
0.0
 11
304.8696770562066
 21
402.4704379611544
 31
0.0
1001
AcDbBlockRepETag
1070
     1
1071
      912
1005
4453
  0
LINE
  5
4454
330
23FC
100
AcDbEntity
  8
LAYER_1
 62
     7
100
AcDbLine
 10
304.8696770562066
 20
402.4704379611544
 30
0.0
 11
308.1990173339843
 21
406.6800001356336
 31
0.0
1001
AcDbBlockRepETag
1070
     1
1071
      913
1005
4454
  0
LINE
  5
4455
330
23FC
100
AcDbEntity
  8
LAYER_1
 62
     7
100
AcDbLine
 10
308.1990173339843
 20
406.6800001356336
 30
0.0
 11
310.6967115614149
 21
411.7327494303385
 31
0.0
1001
AcDbBlockRepETag
1070
     1
1071
      914
1005
4455
  0
LINE
  5
4456
330
23FC
100
AcDbEntity
  8
LAYER_1
 62
     7
100
AcDbLine
 10
310.6967115614149
 20
411.7327494303385
 30
0.0
 11
311.5283576117621
 21
417.2047668457031
 31
0.0
1001
AcDbBlockRepETag
1070
     1
1071
      915
1005
4456
  0
LINE
  5
4457
330
23FC
100
AcDbEntity
  8
LAYER_1
 62
     7
100
AcDbLine
 10
311.5283576117621
 20
417.2047668457031
 30
0.0
 11
310.6967115614149
 21
422.2575161404079
 31
0.0
1001
AcDbBlockRepETag
1070
     1
1071
      916
1005
4457
  0
LINE
  5
4458
330
23FC
100
AcDbEntity
  8
LAYER_1
 62
     7
100
AcDbLine
 10
310.6967115614149
 20
422.2575161404079
 30
0.0
 11
308.6151848687066
 21
427.3092319064669
 31
0.0
1001
AcDbBlockRepETag
1070
     1
1071
      917
1005
4458
  0
LINE
  5
4459
330
23FC
100
AcDbEntity
  8
LAYER_1
 62
     7
100
AcDbLine
 10
308.6151848687066
 20
427.3092319064669
 30
0.0
 11
305.7023566351996
 21
431.5191385904947
 31
0.0
1001
AcDbBlockRepETag
1070
     1
1071
      918
1005
4459
  0
LINE
  5
445A
330
23FC
100
AcDbEntity
  8
LAYER_1
 62
     7
100
AcDbLine
 10
305.7023566351996
 20
431.5191385904947
 30
0.0
 11
301.9568488226996
 21
434.8868916829427
 31
0.0
1001
AcDbBlockRepETag
1070
     1
1071
      919
1005
445A
  0
LINE
  5
445B
330
23FC
100
AcDbEntity
  8
LAYER_1
 62
     7
100
AcDbLine
 10
301.9568488226996
 20
434.8868916829427
 30
0.0
 11
297.3769388834636
 21
437.4136969672308
 31
0.0
1001
AcDbBlockRepETag
1070
     1
1071
      920
1005
445B
  0
LINE
  5
445C
330
23FC
100
AcDbEntity
  8
LAYER_1
 62
     7
100
AcDbLine
 10
297.3769388834636
 20
437.4136969672308
 30
0.0
 11
292.3832729763454
 21
438.6761522081163
 31
0.0
1001
AcDbBlockRepETag
1070
     1
1071
      921
1005
445C
  0
LINE
  5
445D
330
23FC
100
AcDbEntity
  8
LAYER_1
 62
     7
100
AcDbLine
 10
356.4782409667968
 20
421.4157070583767
 30
0.0
 11
344.8248609754774
 21
428.1512132432725
 31
0.0
1001
AcDbBlockRepETag
1070
     1
1071
      922
1005
445D
  0
LINE
  5
445E
330
23FC
100
AcDbEntity
  8
LAYER_1
 62
     7
100
AcDbLine
 10
344.8248609754774
 20
428.1512132432725
 30
0.0
 11
332.3388014051649
 21
433.2031012641058
 31
0.0
1001
AcDbBlockRepETag
1070
     1
1071
      923
1005
445E
  0
LINE
  5
445F
330
23FC
100
AcDbEntity
  8
LAYER_1
 62
     7
100
AcDbLine
 10
332.3388014051649
 20
433.2031012641058
 30
0.0
 11
319.0207512749566
 21
436.9921895345051
 31
0.0
1001
AcDbBlockRepETag
1070
     1
1071
      924
1005
445F
  0
LINE
  5
4460
330
23FC
100
AcDbEntity
  8
LAYER_1
 62
     7
100
AcDbLine
 10
319.0207512749566
 20
436.9921895345051
 30
0.0
 11
305.7023566351996
 21
438.6761522081163
 31
0.0
1001
AcDbBlockRepETag
1070
     1
1071
      925
1005
4460
  0
LINE
  5
4461
330
23FC
100
AcDbEntity
  8
LAYER_1
 62
     7
100
AcDbLine
 10
305.7023566351996
 20
438.6761522081163
 30
0.0
 11
292.3832729763454
 21
438.6761522081163
 31
0.0
1001
AcDbBlockRepETag
1070
     1
1071
      926
1005
4461
  0
LINE
  5
4462
330
23FC
100
AcDbEntity
  8
LAYER_1
 62
     7
100
AcDbLine
 10
364.803658718533
 20
404.9962097167968
 30
0.0
 11
361.4739739312065
 21
413.8371860080294
 31
0.0
1001
AcDbBlockRepETag
1070
     1
1071
      927
1005
4462
  0
LINE
  5
4463
330
23FC
100
AcDbEntity
  8
LAYER_1
 62
     7
100
AcDbLine
 10
361.4739739312065
 20
413.8371860080294
 30
0.0
 11
356.4782409667968
 21
421.4157070583767
 31
0.0
1001
AcDbBlockRepETag
1070
     1
1071
      928
1005
4463
  0
LINE
  5
4464
330
23FC
100
AcDbEntity
  8
LAYER_1
 62
     7
100
AcDbLine
 10
175.4302049424913
 20
435.3083991156683
 30
0.0
 11
175.0136928982205
 21
431.0984924316406
 31
0.0
1001
AcDbBlockRepETag
1070
     1
1071
      929
1005
4464
  0
LINE
  5
4465
330
23FC
100
AcDbEntity
  8
LAYER_1
 62
     7
100
AcDbLine
 10
175.0136928982205
 20
431.0984924316406
 30
0.0
 11
175.4302049424913
 21
426.4674228244357
 31
0.0
1001
AcDbBlockRepETag
1070
     1
1071
      930
1005
4465
  0
LINE
  5
4466
330
23FC
100
AcDbEntity
  8
LAYER_1
 62
     7
100
AcDbLine
 10
175.4302049424913
 20
426.4674228244357
 30
0.0
 11
176.6783630371094
 21
419.7317443847656
 31
0.0
1001
AcDbBlockRepETag
1070
     1
1071
      931
1005
4466
  0
LINE
  5
4467
330
23FC
100
AcDbEntity
  8
LAYER_1
 62
     7
100
AcDbLine
 10
176.6783630371094
 20
419.7317443847656
 30
0.0
 11
179.1767462836371
 21
413.8371860080294
 31
0.0
1001
AcDbBlockRepETag
1070
     1
1071
      932
1005
4467
  0
LINE
  5
4468
330
23FC
100
AcDbEntity
  8
LAYER_1
 62
     7
100
AcDbLine
 10
179.1767462836371
 20
413.8371860080294
 30
0.0
 11
183.3377326117621
 21
408.3648240831163
 31
0.0
1001
AcDbBlockRepETag
1070
     1
1071
      933
1005
4468
  0
LINE
  5
4469
330
23FC
100
AcDbEntity
  8
LAYER_1
 62
     7
100
AcDbLine
 10
183.3377326117621
 20
408.3648240831163
 30
0.0
 11
188.3317430284288
 21
403.7337544759114
 31
0.0
1001
AcDbBlockRepETag
1070
     1
1071
      934
1005
4469
  0
LINE
  5
446A
330
23FC
100
AcDbEntity
  8
LAYER_1
 62
     7
100
AcDbLine
 10
188.3317430284288
 20
403.7337544759114
 30
0.0
 11
194.5759785970052
 21
400.7864752875433
 31
0.0
1001
AcDbBlockRepETag
1070
     1
1071
      935
1005
446A
  0
LINE
  5
446B
330
23FC
100
AcDbEntity
  8
LAYER_1
 62
     7
100
AcDbLine
 10
194.5759785970052
 20
400.7864752875433
 30
0.0
 11
200.8181471082899
 21
399.524020046658
 31
0.0
1001
AcDbBlockRepETag
1070
     1
1071
      936
1005
446B
  0
LINE
  5
446C
330
23FC
100
AcDbEntity
  8
LAYER_1
 62
     7
100
AcDbLine
 10
200.8181471082899
 20
399.524020046658
 30
0.0
 11
207.4771721733941
 21
399.524020046658
 31
0.0
1001
AcDbBlockRepETag
1070
     1
1071
      937
1005
446C
  0
LINE
  5
446D
330
23FC
100
AcDbEntity
  8
LAYER_1
 62
     7
100
AcDbLine
 10
207.4771721733941
 20
399.524020046658
 30
0.0
 11
224.9582756890191
 21
399.9444939507378
 31
0.0
1001
AcDbBlockRepETag
1070
     1
1071
      938
1005
446D
  0
LINE
  5
446E
330
23FC
100
AcDbEntity
  8
LAYER_1
 62
     7
100
AcDbLine
 10
224.9582756890191
 20
399.9444939507378
 30
0.0
 11
242.4390346950955
 21
402.0497918023003
 31
0.0
1001
AcDbBlockRepETag
1070
     1
1071
      939
1005
446E
  0
LINE
  5
446F
330
23FC
100
AcDbEntity
  8
LAYER_1
 62
     7
100
AcDbLine
 10
250.7627298990885
 20
391.9454989963107
 30
0.0
 11
251.5954094780816
 21
395.3141133626301
 31
0.0
1001
AcDbBlockRepETag
1070
     1
1071
      940
1005
446F
  0
LINE
  5
4470
330
23FC
100
AcDbEntity
  8
LAYER_1
 62
     7
100
AcDbLine
 10
251.5954094780816
 20
395.3141133626301
 30
0.0
 11
250.3475958930121
 21
398.2605312771267
 31
0.0
1001
AcDbBlockRepETag
1070
     1
1071
      941
1005
4470
  0
LINE
  5
4471
330
23FC
100
AcDbEntity
  8
LAYER_1
 62
     7
100
AcDbLine
 10
250.3475958930121
 20
398.2605312771267
 30
0.0
 11
248.2660692003038
 21
400.7864752875433
 31
0.0
1001
AcDbBlockRepETag
1070
     1
1071
      942
1005
4471
  0
LINE
  5
4472
330
23FC
100
AcDbEntity
  8
LAYER_1
 62
     7
100
AcDbLine
 10
248.2660692003038
 20
400.7864752875433
 30
0.0
 11
245.7683749728732
 21
402.0497918023003
 31
0.0
1001
AcDbBlockRepETag
1070
     1
1071
      943
1005
4472
  0
LINE
  5
4473
330
23FC
100
AcDbEntity
  8
LAYER_1
 62
     7
100
AcDbLine
 10
245.7683749728732
 20
402.0497918023003
 30
0.0
 11
242.4390346950955
 21
402.0497918023003
 31
0.0
1001
AcDbBlockRepETag
1070
     1
1071
      944
1005
4473
  0
LINE
  5
4474
330
23FC
100
AcDbEntity
  8
LAYER_1
 62
     7
100
AcDbLine
 10
240.3575080023871
 20
387.3151184082031
 30
0.0
 11
242.8552022298177
 21
386.4731370713976
 31
0.0
1001
AcDbBlockRepETag
1070
     1
1071
      945
1005
4474
  0
LINE
  5
4475
330
23FC
100
AcDbEntity
  8
LAYER_1
 62
     7
100
AcDbLine
 10
242.8552022298177
 20
386.4731370713976
 30
0.0
 11
245.7683749728732
 21
386.8937832302517
 31
0.0
1001
AcDbBlockRepETag
1070
     1
1071
      946
1005
4475
  0
LINE
  5
4476
330
23FC
100
AcDbEntity
  8
LAYER_1
 62
     7
100
AcDbLine
 10
245.7683749728732
 20
386.8937832302517
 30
0.0
 11
247.8499016655816
 21
387.7357645670572
 31
0.0
1001
AcDbBlockRepETag
1070
     1
1071
      947
1005
4476
  0
LINE
  5
4477
330
23FC
100
AcDbEntity
  8
LAYER_1
 62
     7
100
AcDbLine
 10
247.8499016655816
 20
387.7357645670572
 30
0.0
 11
249.9307393391927
 21
389.8410624186197
 31
0.0
1001
AcDbBlockRepETag
1070
     1
1071
      948
1005
4477
  0
LINE
  5
4478
330
23FC
100
AcDbEntity
  8
LAYER_1
 62
     7
100
AcDbLine
 10
249.9307393391927
 20
389.8410624186197
 30
0.0
 11
250.7627298990885
 21
391.9454989963107
 31
0.0
1001
AcDbBlockRepETag
1070
     1
1071
      949
1005
4478
  0
LINE
  5
4479
330
23FC
100
AcDbEntity
  8
LAYER_1
 62
     7
100
AcDbLine
 10
248.2660692003038
 20
402.0497918023003
 30
0.0
 11
240.3575080023871
 21
387.3151184082031
 31
0.0
1001
AcDbBlockRepETag
1070
     1
1071
      950
1005
4479
  0
LINE
  5
447A
330
23FC
100
AcDbEntity
  8
LAYER_1
 62
     7
100
AcDbLine
 10
189.1654561360677
 20
443.3072218153212
 30
0.0
 11
184.5872687445746
 21
435.3083991156683
 31
0.0
1001
AcDbBlockRepETag
1070
     1
1071
      951
1005
447A
  0
LINE
  5
447B
330
23FC
100
AcDbEntity
  8
LAYER_1
 62
     7
100
AcDbLine
 10
204.9812004937066
 20
434.4664177788628
 30
0.0
 11
203.7309753417968
 21
438.6761522081163
 31
0.0
1001
AcDbBlockRepETag
1070
     1
1071
      952
1005
447B
  0
LINE
  5
447C
330
23FC
100
AcDbEntity
  8
LAYER_1
 62
     7
100
AcDbLine
 10
203.7309753417968
 20
438.6761522081163
 30
0.0
 11
201.2350036621094
 21
441.6234313964842
 31
0.0
1001
AcDbBlockRepETag
1070
     1
1071
      953
1005
447C
  0
LINE
  5
447D
330
23FC
100
AcDbEntity
  8
LAYER_1
 62
     7
100
AcDbLine
 10
201.2350036621094
 20
441.6234313964842
 30
0.0
 11
197.4888068305121
 21
443.7278679741752
 31
0.0
1001
AcDbBlockRepETag
1070
     1
1071
      954
1005
447D
  0
LINE
  5
447E
330
23FC
100
AcDbEntity
  8
LAYER_1
 62
     7
100
AcDbLine
 10
197.4888068305121
 20
443.7278679741752
 30
0.0
 11
193.3264424641927
 21
444.1492031521266
 31
0.0
1001
AcDbBlockRepETag
1070
     1
1071
      955
1005
447E
  0
LINE
  5
447F
330
23FC
100
AcDbEntity
  8
LAYER_1
 62
     7
100
AcDbLine
 10
193.3264424641927
 20
444.1492031521266
 30
0.0
 11
189.1654561360677
 21
443.3072218153212
 31
0.0
1001
AcDbBlockRepETag
1070
     1
1071
      956
1005
447F
  0
LINE
  5
4480
330
23FC
100
AcDbEntity
  8
LAYER_1
 62
     7
100
AcDbLine
 10
189.9967576768663
 20
428.5728929307725
 30
0.0
 11
192.9109639485677
 21
426.4674228244357
 31
0.0
1001
AcDbBlockRepETag
1070
     1
1071
      957
1005
4480
  0
LINE
  5
4481
330
23FC
100
AcDbEntity
  8
LAYER_1
 62
     7
100
AcDbLine
 10
192.9109639485677
 20
426.4674228244357
 30
0.0
 11
196.240648735894
 21
425.6252692328558
 31
0.0
1001
AcDbBlockRepETag
1070
     1
1071
      958
1005
4481
  0
LINE
  5
4482
330
23FC
100
AcDbEntity
  8
LAYER_1
 62
     7
100
AcDbLine
 10
196.240648735894
 20
425.6252692328558
 30
0.0
 11
199.5703335232204
 21
426.4674228244357
 31
0.0
1001
AcDbBlockRepETag
1070
     1
1071
      959
1005
4482
  0
LINE
  5
4483
330
23FC
100
AcDbEntity
  8
LAYER_1
 62
     7
100
AcDbLine
 10
199.5703335232204
 20
426.4674228244357
 30
0.0
 11
202.4828172471788
 21
428.1512132432725
 31
0.0
1001
AcDbBlockRepETag
1070
     1
1071
      960
1005
4483
  0
LINE
  5
4484
330
23FC
100
AcDbEntity
  8
LAYER_1
 62
     7
100
AcDbLine
 10
202.4828172471788
 20
428.1512132432725
 30
0.0
 11
204.1478318956163
 21
431.0984924316406
 31
0.0
1001
AcDbBlockRepETag
1070
     1
1071
      961
1005
4484
  0
LINE
  5
4485
330
23FC
100
AcDbEntity
  8
LAYER_1
 62
     7
100
AcDbLine
 10
204.1478318956163
 20
431.0984924316406
 30
0.0
 11
204.9812004937066
 21
434.4664177788628
 31
0.0
1001
AcDbBlockRepETag
1070
     1
1071
      962
1005
4485
  0
LINE
  5
4486
330
23FC
100
AcDbEntity
  8
LAYER_1
 62
     7
100
AcDbLine
 10
189.9967576768663
 20
428.5728929307725
 30
0.0
 11
184.1707567003038
 21
435.7287007649738
 31
0.0
1001
AcDbBlockRepETag
1070
     1
1071
      963
1005
4486
  0
LINE
  5
4487
330
23FC
100
AcDbEntity
  8
LAYER_1
 62
     7
100
AcDbLine
 10
184.1707567003038
 20
435.7287007649738
 30
0.0
 11
177.5117316351996
 21
442.0439053005641
 31
0.0
1001
AcDbBlockRepETag
1070
     1
1071
      964
1005
4487
  0
LINE
  5
4488
330
23FC
100
AcDbEntity
  8
LAYER_1
 62
     7
100
AcDbLine
 10
177.5117316351996
 20
442.0439053005641
 30
0.0
 11
168.3550123426649
 21
446.2538119845919
 31
0.0
1001
AcDbBlockRepETag
1070
     1
1071
      965
1005
4488
  0
LINE
  5
4489
330
23FC
100
AcDbEntity
  8
LAYER_1
 62
     7
100
AcDbLine
 10
168.3550123426649
 20
446.2538119845919
 30
0.0
 11
158.3663024902343
 21
449.2009189181857
 31
0.0
1001
AcDbBlockRepETag
1070
     1
1071
      966
1005
4489
  0
LINE
  5
448A
330
23FC
100
AcDbEntity
  8
LAYER_1
 62
     7
100
AcDbLine
 10
158.3663024902343
 20
449.2009189181857
 30
0.0
 11
155.0369622124566
 21
448.7795837402343
 31
0.0
1001
AcDbBlockRepETag
1070
     1
1071
      967
1005
448A
  0
LINE
  5
448B
330
23FC
100
AcDbEntity
  8
LAYER_1
 62
     7
100
AcDbLine
 10
155.0369622124566
 20
448.7795837402343
 30
0.0
 11
151.7055548773871
 21
447.5171284993489
 31
0.0
1001
AcDbBlockRepETag
1070
     1
1071
      968
1005
448B
  0
LINE
  5
448C
330
23FC
100
AcDbEntity
  8
LAYER_1
 62
     7
100
AcDbLine
 10
151.7055548773871
 20
447.5171284993489
 30
0.0
 11
149.209238688151
 21
444.9911844889323
 31
0.0
1001
AcDbBlockRepETag
1070
     1
1071
      969
1005
448C
  0
LINE
  5
448D
330
23FC
100
AcDbEntity
  8
LAYER_1
 62
     7
100
AcDbLine
 10
149.209238688151
 20
444.9911844889323
 30
0.0
 11
147.9614251030816
 21
442.0439053005641
 31
0.0
1001
AcDbBlockRepETag
1070
     1
1071
      970
1005
448D
  0
LINE
  5
448E
330
23FC
100
AcDbEntity
  8
LAYER_1
 62
     7
100
AcDbLine
 10
147.9614251030816
 20
442.0439053005641
 30
0.0
 11
147.9614251030816
 21
439.9392964680989
 31
0.0
1001
AcDbBlockRepETag
1070
     1
1071
      971
1005
448E
  0
LINE
  5
448F
330
23FC
100
AcDbEntity
  8
LAYER_1
 62
     7
100
AcDbLine
 10
147.9614251030816
 20
439.9392964680989
 30
0.0
 11
149.6260952419704
 21
438.6761522081163
 31
0.0
1001
AcDbBlockRepETag
1070
     1
1071
      972
1005
448F
  0
LINE
  5
4490
330
23FC
100
AcDbEntity
  8
LAYER_1
 62
     7
100
AcDbLine
 10
149.6260952419704
 20
438.6761522081163
 30
0.0
 11
151.2907653808593
 21
438.6761522081163
 31
0.0
1001
AcDbBlockRepETag
1070
     1
1071
      973
1005
4490
  0
LINE
  5
4491
330
23FC
100
AcDbEntity
  8
LAYER_1
 62
     7
100
AcDbLine
 10
151.2907653808593
 20
438.6761522081163
 30
0.0
 11
152.9554355197482
 21
439.9392964680989
 31
0.0
1001
AcDbBlockRepETag
1070
     1
1071
      974
1005
4491
  0
LINE
  5
4492
330
23FC
100
AcDbEntity
  8
LAYER_1
 62
     7
100
AcDbLine
 10
152.9554355197482
 20
439.9392964680989
 30
0.0
 11
152.9554355197482
 21
442.0439053005641
 31
0.0
1001
AcDbBlockRepETag
1070
     1
1071
      975
1005
4492
  0
LINE
  5
4493
330
23FC
100
AcDbEntity
  8
LAYER_1
 62
     7
100
AcDbLine
 10
174.1823913574218
 20
434.4664177788628
 30
0.0
 11
169.6028259277343
 21
438.2546447753906
 31
0.0
1001
AcDbBlockRepETag
1070
     1
1071
      976
1005
4493
  0
LINE
  5
4494
330
23FC
100
AcDbEntity
  8
LAYER_1
 62
     7
100
AcDbLine
 10
169.6028259277343
 20
438.2546447753906
 30
0.0
 11
164.6088155110677
 21
440.7814500596788
 31
0.0
1001
AcDbBlockRepETag
1070
     1
1071
      977
1005
4494
  0
LINE
  5
4495
330
23FC
100
AcDbEntity
  8
LAYER_1
 62
     7
100
AcDbLine
 10
164.6088155110677
 20
440.7814500596788
 30
0.0
 11
158.7810919867621
 21
442.0439053005641
 31
0.0
1001
AcDbBlockRepETag
1070
     1
1071
      978
1005
4495
  0
LINE
  5
4496
330
23FC
100
AcDbEntity
  8
LAYER_1
 62
     7
100
AcDbLine
 10
158.7810919867621
 20
442.0439053005641
 30
0.0
 11
152.9554355197482
 21
442.0439053005641
 31
0.0
1001
AcDbBlockRepETag
1070
     1
1071
      979
1005
4496
  0
LINE
  5
4497
330
23FC
100
AcDbEntity
  8
LAYER_1
 62
     7
100
AcDbLine
 10
174.1823913574218
 20
434.4664177788628
 30
0.0
 11
176.6783630371094
 21
430.256511094835
 31
0.0
1001
AcDbBlockRepETag
1070
     1
1071
      980
1005
4497
  0
LINE
  5
4498
330
23FC
100
AcDbEntity
  8
LAYER_1
 62
     7
100
AcDbLine
 10
176.6783630371094
 20
430.256511094835
 30
0.0
 11
180.4249043782552
 21
426.4674228244357
 31
0.0
1001
AcDbBlockRepETag
1070
     1
1071
      981
1005
4498
  0
LINE
  5
4499
330
23FC
100
AcDbEntity
  8
LAYER_1
 62
     7
100
AcDbLine
 10
180.4249043782552
 20
426.4674228244357
 30
0.0
 11
185.002402750651
 21
423.941478814019
 31
0.0
1001
AcDbBlockRepETag
1070
     1
1071
      982
1005
4499
  0
LINE
  5
449A
330
23FC
100
AcDbEntity
  8
LAYER_1
 62
     7
100
AcDbLine
 10
185.002402750651
 20
423.941478814019
 30
0.0
 11
189.9967576768663
 21
422.2575161404079
 31
0.0
1001
AcDbBlockRepETag
1070
     1
1071
      983
1005
449A
  0
LINE
  5
449B
330
23FC
100
AcDbEntity
  8
LAYER_1
 62
     7
100
AcDbLine
 10
189.9967576768663
 20
422.2575161404079
 30
0.0
 11
194.992490641276
 21
421.8361809624566
 31
0.0
1001
AcDbBlockRepETag
1070
     1
1071
      984
1005
449B
  0
LINE
  5
449C
330
23FC
100
AcDbEntity
  8
LAYER_1
 62
     7
100
AcDbLine
 10
194.992490641276
 20
421.8361809624566
 30
0.0
 11
199.153476969401
 21
421.8361809624566
 31
0.0
1001
AcDbBlockRepETag
1070
     1
1071
      985
1005
449C
  0
LINE
  5
449D
330
23FC
100
AcDbEntity
  8
LAYER_1
 62
     7
100
AcDbLine
 10
199.153476969401
 20
421.8361809624566
 30
0.0
 11
202.8996738009982
 21
423.0994974772134
 31
0.0
1001
AcDbBlockRepETag
1070
     1
1071
      986
1005
449D
  0
LINE
  5
449E
330
23FC
100
AcDbEntity
  8
LAYER_1
 62
     7
100
AcDbLine
 10
202.8996738009982
 20
423.0994974772134
 30
0.0
 11
206.6455261230469
 21
425.2039340549044
 31
0.0
1001
AcDbBlockRepETag
1070
     1
1071
      987
1005
449E
  0
LINE
  5
449F
330
23FC
100
AcDbEntity
  8
LAYER_1
 62
     7
100
AcDbLine
 10
206.6455261230469
 20
425.2039340549044
 30
0.0
 11
209.1421868218316
 21
428.5728929307725
 31
0.0
1001
AcDbBlockRepETag
1070
     1
1071
      988
1005
449F
  0
LINE
  5
44A0
330
23FC
100
AcDbEntity
  8
LAYER_1
 62
     7
100
AcDbLine
 10
209.1421868218316
 20
428.5728929307725
 30
0.0
 11
210.3920674641927
 21
432.3611199273003
 31
0.0
1001
AcDbBlockRepETag
1070
     1
1071
      989
1005
44A0
  0
LINE
  5
44A1
330
23FC
100
AcDbEntity
  8
LAYER_1
 62
     7
100
AcDbLine
 10
210.3920674641927
 20
432.3611199273003
 30
0.0
 11
210.8068569607205
 21
436.5708543565538
 31
0.0
1001
AcDbBlockRepETag
1070
     1
1071
      990
1005
44A1
  0
LINE
  5
44A2
330
23FC
100
AcDbEntity
  8
LAYER_1
 62
     7
100
AcDbLine
 10
210.8068569607205
 20
436.5708543565538
 30
0.0
 11
209.5586988661024
 21
440.3601148817274
 31
0.0
1001
AcDbBlockRepETag
1070
     1
1071
      991
1005
44A2
  0
LINE
  5
44A3
330
23FC
100
AcDbEntity
  8
LAYER_1
 62
     7
100
AcDbLine
 10
209.5586988661024
 20
440.3601148817274
 30
0.0
 11
207.0627271864149
 21
444.5698493109809
 31
0.0
1001
AcDbBlockRepETag
1070
     1
1071
      992
1005
44A3
  0
LINE
  5
44A4
330
23FC
100
AcDbEntity
  8
LAYER_1
 62
     7
100
AcDbLine
 10
207.0627271864149
 20
444.5698493109809
 30
0.0
 11
203.3165303548177
 21
447.9384636773003
 31
0.0
1001
AcDbBlockRepETag
1070
     1
1071
      993
1005
44A4
  0
LINE
  5
44A5
330
23FC
100
AcDbEntity
  8
LAYER_1
 62
     7
100
AcDbLine
 10
203.3165303548177
 20
447.9384636773003
 30
0.0
 11
199.153476969401
 21
450.4644076877169
 31
0.0
1001
AcDbBlockRepETag
1070
     1
1071
      994
1005
44A5
  0
LINE
  5
44A6
330
23FC
100
AcDbEntity
  8
LAYER_1
 62
     7
100
AcDbLine
 10
199.153476969401
 20
450.4644076877169
 30
0.0
 11
194.1591220431857
 21
450.8848815917968
 31
0.0
1001
AcDbBlockRepETag
1070
     1
1071
      995
1005
44A6
  0
LINE
  5
44A7
330
23FC
100
AcDbEntity
  8
LAYER_1
 62
     7
100
AcDbLine
 10
194.1591220431857
 20
450.8848815917968
 30
0.0
 11
189.1654561360677
 21
450.4644076877169
 31
0.0
1001
AcDbBlockRepETag
1070
     1
1071
      996
1005
44A7
  0
LINE
  5
44A8
330
23FC
100
AcDbEntity
  8
LAYER_1
 62
     7
100
AcDbLine
 10
189.1654561360677
 20
450.4644076877169
 30
0.0
 11
184.1707567003038
 21
448.3591098361544
 31
0.0
1001
AcDbBlockRepETag
1070
     1
1071
      997
1005
44A8
  0
LINE
  5
44A9
330
23FC
100
AcDbEntity
  8
LAYER_1
 62
     7
100
AcDbLine
 10
184.1707567003038
 20
448.3591098361544
 30
0.0
 11
180.0083923339843
 21
444.9911844889323
 31
0.0
1001
AcDbBlockRepETag
1070
     1
1071
      998
1005
44A9
  0
LINE
  5
44AA
330
23FC
100
AcDbEntity
  8
LAYER_1
 62
     7
100
AcDbLine
 10
180.0083923339843
 20
444.9911844889323
 30
0.0
 11
177.0952195909288
 21
440.3601148817274
 31
0.0
1001
AcDbBlockRepETag
1070
     1
1071
      999
1005
44AA
  0
LINE
  5
44AB
330
23FC
100
AcDbEntity
  8
LAYER_1
 62
     7
100
AcDbLine
 10
96.35062188042534
 20
418.0477817111544
 30
0.0
 11
108.8370259602864
 21
415.9424838595919
 31
0.0
1001
AcDbBlockRepETag
1070
     1
1071
     1000
1005
44AB
  0
LINE
  5
44AC
330
23FC
100
AcDbEntity
  8
LAYER_1
 62
     7
100
AcDbLine
 10
108.8370259602864
 20
415.9424838595919
 30
0.0
 11
117.9940897623698
 21
420.5737257215711
 31
0.0
1001
AcDbBlockRepETag
1070
     1
1071
     1001
1005
44AC
  0
LINE
  5
44AD
330
23FC
100
AcDbEntity
  8
LAYER_1
 62
     7
100
AcDbLine
 10
100.5133307562934
 20
407.9434889051649
 30
0.0
 11
117.5775777180989
 21
413.4167121039496
 31
0.0
1001
AcDbBlockRepETag
1070
     1
1071
     1002
1005
44AD
  0
LINE
  5
44AE
330
23FC
100
AcDbEntity
  8
LAYER_1
 62
     7
100
AcDbLine
 10
100.9301873101128
 20
446.6751471625433
 30
0.0
 11
113.4165913899739
 21
428.5728929307725
 31
0.0
1001
AcDbBlockRepETag
1070
     1
1071
     1003
1005
44AE
  0
LINE
  5
44AF
330
23FC
100
AcDbEntity
  8
LAYER_1
 62
     7
100
AcDbLine
 10
112.1667107476128
 20
446.6751471625433
 30
0.0
 11
115.0812615288628
 21
431.9404737684461
 31
0.0
1001
AcDbBlockRepETag
1070
     1
1071
     1004
1005
44AF
  0
LINE
  5
44B0
330
23FC
100
AcDbEntity
  8
LAYER_1
 62
     7
100
AcDbLine
 10
113.4165913899739
 20
428.5728929307725
 30
0.0
 11
102.5948574490017
 21
433.2031012641058
 31
0.0
1001
AcDbBlockRepETag
1070
     1
1071
     1005
1005
44B0
  0
LINE
  5
44B1
330
23FC
100
AcDbEntity
  8
LAYER_1
 62
     7
100
AcDbLine
 10
126.7346415201823
 20
418.0477817111544
 30
0.0
 11
125.901272922092
 21
429.4145297580294
 31
0.0
1001
AcDbBlockRepETag
1070
     1
1071
     1006
1005
44B1
  0
LINE
  5
44B2
330
23FC
100
AcDbEntity
  8
LAYER_1
 62
     7
100
AcDbLine
 10
131.3119676378038
 20
420.5737257215711
 30
0.0
 11
136.7228346082899
 21
434.4664177788628
 31
0.0
1001
AcDbBlockRepETag
1070
     1
1071
     1007
1005
44B2
  0
LINE
  5
44B3
330
23FC
100
AcDbEntity
  8
LAYER_1
 62
     7
100
AcDbLine
 10
431.8117994520399
 20
386.0518018934462
 30
0.0
 11
409.3366855197482
 21
396.5765686035156
 31
0.0
1001
AcDbBlockRepETag
1070
     1
1071
     1008
1005
44B3
  0
LINE
  5
44B4
330
23FC
100
AcDbEntity
  8
LAYER_1
 62
     7
100
AcDbLine
 10
404.3426751030815
 20
407.523015001085
 30
0.0
 11
413.4997389051648
 21
413.8371860080294
 31
0.0
1001
AcDbBlockRepETag
1070
     1
1071
     1009
1005
44B4
  0
LINE
  5
44B5
330
23FC
100
AcDbEntity
  8
LAYER_1
 62
     7
100
AcDbLine
 10
413.4997389051648
 20
413.8371860080294
 30
0.0
 11
421.8234341091579
 21
421.8361809624566
 31
0.0
1001
AcDbBlockRepETag
1070
     1
1071
     1010
1005
44B5
  0
LINE
  5
44B6
330
23FC
100
AcDbEntity
  8
LAYER_1
 62
     7
100
AcDbLine
 10
421.8234341091579
 20
421.8361809624566
 30
0.0
 11
428.8993157280815
 21
430.6771572536892
 31
0.0
1001
AcDbBlockRepETag
1070
     1
1071
     1011
1005
44B6
  0
LINE
  5
44B7
330
23FC
100
AcDbEntity
  8
LAYER_1
 62
     7
100
AcDbLine
 10
428.8993157280815
 20
430.6771572536892
 30
0.0
 11
435.1411397298177
 21
440.3601148817274
 31
0.0
1001
AcDbBlockRepETag
1070
     1
1071
     1012
1005
44B7
  0
LINE
  5
44B8
330
23FC
100
AcDbEntity
  8
LAYER_1
 62
     7
100
AcDbLine
 10
410.1683315700954
 20
400.7864752875433
 30
0.0
 11
430.9784308539495
 21
395.3141133626301
 31
0.0
1001
AcDbBlockRepETag
1070
     1
1071
     1013
1005
44B8
  0
LINE
  5
44B9
330
23FC
100
AcDbEntity
  8
LAYER_1
 62
     7
100
AcDbLine
 10
411.4182122124566
 20
406.6800001356336
 30
0.0
 11
417.2438686794704
 21
405.4175448947482
 31
0.0
1001
AcDbBlockRepETag
1070
     1
1071
     1014
1005
44B9
  0
LINE
  5
44BA
330
23FC
100
AcDbEntity
  8
LAYER_1
 62
     7
100
AcDbLine
 10
417.2438686794704
 20
405.4175448947482
 30
0.0
 11
423.4881042480468
 21
405.8390523274739
 31
0.0
1001
AcDbBlockRepETag
1070
     1
1071
     1015
1005
44BA
  0
LINE
  5
44BB
330
23FC
100
AcDbEntity
  8
LAYER_1
 62
     7
100
AcDbLine
 10
423.4881042480468
 20
405.8390523274739
 30
0.0
 11
429.3141052246093
 21
407.523015001085
 31
0.0
1001
AcDbBlockRepETag
1070
     1
1071
     1016
1005
44BB
  0
LINE
  5
44BC
330
23FC
100
AcDbEntity
  8
LAYER_1
 62
     7
100
AcDbLine
 10
429.3141052246093
 20
407.523015001085
 30
0.0
 11
434.3101826985676
 21
410.4694329155815
 31
0.0
1001
AcDbBlockRepETag
1070
     1
1071
     1017
1005
44BC
  0
LINE
  5
44BD
330
23FC
100
AcDbEntity
  8
LAYER_1
 62
     7
100
AcDbLine
 10
428.482459174262
 20
415.9424838595919
 30
0.0
 11
422.6547356499565
 21
414.679167344835
 31
0.0
1001
AcDbBlockRepETag
1070
     1
1071
     1018
1005
44BD
  0
LINE
  5
44BE
330
23FC
100
AcDbEntity
  8
LAYER_1
 62
     7
100
AcDbLine
 10
422.6547356499565
 20
414.679167344835
 30
0.0
 11
417.2438686794704
 21
412.1532233344184
 31
0.0
1001
AcDbBlockRepETag
1070
     1
1071
     1019
1005
44BE
  0
LINE
  5
44BF
330
23FC
100
AcDbEntity
  8
LAYER_1
 62
     7
100
AcDbLine
 10
399.7631096733941
 20
407.9434889051649
 30
0.0
 11
398.5156405978732
 21
415.1005025227864
 31
0.0
1001
AcDbBlockRepETag
1070
     1
1071
     1020
1005
44BF
  0
LINE
  5
44C0
330
23FC
100
AcDbEntity
  8
LAYER_1
 62
     7
100
AcDbLine
 10
398.5156405978732
 20
415.1005025227864
 30
0.0
 11
395.6024678548177
 21
421.8361809624566
 31
0.0
1001
AcDbBlockRepETag
1070
     1
1071
     1021
1005
44C0
  0
LINE
  5
44C1
330
23FC
100
AcDbEntity
  8
LAYER_1
 62
     7
100
AcDbLine
 10
395.6024678548177
 20
421.8361809624566
 30
0.0
 11
391.8562710232205
 21
427.7298780653211
 31
0.0
1001
AcDbBlockRepETag
1070
     1
1071
     1022
1005
44C1
  0
LINE
  5
44C2
330
23FC
100
AcDbEntity
  8
LAYER_1
 62
     7
100
AcDbLine
 10
398.0987840440538
 20
441.2019239637586
 30
0.0
 11
401.0133348253037
 21
418.4684278700086
 31
0.0
1001
AcDbBlockRepETag
1070
     1
1071
     1023
1005
44C2
  0
LINE
  5
44C3
330
23FC
100
AcDbEntity
  8
LAYER_1
 62
     7
100
AcDbLine
 10
427.2346455891926
 20
427.3092319064669
 30
0.0
 11
435.9748528374566
 21
430.256511094835
 31
0.0
1001
AcDbBlockRepETag
1070
     1
1071
     1024
1005
44C3
  0
LINE
  5
44C4
330
23FC
100
AcDbEntity
  8
LAYER_1
 62
     7
100
AcDbLine
 10
435.9748528374566
 20
430.256511094835
 30
0.0
 11
444.2985480414496
 21
434.4664177788628
 31
0.0
1001
AcDbBlockRepETag
1070
     1
1071
     1025
1005
44C4
  0
LINE
  5
44C5
330
23FC
100
AcDbEntity
  8
LAYER_1
 62
     7
100
AcDbLine
 10
444.2985480414496
 20
434.4664177788628
 30
0.0
 11
452.2053866916232
 21
439.9392964680989
 31
0.0
1001
AcDbBlockRepETag
1070
     1
1071
     1026
1005
44C5
  0
LINE
  5
44C6
330
23FC
100
AcDbEntity
  8
LAYER_1
 62
     7
100
AcDbLine
 10
423.9046162923176
 20
419.3102369520398
 30
0.0
 11
443.4651794433593
 21
427.3092319064669
 31
0.0
1001
AcDbBlockRepETag
1070
     1
1071
     1027
1005
44C6
  0
SPLINE
  5
44C7
330
23FC
100
AcDbEntity
  8
LAYER_1
 62
     7
100
AcDbSpline
210
0.0
220
0.0
230
1.0
 70
     8
 71
     3
 72
    23
 73
    19
 74
     0
 42
0.0000000001
 43
0.0000000001
 40
0.0
 40
0.0
 40
0.0
 40
0.0
 40
1.0
 40
1.0
 40
1.0
 40
2.0
 40
2.0
 40
2.0
 40
3.0
 40
3.0
 40
3.0
 40
4.0
 40
4.0
 40
4.0
 40
5.0
 40
5.0
 40
5.0
 40
6.0
 40
6.0
 40
6.0
 40
6.0
 10
374.0120544433593
 20
390.8020718044705
 30
0.0
 10
374.0120544433593
 20
390.8020718044705
 30
0.0
 10
367.1880093044704
 20
358.730472140842
 30
0.0
 10
347.2285040961371
 20
358.730472140842
 30
0.0
 10
327.269687906901
 20
358.730472140842
 30
0.0
 10
322.4072801378038
 20
377.5813456217447
 30
0.0
 10
322.4072801378038
 20
385.42823961046
 30
0.0
 10
322.4072801378038
 20
401.8906283908419
 30
0.0
 10
336.7374993218316
 20
408.0318556043835
 30
0.0
 10
346.2053107367621
 20
408.0318556043835
 30
0.0
 10
362.5826056586372
 20
408.0318556043835
 30
0.0
 10
370.6000318739149
 20
401.1228888617621
 30
0.0
 10
381.4327901204427
 20
401.1228888617621
 30
0.0
 10
392.2655483669704
 20
401.1228888617621
 30
0.0
 10
393.1047736273871
 20
407.523015001085
 30
0.0
 10
393.1047736273871
 20
407.523015001085
 30
0.0
 10
393.1047736273871
 20
407.523015001085
 30
0.0
 10
388.5269307454426
 20
410.8905958387586
 30
0.0
 10
388.5269307454426
 20
410.8905958387586
 30
0.0
1001
AcDbBlockRepETag
1070
     1
1071
     1028
1005
44C7
  0
ENDBLK
  5
3421
330
23FC
100
AcDbEntity
  8
LAYER_1
100
AcDbBlockEnd
  0
ENDSEC
  0
SECTION
  2
ENTITIES
  0
TEXT
  5
21B
330
18
100
AcDbEntity
  8
ADPDIM
100
AcDbText
 10
55.33595127178164
 20
0.3535486499848375
 30
0.0
 40
0.75
  1
J U L I U S  B L U M  &  C O . ,  I N C .      ( 8 0 0 )  5 2 6 - 6 2 9 3        W W W . J U L I U S B L U M . C O M        P A R T  N o .  5 1 3 C
 41
1.25
  7
ARIAL_WIDE
 72
     1
 11
94.59903960738873
 21
1.103548649984837
 31
0.0
100
AcDbText
 73
     3
  0
INSERT
  5
3428
330
18
100
AcDbEntity
  8
LAYER_1
 62
     7
100
AcDbBlockReference
  2
AI9-BLK8
 10
89.64327787143908
 20
-1.542701813200821
 30
0.0
 41
0.0415219787746111
 42
0.0415219787746537
 43
0.0415219787746152
  0
ENDSEC
  0
SECTION
  2
OBJECTS
  0
DICTIONARY
  5
C
330
0
100
AcDbDictionary
281
     1
  3
ACAD_COLOR
350
374
  3
ACAD_GROUP
350
D
  3
ACAD_LAYOUT
350
214
  3
ACAD_MATERIAL
350
35F
  3
ACAD_MLINESTYLE
350
E
  3
ACAD_PLOTSETTINGS
350
215
  3
ACAD_PLOTSTYLENAME
350
212
  3
ACAD_TABLESTYLE
350
375
  3
ACAD_VISUALSTYLE
350
363
  3
AcDbVariableDictionary
350
275
  3
DWGPROPS
350
44EE
  0
DICTIONARY
  5
347E
330
8
100
AcDbDictionary
280
     1
281
     1
  0
DICTIONARY
  5
26F
330
18
100
AcDbDictionary
280
     1
281
     1
  3
ACAD_LAYOUTSELFREF
360
359
  0
DICTIONARY
  5
26D
330
15
100
AcDbDictionary
280
     1
281
     1
  3
ACAD_LAYOUTSELFREF
360
358
  0
DICTIONARY
  5
44C9
330
23FC
100
AcDbDictionary
280
     1
281
     1
  0
DICTIONARY
  5
374
102
{ACAD_REACTORS
330
C
102
}
330
C
100
AcDbDictionary
281
     1
  0
DICTIONARY
  5
D
102
{ACAD_REACTORS
330
C
102
}
330
C
100
AcDbDictionary
281
     1
  0
DICTIONARY
  5
214
102
{ACAD_REACTORS
330
C
102
}
330
C
100
AcDbDictionary
281
     1
  3
Layout1
350
217
  3
Model
350
216
  0
DICTIONARY
  5
35F
102
{ACAD_REACTORS
330
C
102
}
330
C
100
AcDbDictionary
281
     1
  3
ByBlock
350
361
  3
ByLayer
350
360
  3
Global
350
362
  0
DICTIONARY
  5
E
102
{ACAD_REACTORS
330
C
102
}
330
C
100
AcDbDictionary
281
     1
  3
STANDARD
350
1B
  0
DICTIONARY
  5
215
102
{ACAD_REACTORS
330
C
102
}
330
C
100
AcDbDictionary
281
     1
  0
ACDBDICTIONARYWDFLT
  5
212
102
{ACAD_REACTORS
330
C
102
}
330
C
100
AcDbDictionary
281
     1
  3
Normal
350
213
100
AcDbDictionaryWithDefault
340
213
  0
DICTIONARY
  5
375
102
{ACAD_REACTORS
330
C
102
}
330
C
100
AcDbDictionary
281
     1
  3
Standard
350
376
  0
DICTIONARY
  5
363
102
{ACAD_REACTORS
330
C
102
}
330
C
100
AcDbDictionary
281
     1
  3
2dWireframe
350
369
  3
3D Hidden
350
36B
  3
3dWireframe
350
36A
  3
Basic
350
368
  3
Brighten
350
36F
  3
ColorChange
350
373
  3
Conceptual
350
36C
  3
Dim
350
36E
  3
Facepattern
350
372
  3
Flat
350
364
  3
FlatWithEdges
350
365
  3
Gouraud
350
366
  3
GouraudWithEdges
350
367
  3
Linepattern
350
371
  3
Realistic
350
36D
  3
Thicken
350
370
  0
DICTIONARY
  5
275
102
{ACAD_REACTORS
330
C
102
}
330
C
100
AcDbDictionary
281
     1
  3
CTABLESTYLE
350
37A
  3
DIMASSOC
350
276
  3
INDEXCTL
350
3497
  3
SORTENTS
350
3496
  0
XRECORD
  5
44EE
102
{ACAD_REACTORS
330
C
102
}
330
C
100
AcDbXrecord
280
     1
  1
DWGPROPS COOKIE
  2

  3

  4

  6

  7

  8
Yu Hu
  9

300
=
301
=
302
=
303
=
304
=
305
=
306
=
307
=
308
=
309
=
 40
0.0454711574074074
 41
2450386.581627118
 42
2453954.847028333
  1

 90
        0
  0
XRECORD
  5
359
102
{ACAD_REACTORS
330
26F
102
}
330
26F
100
AcDbXrecord
280
     1
340
18
  0
XRECORD
  5
358
102
{ACAD_REACTORS
330
26D
102
}
330
26D
100
AcDbXrecord
280
     1
340
15
  0
LAYOUT
  5
217
102
{ACAD_XDICTIONARY
360
44F1
102
}
102
{ACAD_REACTORS
330
214
102
}
330
214
100
AcDbPlotSettings
  1

  2
Fax
  4

  6

 40
0.0
 41
0.0
 42
0.0
 43
0.0
 44
0.0
 45
0.0
 46
0.0
 47
0.0
 48
0.0
 49
0.0
140
0.0
141
0.0
142
1.0
143
1.0
 70
   688
 72
     0
 73
     0
 74
     5
  7
Default R14 pen assignments.ctb
 75
    16
147
1.0
148
0.0
149
0.0
100
AcDbLayout
  1
Layout1
 70
     1
 71
     1
 10
0.0
 20
0.0
 11
12.0
 21
9.0
 12
4.403525741743744E+99
 22
7.061986388769092E+99
 32
0.0
 14
1.000000000000000E+20
 24
1.000000000000000E+20
 34
1.000000000000000E+20
 15
-1.000000000000000E+20
 25
-1.000000000000000E+20
 35
-1.000000000000000E+20
146
0.0
 13
0.0
 23
0.0
 33
0.0
 16
1.0
 26
0.0
 36
0.0
 17
0.0
 27
1.0
 37
0.0
 76
     0
330
15
  0
LAYOUT
  5
216
102
{ACAD_XDICTIONARY
360
44EF
102
}
102
{ACAD_REACTORS
330
214
102
}
330
214
100
AcDbPlotSettings
  1

  2
Fax
  4

  6

 40
0.0
 41
0.0
 42
0.0
 43
0.0
 44
0.0
 45
0.0
 46
0.0
 47
0.0
 48
0.0
 49
0.0
140
0.0
141
0.0
142
1.0
143
1.0
 70
  1712
 72
     0
 73
     0
 74
     0
  7
Default R14 pen assignments.ctb
 75
     0
147
1.0
148
0.0
149
0.0
100
AcDbLayout
  1
Model
 70
     1
 71
     0
 10
0.0
 20
0.0
 11
12.0
 21
9.0
 12
0.0
 22
0.0
 32
0.0
 14
0.0
 24
0.0
 34
0.0
 15
0.0
 25
0.0
 35
0.0
146
0.0
 13
0.0
 23
0.0
 33
0.0
 16
1.0
 26
0.0
 36
0.0
 17
0.0
 27
1.0
 37
0.0
 76
     0
330
18
331
333
  0
MATERIAL
  5
361
102
{ACAD_XDICTIONARY
360
44F5
102
}
102
{ACAD_REACTORS
330
35F
102
}
330
35F
100
AcDbMaterial
  1
ByBlock
  0
MATERIAL
  5
360
102
{ACAD_XDICTIONARY
360
44F3
102
}
102
{ACAD_REACTORS
330
35F
102
}
330
35F
100
AcDbMaterial
  1
ByLayer
  0
MATERIAL
  5
362
102
{ACAD_XDICTIONARY
360
44F7
102
}
102
{ACAD_REACTORS
330
35F
102
}
330
35F
100
AcDbMaterial
  1
Global
  0
MLINESTYLE
  5
1B
102
{ACAD_REACTORS
330
E
102
}
330
E
100
AcDbMlineStyle
  2
STANDARD
 70
     0
  3

 62
     0
 51
90.0
 52
90.0
 71
     2
 49
0.5
 62
   256
  6
BYLAYER
 49
-0.5
 62
   256
  6
BYLAYER
  0
ACDBPLACEHOLDER
  5
213
102
{ACAD_REACTORS
330
212
102
}
330
212
  0
TABLESTYLE
  5
376
102
{ACAD_XDICTIONARY
360
44F9
102
}
102
{ACAD_REACTORS
330
375
102
}
330
375
100
AcDbTableStyle
  3
Standard
 70
     0
 71
     0
 40
0.06
 41
0.06
280
     0
281
     0
  7
STANDARD
140
0.18
170
     2
 62
     0
 63
     7
283
     0
274
    -2
284
     1
 64
     0
275
    -2
285
     1
 65
     0
276
    -2
286
     1
 66
     0
277
    -2
287
     1
 67
     0
278
    -2
288
     1
 68
     0
279
    -2
289
     1
 69
     0
  7
STANDARD
140
0.25
170
     5
 62
     0
 63
     7
283
     0
274
    -2
284
     1
 64
     0
275
    -2
285
     1
 65
     0
276
    -2
286
     1
 66
     0
277
    -2
287
     1
 67
     0
278
    -2
288
     1
 68
     0
279
    -2
289
     1
 69
     0
  7
STANDARD
140
0.18
170
     5
 62
     0
 63
     7
283
     0
274
    -2
284
     1
 64
     0
275
    -2
285
     1
 65
     0
276
    -2
286
     1
 66
     0
277
    -2
287
     1
 67
     0
278
    -2
288
     1
 68
     0
279
    -2
289
     1
 69
     0
  0
VISUALSTYLE
  5
369
102
{ACAD_REACTORS
330
363
102
}
330
363
100
AcDbVisualStyle
  2
2dWireframe
 70
     4
 71
     0
 72
     2
 73
     0
 90
        0
 40
-0.6
 41
-30.0
 62
     5
 63
     7
 74
     1
 91
        4
 64
     7
 65
   257
 75
     1
175
     1
 42
1.0
 92
        0
 66
   257
 43
1.0
 76
     1
 77
     6
 78
     2
 67
     7
 79
     5
170
     0
171
     0
290
     0
174
     0
 93
        1
 44
0.0
173
     0
291
     0
 45
0.0
1001
ACAD
1000
AcDbSavedByObjectVersion
1070
     0
  0
VISUALSTYLE
  5
36B
102
{ACAD_REACTORS
330
363
102
}
330
363
100
AcDbVisualStyle
  2
3D Hidden
 70
     6
 71
     1
 72
     2
 73
     2
 90
        0
 40
-0.6
 41
-30.0
 62
     5
 63
     7
 74
     2
 91
        2
 64
     7
 65
   257
 75
     2
175
     1
 42
40.0
 92
        0
 66
   257
 43
1.0
 76
     1
 77
     6
 78
     2
 67
     7
 79
     3
170
     0
171
     0
290
     0
174
     0
 93
        1
 44
0.0
173
     0
291
     0
 45
0.0
1001
ACAD
1000
AcDbSavedByObjectVersion
1070
     0
  0
VISUALSTYLE
  5
36A
102
{ACAD_REACTORS
330
363
102
}
330
363
100
AcDbVisualStyle
  2
3dWireframe
 70
     5
 71
     0
 72
     2
 73
     0
 90
        0
 40
-0.6
 41
-30.0
 62
     5
 63
     7
 74
     1
 91
        4
 64
     7
 65
   257
 75
     1
175
     1
 42
1.0
 92
        0
 66
   257
 43
1.0
 76
     1
 77
     6
 78
     2
 67
     7
 79
     5
170
     0
171
     0
290
     0
174
     0
 93
        1
 44
0.0
173
     0
291
     0
 45
0.0
1001
ACAD
1000
AcDbSavedByObjectVersion
1070
     0
  0
VISUALSTYLE
  5
368
102
{ACAD_REACTORS
330
363
102
}
330
363
100
AcDbVisualStyle
  2
Basic
 70
     7
 71
     1
 72
     0
 73
     1
 90
        0
 40
-0.6
 41
-30.0
 62
     5
 63
     7
 74
     0
 91
        4
 64
     7
 65
   257
 75
     1
175
     1
 42
1.0
 92
        8
 66
     7
 43
1.0
 76
     1
 77
     6
 78
     2
 67
     7
 79
     5
170
     0
171
     0
290
     0
174
     0
 93
        1
 44
0.0
173
     0
291
     1
 45
0.0
1001
ACAD
1000
AcDbSavedByObjectVersion
1070
     0
  0
VISUALSTYLE
  5
36F
102
{ACAD_REACTORS
330
363
102
}
330
363
100
AcDbVisualStyle
  2
Brighten
 70
    12
 71
     2
 72
     2
 73
     0
 90
        0
 40
-0.6
 41
-30.0
 62
     5
 63
     7
 74
     1
 91
        4
 64
     7
 65
   257
 75
     1
175
     1
 42
1.0
 92
        8
 66
     7
 43
1.0
 76
     1
 77
     6
 78
     2
 67
     7
 79
     5
170
     0
171
     0
290
     0
174
     0
 93
        1
 44
50.0
173
     0
291
     1
 45
0.0
1001
ACAD
1000
AcDbSavedByObjectVersion
1070
     0
  0
VISUALSTYLE
  5
373
102
{ACAD_REACTORS
330
363
102
}
330
363
100
AcDbVisualStyle
  2
ColorChange
 70
    16
 71
     2
 72
     2
 73
     3
 90
        0
 40
-0.6
 41
-30.0
 62
     5
 63
     8
 74
     1
 91
        4
 64
     7
 65
   257
 75
     1
175
     1
 42
1.0
 92
        8
 66
     8
 43
1.0
 76
     1
 77
     6
 78
     2
 67
     7
 79
     5
170
     0
171
     0
290
     0
174
     0
 93
        1
 44
0.0
173
     0
291
     1
 45
0.0
1001
ACAD
1000
AcDbSavedByObjectVersion
1070
     0
  0
VISUALSTYLE
  5
36C
102
{ACAD_REACTORS
330
363
102
}
330
363
100
AcDbVisualStyle
  2
Conceptual
 70
     9
 71
     3
 72
     2
 73
     0
 90
        0
 40
-0.6
 41
-30.0
 62
     5
 63
     7
 74
     2
 91
        2
 64
     7
 65
   257
 75
     1
175
     1
 42
40.0
 92
        8
 66
     7
 43
1.0
 76
     1
 77
     6
 78
     2
 67
     7
 79
     3
170
     0
171
     0
290
     0
174
     0
 93
        1
 44
0.0
173
     0
291
     0
 45
0.0
1001
ACAD
1000
AcDbSavedByObjectVersion
1070
     0
  0
VISUALSTYLE
  5
36E
102
{ACAD_REACTORS
330
363
102
}
330
363
100
AcDbVisualStyle
  2
Dim
 70
    11
 71
     2
 72
     2
 73
     0
 90
        0
 40
-0.6
 41
-30.0
 62
     5
 63
     7
 74
     1
 91
        4
 64
     7
 65
   257
 75
     1
175
     1
 42
1.0
 92
        8
 66
     7
 43
1.0
 76
     1
 77
     6
 78
     2
 67
     7
 79
     5
170
     0
171
     0
290
     0
174
     0
 93
        1
 44
-50.0
173
     0
291
     1
 45
0.0
1001
ACAD
1000
AcDbSavedByObjectVersion
1070
     0
  0
VISUALSTYLE
  5
372
102
{ACAD_REACTORS
330
363
102
}
330
363
100
AcDbVisualStyle
  2
Facepattern
 70
    15
 71
     2
 72
     2
 73
     0
 90
        0
 40
-0.6
 41
-30.0
 62
     5
 63
     7
 74
     1
 91
        4
 64
     7
 65
   257
 75
     1
175
     1
 42
1.0
 92
        8
 66
     7
 43
1.0
 76
     1
 77
     6
 78
     2
 67
     7
 79
     5
170
     0
171
     0
290
     0
174
     0
 93
        1
 44
0.0
173
     0
291
     1
 45
0.0
1001
ACAD
1000
AcDbSavedByObjectVersion
1070
     0
  0
VISUALSTYLE
  5
364
102
{ACAD_REACTORS
330
363
102
}
330
363
100
AcDbVisualStyle
  2
Flat
 70
     0
 71
     2
 72
     1
 73
     1
 90
        2
 40
-0.6
 41
30.0
 62
     5
 63
     7
 74
     0
 91
        4
 64
     7
 65
   257
 75
     1
175
     1
 42
1.0
 92
        8
 66
     7
 43
1.0
 76
     1
 77
     6
 78
     2
 67
     7
 79
     5
170
     0
171
     0
290
     0
174
     0
 93
       13
 44
0.0
173
     0
291
     1
 45
0.0
1001
ACAD
1000
AcDbSavedByObjectVersion
1070
     0
  0
VISUALSTYLE
  5
365
102
{ACAD_REACTORS
330
363
102
}
330
363
100
AcDbVisualStyle
  2
FlatWithEdges
 70
     1
 71
     2
 72
     1
 73
     1
 90
        2
 40
-0.6
 41
30.0
 62
     5
 63
     7
 74
     1
 91
        4
 64
     7
 65
   257
 75
     1
175
     1
 42
1.0
 92
        0
 66
   257
 43
1.0
 76
     1
 77
     6
 78
     2
 67
     7
 79
     5
170
     0
171
     0
290
     0
174
     0
 93
       13
 44
0.0
173
     0
291
     1
 45
0.0
1001
ACAD
1000
AcDbSavedByObjectVersion
1070
     0
  0
VISUALSTYLE
  5
366
102
{ACAD_REACTORS
330
363
102
}
330
363
100
AcDbVisualStyle
  2
Gouraud
 70
     2
 71
     2
 72
     2
 73
     1
 90
        2
 40
-0.6
 41
30.0
 62
     5
 63
     7
 74
     0
 91
        4
 64
     7
 65
   257
 75
     1
175
     1
 42
1.0
 92
        0
 66
     7
 43
1.0
 76
     1
 77
     6
 78
     2
 67
     7
 79
     5
170
     0
171
     0
290
     0
174
     0
 93
       13
 44
0.0
173
     0
291
     1
 45
0.0
1001
ACAD
1000
AcDbSavedByObjectVersion
1070
     0
  0
VISUALSTYLE
  5
367
102
{ACAD_REACTORS
330
363
102
}
330
363
100
AcDbVisualStyle
  2
GouraudWithEdges
 70
     3
 71
     2
 72
     2
 73
     1
 90
        2
 40
-0.6
 41
30.0
 62
     5
 63
     7
 74
     1
 91
        4
 64
     7
 65
   257
 75
     1
175
     1
 42
1.0
 92
        0
 66
   257
 43
1.0
 76
     1
 77
     6
 78
     2
 67
     7
 79
     5
170
     0
171
     0
290
     0
174
     0
 93
       13
 44
0.0
173
     0
291
     1
 45
0.0
1001
ACAD
1000
AcDbSavedByObjectVersion
1070
     0
  0
VISUALSTYLE
  5
371
102
{ACAD_REACTORS
330
363
102
}
330
363
100
AcDbVisualStyle
  2
Linepattern
 70
    14
 71
     2
 72
     2
 73
     0
 90
        0
 40
-0.6
 41
-30.0
 62
     5
 63
     7
 74
     1
 91
        4
 64
     7
 65
   257
 75
     7
175
     7
 42
1.0
 92
        8
 66
     7
 43
1.0
 76
     1
 77
     6
 78
     2
 67
     7
 79
     5
170
     0
171
     0
290
     0
174
     0
 93
        1
 44
0.0
173
     0
291
     1
 45
0.0
1001
ACAD
1000
AcDbSavedByObjectVersion
1070
     0
  0
VISUALSTYLE
  5
36D
102
{ACAD_REACTORS
330
363
102
}
330
363
100
AcDbVisualStyle
  2
Realistic
 70
     8
 71
     2
 72
     2
 73
     0
 90
        0
 40
-0.6
 41
-30.0
 62
     5
 63
     7
 74
     1
 91
        0
 64
     7
 65
   257
 75
     1
175
     1
 42
1.0
 92
        8
 66
     8
 43
1.0
 76
     1
 77
     6
 78
     2
 67
     7
 79
     5
170
     0
171
     0
290
     0
174
     0
 93
       13
 44
0.0
173
     0
291
     0
 45
0.0
1001
ACAD
1000
AcDbSavedByObjectVersion
1070
     0
  0
VISUALSTYLE
  5
370
102
{ACAD_REACTORS
330
363
102
}
330
363
100
AcDbVisualStyle
  2
Thicken
 70
    13
 71
     2
 72
     2
 73
     0
 90
        0
 40
-0.6
 41
-30.0
 62
     5
 63
     7
 74
     1
 91
        4
 64
     7
 65
   257
 75
     1
175
     1
 42
1.0
 92
       12
 66
     7
 43
1.0
 76
     1
 77
     6
 78
     2
 67
     7
 79
     5
170
     0
171
     0
290
     0
174
     0
 93
        1
 44
0.0
173
     0
291
     1
 45
0.0
1001
ACAD
1000
AcDbSavedByObjectVersion
1070
     0
  0
DICTIONARYVAR
  5
37A
102
{ACAD_REACTORS
330
275
102
}
330
275
100
DictionaryVariables
280
     0
  1
STANDARD
  0
DICTIONARYVAR
  5
276
102
{ACAD_REACTORS
330
275
102
}
330
275
100
DictionaryVariables
280
     0
  1
1
  0
DICTIONARYVAR
  5
3497
102
{ACAD_REACTORS
330
275
102
}
330
275
100
DictionaryVariables
280
     0
  1
0
  0
DICTIONARYVAR
  5
3496
102
{ACAD_REACTORS
330
275
102
}
330
275
100
DictionaryVariables
280
     0
  1
127
  0
DICTIONARY
  5
44F1
330
217
100
AcDbDictionary
280
     1
281
     1
  3
ACAD_XREC_ROUNDTRIP
360
44F2
  0
DICTIONARY
  5
44EF
330
216
100
AcDbDictionary
280
     1
281
     1
  3
ACAD_XREC_ROUNDTRIP
360
44F0
  0
DICTIONARY
  5
44F5
330
361
100
AcDbDictionary
280
     1
281
     1
  3
ACAD_XREC_ROUNDTRIP
360
44F6
  0
DICTIONARY
  5
44F3
330
360
100
AcDbDictionary
280
     1
281
     1
  3
ACAD_XREC_ROUNDTRIP
360
44F4
  0
DICTIONARY
  5
44F7
330
362
100
AcDbDictionary
280
     1
281
     1
  3
ACAD_XREC_ROUNDTRIP
360
44F8
  0
DICTIONARY
  5
44F9
330
376
100
AcDbDictionary
280
     1
281
     1
  3
ACAD_XREC_ROUNDTRIP
360
44FA
  0
XRECORD
  5
44F2
102
{ACAD_REACTORS
330
44F1
102
}
330
44F1
100
AcDbXrecord
280
     1
102
SHADEPLOT
 70
     0
102
SHADEPLOTRESLEVEL
 70
     2
102
SHADEPLOTCUSTOMDPI
 70
   300
  0
XRECORD
  5
44F0
102
{ACAD_REACTORS
330
44EF
102
}
330
44EF
100
AcDbXrecord
280
     1
102
SHADEPLOT
 70
     0
102
SHADEPLOTRESLEVEL
 70
     2
102
SHADEPLOTCUSTOMDPI
 70
   300
  0
XRECORD
  5
44F6
102
{ACAD_REACTORS
330
44F5
102
}
330
44F5
100
AcDbXrecord
280
     1
102
MATERIAL
148
0.0
149
0.0
149
0.0
 93
        0
 94
       63
282
     0
 72
     1
 77
     1
171
     1
175
     1
179
     1
273
     0
  0
XRECORD
  5
44F4
102
{ACAD_REACTORS
330
44F3
102
}
330
44F3
100
AcDbXrecord
280
     1
102
MATERIAL
148
0.0
149
0.0
149
0.0
 93
        0
 94
       63
282
     0
 72
     1
 77
     1
171
     1
175
     1
179
     1
273
     0
  0
XRECORD
  5
44F8
102
{ACAD_REACTORS
330
44F7
102
}
330
44F7
100
AcDbXrecord
280
     1
102
MATERIAL
148
0.0
149
0.0
149
0.0
 93
        0
 94
       63
282
     0
 72
     1
 77
     1
171
     1
175
     1
179
     1
273
     0
  0
XRECORD
  5
44FA
102
{ACAD_REACTORS
330
44F9
102
}
330
44F9
100
AcDbXrecord
280
     1
102
ACAD_ROUNDTRIP_PRE2007_TABLESTYLE
 90
      512
 91
        0
  1

 92
      512
 93
        0
  2

 94
      512
 95
        0
  3

  0
ENDSEC
  0
EOF
