  0
SECTION
  2
HEADER
  9
$ACADVER
  1
AC1014
  9
$ACADMAINTVER
 70
     9
  9
$DWGCODEPAGE
  3
ANSI_1252
  9
$INSBASE
 10
0.0
 20
0.0
 30
0.0
  9
$EXTMIN
 10
-8.664164327531763
 20
-2.205466294050638
 30
0.0
  9
$EXTMAX
 10
4.775147575606025
 20
5.122306704301394
 30
0.0
  9
$LIMMIN
 10
0.0
 20
0.0
  9
$LIMMAX
 10
0.0
 20
0.0
  9
$ORTHOMODE
 70
     1
  9
$REGENMODE
 70
     1
  9
$FILLMODE
 70
     1
  9
$QTEXTMODE
 70
     0
  9
$MIRRTEXT
 70
     1
  9
$DRAGMODE
 70
     0
  9
$LTSCALE
 40
1.0
  9
$OSMODE
 70
    37
  9
$ATTMODE
 70
     1
  9
$TEXTSIZE
 40
0.0
  9
$TRACEWID
 40
0.05
  9
$TEXTSTYLE
  7
STANDARD
  9
$CLAYER
  8
0
  9
$CELTYPE
  6
CONTINUOUS
  9
$CECOLOR
 62
   256
  9
$CELTSCALE
 40
1.0
  9
$DELOBJ
 70
     1
  9
$DISPSILH
 70
     0
  9
$DIMSCALE
 40
1.0
  9
$DIMASZ
 40
0.18
  9
$DIMEXO
 40
0.0625
  9
$DIMDLI
 40
0.38
  9
$DIMRND
 40
0.0
  9
$DIMDLE
 40
0.0
  9
$DIMEXE
 40
0.18
  9
$DIMTP
 40
0.0
  9
$DIMTM
 40
0.0
  9
$DIMTXT
 40
0.18
  9
$DIMCEN
 40
0.09
  9
$DIMTSZ
 40
0.0
  9
$DIMTOL
 70
     0
  9
$DIMLIM
 70
     0
  9
$DIMTIH
 70
     1
  9
$DIMTOH
 70
     1
  9
$DIMSE1
 70
     0
  9
$DIMSE2
 70
     0
  9
$DIMTAD
 70
     0
  9
$DIMZIN
 70
     0
  9
$DIMBLK
  1

  9
$DIMASO
 70
     1
  9
$DIMSHO
 70
     1
  9
$DIMPOST
  1

  9
$DIMAPOST
  1

  9
$DIMALT
 70
     0
  9
$DIMALTD
 70
     2
  9
$DIMALTF
 40
25.4
  9
$DIMLFAC
 40
1.0
  9
$DIMTOFL
 70
     0
  9
$DIMTVP
 40
0.0
  9
$DIMTIX
 70
     0
  9
$DIMSOXD
 70
     0
  9
$DIMSAH
 70
     0
  9
$DIMBLK1
  1

  9
$DIMBLK2
  1

  9
$DIMSTYLE
  2
STANDARD
  9
$DIMCLRD
 70
     0
  9
$DIMCLRE
 70
     0
  9
$DIMCLRT
 70
     0
  9
$DIMTFAC
 40
1.0
  9
$DIMGAP
 40
0.09
  9
$DIMJUST
 70
     0
  9
$DIMSD1
 70
     0
  9
$DIMSD2
 70
     0
  9
$DIMTOLJ
 70
     1
  9
$DIMTZIN
 70
     0
  9
$DIMALTZ
 70
     0
  9
$DIMALTTZ
 70
     0
  9
$DIMFIT
 70
     3
  9
$DIMUPT
 70
     0
  9
$DIMUNIT
 70
     2
  9
$DIMDEC
 70
     4
  9
$DIMTDEC
 70
     4
  9
$DIMALTU
 70
     2
  9
$DIMALTTD
 70
     2
  9
$DIMTXSTY
  7
STANDARD
  9
$DIMAUNIT
 70
     0
  9
$LUNITS
 70
     2
  9
$LUPREC
 70
     4
  9
$SKETCHINC
 40
0.1
  9
$FILLETRAD
 40
0.0
  9
$AUNITS
 70
     0
  9
$AUPREC
 70
     0
  9
$MENU
  1
acad
  9
$ELEVATION
 40
0.0
  9
$PELEVATION
 40
0.0
  9
$THICKNESS
 40
0.0
  9
$LIMCHECK
 70
     0
  9
$BLIPMODE
 70
     0
  9
$CHAMFERA
 40
0.0
  9
$CHAMFERB
 40
0.0
  9
$CHAMFERC
 40
0.0
  9
$CHAMFERD
 40
0.0
  9
$SKPOLY
 70
     0
  9
$TDCREATE
 40
2444971.791666666
  9
$TDUPDATE
 40
2452297.069780092
  9
$TDINDWG
 40
0.0463409722
  9
$TDUSRTIMER
 40
0.0463409722
  9
$USRTIMER
 70
     1
  9
$ANGBASE
 50
0.0
  9
$ANGDIR
 70
     0
  9
$PDMODE
 70
     0
  9
$PDSIZE
 40
0.0
  9
$PLINEWID
 40
0.0
  9
$COORDS
 70
     2
  9
$SPLFRAME
 70
     0
  9
$SPLINETYPE
 70
     6
  9
$SPLINESEGS
 70
     8
  9
$ATTDIA
 70
     0
  9
$ATTREQ
 70
     1
  9
$HANDLING
 70
 22529
  9
$HANDSEED
  5
368
  9
$SURFTAB1
 70
     6
  9
$SURFTAB2
 70
     6
  9
$SURFTYPE
 70
     6
  9
$SURFU
 70
     6
  9
$SURFV
 70
     6
  9
$UCSNAME
  2

  9
$UCSORG
 10
0.0
 20
0.0
 30
0.0
  9
$UCSXDIR
 10
1.0
 20
0.0
 30
0.0
  9
$UCSYDIR
 10
0.0
 20
1.0
 30
0.0
  9
$PUCSNAME
  2

  9
$PUCSORG
 10
0.0
 20
0.0
 30
0.0
  9
$PUCSXDIR
 10
1.0
 20
0.0
 30
0.0
  9
$PUCSYDIR
 10
0.0
 20
1.0
 30
0.0
  9
$USERI1
 70
     0
  9
$USERI2
 70
     0
  9
$USERI3
 70
     0
  9
$USERI4
 70
     0
  9
$USERI5
 70
     0
  9
$USERR1
 40
0.0
  9
$USERR2
 40
0.0
  9
$USERR3
 40
0.0
  9
$USERR4
 40
0.0
  9
$USERR5
 40
0.0
  9
$WORLDVIEW
 70
     1
  9
$SHADEDGE
 70
     3
  9
$SHADEDIF
 70
    70
  9
$TILEMODE
 70
     1
  9
$MAXACTVP
 70
    16
  9
$PINSBASE
 10
0.0
 20
0.0
 30
0.0
  9
$PLIMCHECK
 70
     0
  9
$PEXTMIN
 10
1.000000000000000E+20
 20
1.000000000000000E+20
 30
1.000000000000000E+20
  9
$PEXTMAX
 10
-1.000000000000000E+20
 20
-1.000000000000000E+20
 30
-1.000000000000000E+20
  9
$PLIMMIN
 10
0.0
 20
0.0
  9
$PLIMMAX
 10
12.0
 20
9.0
  9
$UNITMODE
 70
     0
  9
$VISRETAIN
 70
     0
  9
$PLINEGEN
 70
     0
  9
$PSLTSCALE
 70
     0
  9
$TREEDEPTH
 70
  3020
  9
$PICKSTYLE
 70
     1
  9
$CMLSTYLE
  2
STANDARD
  9
$CMLJUST
 70
     0
  9
$CMLSCALE
 40
1.0
  9
$PROXYGRAPHICS
 70
     1
  9
$MEASUREMENT
 70
     0
  0
ENDSEC
  0
SECTION
  2
CLASSES
  0
CLASS
  1
LWPOLYLINE
  2
AcDbPolyline
  3
AutoCAD 2000
 90
        0
280
     0
281
     1
  0
CLASS
  1
IMAGE
  2
AcDbRasterImage
  3
ISM
 90
      127
280
     0
281
     1
  0
CLASS
  1
OLE2FRAME
  2
AcDbOle2Frame
  3
AutoCAD 2000
 90
        0
280
     0
281
     1
  0
CLASS
  1
HATCH
  2
AcDbHatch
  3
AutoCAD 2000
 90
        0
280
     0
281
     1
  0
CLASS
  1
DICTIONARYVAR
  2
AcDbDictionaryVar
  3
AutoCAD 2000
 90
        0
280
     0
281
     0
  0
CLASS
  1
RASTERVARIABLES
  2
AcDbRasterVariables
  3
ISM
 90
        0
280
     0
281
     0
  0
CLASS
  1
IMAGEDEF
  2
AcDbRasterImageDef
  3
ISM
 90
        0
280
     0
281
     0
  0
CLASS
  1
IMAGEDEF_REACTOR
  2
AcDbRasterImageDefReactor
  3
ISM
 90
        1
280
     0
281
     0
  0
CLASS
  1
IDBUFFER
  2
AcDbIdBuffer
  3
AutoCAD 2000
 90
        0
280
     0
281
     0
  0
CLASS
  1
SPATIAL_FILTER
  2
AcDbSpatialFilter
  3
AutoCAD 2000
 90
        0
280
     0
281
     0
  0
CLASS
  1
XRECORD
  2
AcDbXrecord
  3
AutoCAD 2000
 90
        0
280
     0
281
     0
  0
CLASS
  1
SORTENTSTABLE
  2
AcDbSortentsTable
  3
AutoCAD 2000
 90
        0
280
     0
281
     0
  0
CLASS
  1
LAYER_INDEX
  2
AcDbLayerIndex
  3
AutoCAD 2000
 90
        0
280
     0
281
     0
  0
CLASS
  1
SPATIAL_INDEX
  2
AcDbSpatialIndex
  3
AutoCAD 2000
 90
        0
280
     0
281
     0
  0
CLASS
  1
OBJECT_PTR
  2
CAseDLPNTableRecord
  3
ASE-LPNTableRecord
 90
        1
280
     0
281
     0
  0
CLASS
  1
ACDBDICTIONARYWDFLT
  2
AcDbDictionaryWithDefault
  3
AutoCAD 2000
 90
        0
280
     0
281
     0
  0
CLASS
  1
ACDBPLACEHOLDER
  2
AcDbPlaceHolder
  3
AutoCAD 2000
 90
        0
280
     0
281
     0
  0
CLASS
  1
LAYOUT
  2
AcDbLayout
  3
AutoCAD 2000
 90
        0
280
     0
281
     0
  0
CLASS
  1
LONG_TRANSACTION
  2
AcDbLongTransaction
  3
AutoCAD 2000
 90
        0
280
     0
281
     0
  0
CLASS
  1
LWPOLYLINE
  2
AcDbPolyline
  3
AutoCAD 2000
 90
        0
280
     0
281
     1
  0
CLASS
  1
HATCH
  2
AcDbHatch
  3
AutoCAD 2000
 90
        0
280
     0
281
     1
  0
CLASS
  1
XRECORD
  2
AcDbXrecord
  3
AutoCAD 2000
 90
        0
280
     0
281
     0
  0
CLASS
  1
LONG_TRANSACTION
  2
AcDbLongTransaction
  3
AutoCAD 2000
 90
        0
280
     0
281
     0
  0
CLASS
  1
LWPOLYLINE
  2
AcDbPolyline
  3
AutoCAD 2000
 90
        0
280
     0
281
     1
  0
CLASS
  1
HATCH
  2
AcDbHatch
  3
AutoCAD 2000
 90
        0
280
     0
281
     1
  0
CLASS
  1
XRECORD
  2
AcDbXrecord
  3
AutoCAD 2000
 90
        0
280
     0
281
     0
  0
CLASS
  1
LONG_TRANSACTION
  2
AcDbLongTransaction
  3
AutoCAD 2000
 90
        0
280
     0
281
     0
  0
CLASS
  1
LWPOLYLINE
  2
AcDbPolyline
  3
AutoCAD 2000
 90
        0
280
     0
281
     1
  0
CLASS
  1
HATCH
  2
AcDbHatch
  3
AutoCAD 2000
 90
        0
280
     0
281
     1
  0
CLASS
  1
XRECORD
  2
AcDbXrecord
  3
AutoCAD 2000
 90
        0
280
     0
281
     0
  0
CLASS
  1
LONG_TRANSACTION
  2
AcDbLongTransaction
  3
AutoCAD 2000
 90
        0
280
     0
281
     0
  0
CLASS
  1
LWPOLYLINE
  2
AcDbPolyline
  3
AutoCAD 2000
 90
        0
280
     0
281
     1
  0
CLASS
  1
HATCH
  2
AcDbHatch
  3
AutoCAD 2000
 90
        0
280
     0
281
     1
  0
CLASS
  1
XRECORD
  2
AcDbXrecord
  3
AutoCAD 2000
 90
        0
280
     0
281
     0
  0
CLASS
  1
LONG_TRANSACTION
  2
AcDbLongTransaction
  3
AutoCAD 2000
 90
        0
280
     0
281
     0
  0
CLASS
  1
LWPOLYLINE
  2
AcDbPolyline
  3
AutoCAD 2000
 90
        0
280
     0
281
     1
  0
CLASS
  1
HATCH
  2
AcDbHatch
  3
AutoCAD 2000
 90
        0
280
     0
281
     1
  0
CLASS
  1
XRECORD
  2
AcDbXrecord
  3
AutoCAD 2000
 90
        0
280
     0
281
     0
  0
CLASS
  1
LONG_TRANSACTION
  2
AcDbLongTransaction
  3
AutoCAD 2000
 90
        0
280
     0
281
     0
  0
CLASS
  1
LWPOLYLINE
  2
AcDbPolyline
  3
AutoCAD 2000
 90
        0
280
     0
281
     1
  0
CLASS
  1
HATCH
  2
AcDbHatch
  3
AutoCAD 2000
 90
        0
280
     0
281
     1
  0
CLASS
  1
XRECORD
  2
AcDbXrecord
  3
AutoCAD 2000
 90
        0
280
     0
281
     0
  0
CLASS
  1
LONG_TRANSACTION
  2
AcDbLongTransaction
  3
AutoCAD 2000
 90
        0
280
     0
281
     0
  0
CLASS
  1
LWPOLYLINE
  2
AcDbPolyline
  3
AutoCAD 2000
 90
        0
280
     0
281
     1
  0
CLASS
  1
HATCH
  2
AcDbHatch
  3
AutoCAD 2000
 90
        0
280
     0
281
     1
  0
CLASS
  1
XRECORD
  2
AcDbXrecord
  3
AutoCAD 2000
 90
        0
280
     0
281
     0
  0
ENDSEC
  0
SECTION
  2
TABLES
  0
TABLE
  2
VPORT
  5
7
330
0
100
AcDbSymbolTable
 70
     3
  0
VPORT
  5
2E
330
7
100
AcDbSymbolTableRecord
100
AcDbViewportTableRecord
  2
DCADVPORT
 70
     0
 10
-4.813845512253728
 20
-1.666666666666666
 11
0.6666666666666666
 21
4.49693652694817
 12
6.209999999999999
 22
9.019999999999999
 13
0.0
 23
0.0
 14
1.0
 24
1.0
 15
0.0
 25
0.0
 16
0.0
 26
0.0
 36
1.0
 17
0.0
 27
0.0
 37
0.0
 40
18.04
 41
0.688564
 42
50.0
 43
1.0
 44
1.0
 50
0.0
 51
0.0
 71
     0
 72
   100
 73
     1
 74
     1
 75
     0
 76
     0
 77
     0
 78
     0
  0
VPORT
  5
345
330
7
100
AcDbSymbolTableRecord
100
AcDbViewportTableRecord
  2
*ACTIVE
 70
     0
 10
0.0
 20
0.0
 11
1.0
 21
1.0
 12
-1.933835109405332
 22
1.458303716306826
 13
0.0
 23
0.0
 14
1.0
 24
1.0
 15
0.0
 25
0.0
 16
0.0
 26
0.0
 36
1.0
 17
0.0
 27
0.0
 37
0.0
 40
8.612860315864846
 41
1.570528967254408
 42
50.0
 43
0.0
 44
0.0
 50
0.0
 51
0.0
 71
     0
 72
   100
 73
     1
 74
     1
 75
     0
 76
     0
 77
     0
 78
     0
  0
ENDTAB
  0
TABLE
  2
LTYPE
  5
4
330
0
100
AcDbSymbolTable
 70
     3
  0
LTYPE
  5
11
330
4
100
AcDbSymbolTableRecord
100
AcDbLinetypeTableRecord
  2
BYBLOCK
 70
     0
  3

 72
    65
 73
     0
 40
0.0
  0
LTYPE
  5
12
330
4
100
AcDbSymbolTableRecord
100
AcDbLinetypeTableRecord
  2
BYLAYER
 70
     0
  3

 72
    65
 73
     0
 40
0.0
  0
LTYPE
  5
13
330
4
100
AcDbSymbolTableRecord
100
AcDbLinetypeTableRecord
  2
CONTINUOUS
 70
     0
  3
Solid line
 72
    65
 73
     0
 40
0.0
  0
LTYPE
  5
1E
330
4
100
AcDbSymbolTableRecord
100
AcDbLinetypeTableRecord
  2
CONTINUOUS
 70
     0
  3
Solid line
 72
    65
 73
     0
 40
0.0
  0
LTYPE
  5
22
330
4
100
AcDbSymbolTableRecord
100
AcDbLinetypeTableRecord
  2
DASHDOT
 70
     0
  3
__ . __ . __ . __ . __ . __ . __ . __ . __ . __
 72
    65
 73
     4
 40
1.0
 49
0.5
 74
     0
 49
-0.25
 74
     0
 49
0.0
 74
     0
 49
-0.25
 74
     0
  0
ENDTAB
  0
TABLE
  2
LAYER
  5
2
330
0
100
AcDbSymbolTable
 70
     5
  0
LAYER
  5
14
330
2
100
AcDbSymbolTableRecord
100
AcDbLayerTableRecord
  2
0
 70
     0
 62
     7
  6
CONTINUOUS
  0
LAYER
  5
2A
330
2
100
AcDbSymbolTableRecord
100
AcDbLayerTableRecord
  2
ADPDIM
 70
     0
 62
     3
  6
CONTINUOUS
  0
LAYER
  5
2B
330
2
100
AcDbSymbolTableRecord
100
AcDbLayerTableRecord
  2
ADP1DETAIL
 70
     0
 62
   250
  6
CONTINUOUS
  0
LAYER
  5
2C
330
2
100
AcDbSymbolTableRecord
100
AcDbLayerTableRecord
  2
ADP3DETAIL
 70
     0
 62
   250
  6
CONTINUOUS
  0
LAYER
  5
2D
330
2
100
AcDbSymbolTableRecord
100
AcDbLayerTableRecord
  2
DEFPOINTS
 70
     0
 62
   250
  6
CONTINUOUS
  0
ENDTAB
  0
TABLE
  2
STYLE
  5
3
330
0
100
AcDbSymbolTable
 70
     2
  0
STYLE
  5
17
330
3
100
AcDbSymbolTableRecord
100
AcDbTextStyleTableRecord
  2
STANDARD
 70
     0
 40
0.0
 41
1.0
 50
0.0
 71
     0
 42
0.0
  3
txt
  4

  0
STYLE
  5
17F
330
3
100
AcDbSymbolTableRecord
100
AcDbTextStyleTableRecord
  2
ARIAL_WIDE
 70
     0
 40
0.0
 41
1.25
 50
0.0
 71
     0
 42
0.2
  3
ARIAL.TTF
  4

1001
ACAD
1000
Arial
1071
       34
  0
ENDTAB
  0
TABLE
  2
VIEW
  5
5
330
0
100
AcDbSymbolTable
 70
     0
  0
ENDTAB
  0
TABLE
  2
UCS
  5
6
330
0
100
AcDbSymbolTable
 70
     0
  0
ENDTAB
  0
TABLE
  2
APPID
  5
8
330
0
100
AcDbSymbolTable
 70
     1
  0
APPID
  5
16
330
8
100
AcDbSymbolTableRecord
100
AcDbRegAppTableRecord
  2
ACAD
 70
     0
  0
ENDTAB
  0
TABLE
  2
DIMSTYLE
  5
9
330
0
100
AcDbSymbolTable
 70
     1
  0
DIMSTYLE
105
18
330
9
100
AcDbSymbolTableRecord
100
AcDbDimStyleTableRecord
  2
STANDARD
 70
     0
  3

  4

  5

  6

  7

 40
1.0
 41
0.18
 42
0.0625
 43
0.38
 44
0.18
 45
0.0
 46
0.0
 47
0.0
 48
0.0
140
0.18
141
0.09
142
0.0
143
25.4
144
1.0
145
0.0
146
1.0
147
0.09
 71
     0
 72
     0
 73
     1
 74
     1
 75
     0
 76
     0
 77
     0
 78
     0
170
     0
171
     2
172
     0
173
     0
174
     0
175
     0
176
     0
177
     0
178
     0
270
     2
271
     4
272
     4
273
     2
274
     2
340
17
275
     0
280
     0
281
     0
282
     0
283
     1
284
     0
285
     0
286
     0
287
     0
288
     0
  0
ENDTAB
  0
TABLE
  2
BLOCK_RECORD
  5
1
330
0
100
AcDbSymbolTable
 70
     0
  0
BLOCK_RECORD
  5
A
102
{ACAD_XDICTIONARY
360
1D6
102
}
330
1
100
AcDbSymbolTableRecord
100
AcDbBlockTableRecord
  2
*MODEL_SPACE
  0
BLOCK_RECORD
  5
B
102
{ACAD_XDICTIONARY
360
1D8
102
}
330
1
100
AcDbSymbolTableRecord
100
AcDbBlockTableRecord
  2
*PAPER_SPACE
  0
ENDTAB
  0
ENDSEC
  0
SECTION
  2
BLOCKS
  0
BLOCK
  5
D
330
A
100
AcDbEntity
  8
0
100
AcDbBlockBegin
  2
*MODEL_SPACE
 70
     0
 10
0.0
 20
0.0
 30
0.0
  3
*MODEL_SPACE
  1

  0
ENDBLK
  5
E
330
A
100
AcDbEntity
  8
0
100
AcDbBlockEnd
  0
BLOCK
  5
F
330
B
100
AcDbEntity
 67
     1
  8
0
100
AcDbBlockBegin
  2
*PAPER_SPACE
 70
     0
 10
0.0
 20
0.0
 30
0.0
  3
*PAPER_SPACE
  1

  0
ENDBLK
  5
10
330
B
100
AcDbEntity
 67
     1
  8
0
100
AcDbBlockEnd
  0
ENDSEC
  0
SECTION
  2
ENTITIES
  0
LWPOLYLINE
  5
2F
330
A
100
AcDbEntity
  8
ADP3DETAIL
  6
DASHDOT
 62
     1
100
AcDbPolyline
 90
        2
 70
   128
 43
0.0
 10
-3.012775553220302
 20
3.996905434354044
 10
-4.813845512253728
 20
3.994004635103601
  0
LWPOLYLINE
  5
33
330
A
100
AcDbEntity
  8
ADP1DETAIL
  6
CONTINUOUS
 62
     7
100
AcDbPolyline
 90
        2
 70
   128
 43
0.0
 10
-3.012775553220302
 20
3.621899671585228
 10
-4.512775553220302
 20
3.621899671585229
  0
LWPOLYLINE
  5
37
330
A
100
AcDbEntity
  8
ADP1DETAIL
  6
CONTINUOUS
 62
     7
100
AcDbPolyline
 90
        2
 70
   128
 43
0.0
 10
-3.012775553220302
 20
3.684400769258878
 10
-4.512775553220302
 20
3.684400769258878
  0
LWPOLYLINE
  5
3B
330
A
100
AcDbEntity
  8
ADP1DETAIL
  6
CONTINUOUS
 62
     7
100
AcDbPolyline
 90
        2
 70
   128
 43
0.0
 10
-3.012775553220302
 20
4.309409062743148
 10
-4.512775553220302
 20
4.309409062743149
  0
LWPOLYLINE
  5
3F
330
A
100
AcDbEntity
  8
ADP1DETAIL
  6
CONTINUOUS
 62
     7
100
AcDbPolyline
 90
        2
 70
   128
 43
0.0
 10
-3.012775553220302
 20
4.371909693765858
 10
-4.512775553220302
 20
4.371909693765858
  0
LWPOLYLINE
  5
43
330
A
100
AcDbEntity
  8
ADP1DETAIL
  6
CONTINUOUS
 62
     7
100
AcDbPolyline
 90
        2
 70
   128
 43
0.0
 10
-3.012775553220302
 20
4.496898051693747
 10
-4.512775553220302
 20
4.496898051693748
  0
LWPOLYLINE
  5
47
330
A
100
AcDbEntity
  8
ADP1DETAIL
  6
CONTINUOUS
 62
     7
100
AcDbPolyline
 90
        2
 70
   128
 43
0.0
 10
-4.512775553220302
 20
3.496898051693748
 10
-3.012775553220303
 20
3.496897270418121
  0
LWPOLYLINE
  5
4B
330
A
100
AcDbEntity
  8
ADP1DETAIL
  6
CONTINUOUS
 62
     7
100
AcDbPolyline
 90
        2
 70
   128
 43
0.0
 10
-4.512775553220302
 20
4.496898051693748
 10
-4.512775553220302
 20
3.496898051693748
  0
LWPOLYLINE
  5
4F
330
A
100
AcDbEntity
  8
ADP3DETAIL
  6
DASHDOT
 62
     1
100
AcDbPolyline
 90
        2
 70
   128
 43
0.0
 10
-0.4987820645685593
 20
-0.3189357029973074
 10
-0.4999995312345336
 20
1.5
  0
LWPOLYLINE
  5
53
330
A
100
AcDbEntity
  8
ADP1DETAIL
  6
CONTINUOUS
 62
     7
100
AcDbPolyline
 90
        2
 70
   128
 43
0.0
 10
-0.8750006434033995
 20
0.0
 10
-0.8749998621277725
 20
1.5
  0
LWPOLYLINE
  5
57
330
A
100
AcDbEntity
  8
ADP1DETAIL
  6
CONTINUOUS
 62
     7
100
AcDbPolyline
 90
        2
 70
   128
 43
0.0
 10
-0.9999999999999998
 20
1.5
 10
-0.9999999999999998
 20
0.0
  0
LWPOLYLINE
  5
5B
330
A
100
AcDbEntity
  8
ADP1DETAIL
  6
CONTINUOUS
 62
     7
100
AcDbPolyline
 90
        2
 70
   128
 43
0.0
 10
-0.8125005803761045
 20
0.0
 10
-0.8124997991004775
 20
1.5
  0
LWPOLYLINE
  5
5F
330
A
100
AcDbEntity
  8
ADP1DETAIL
  6
CONTINUOUS
 62
     7
100
AcDbPolyline
 90
        2
 70
   128
 43
0.0
 10
-0.1875001041700415
 20
0.0
 10
-0.1874993228944146
 20
1.5
  0
LWPOLYLINE
  5
63
330
A
100
AcDbEntity
  8
ADP1DETAIL
  6
CONTINUOUS
 62
     7
100
AcDbPolyline
 90
        2
 70
   128
 43
0.0
 10
-0.1250000679369823
 20
0.0
 10
-0.1249992866613554
 20
1.5
  0
LWPOLYLINE
  5
67
330
A
100
AcDbEntity
  8
ADP1DETAIL
  6
CONTINUOUS
 62
     7
100
AcDbPolyline
 90
        2
 70
   128
 43
0.0
 10
0.0
 20
0.0
 10
0.0000007812756269
 20
1.5
  0
LWPOLYLINE
  5
6B
330
A
100
AcDbEntity
  8
ADP1DETAIL
  6
CONTINUOUS
 62
     7
100
AcDbPolyline
 90
        2
 70
   128
 43
0.0
 10
-0.9999999999999998
 20
0.0
 10
0.0
 20
0.0
  0
LWPOLYLINE
  5
6F
330
A
100
AcDbEntity
  8
ADP1DETAIL
  6
CONTINUOUS
 62
     7
100
AcDbPolyline
 90
        2
 70
   128
 43
0.0
 10
0.0
 20
-1.0
 10
-0.9999999999999998
 20
-1.0
  0
LWPOLYLINE
  5
73
330
A
100
AcDbEntity
  8
ADP1DETAIL
  6
CONTINUOUS
 62
     7
100
AcDbPolyline
 90
        2
 70
   128
 43
0.0
 10
-0.1875
 20
-0.8750000000000001
 10
-0.8125
 20
-0.8750000000000001
  0
LWPOLYLINE
  5
77
330
A
100
AcDbEntity
  8
ADP1DETAIL
  6
CONTINUOUS
 62
     7
100
AcDbPolyline
 90
        2
 70
   128
 43
0.0
 10
-0.9999999999999998
 20
-0.5
 10
-0.875
 20
-0.5
  0
LWPOLYLINE
  5
7B
330
A
100
AcDbEntity
  8
ADP1DETAIL
  6
CONTINUOUS
 62
     7
100
AcDbPolyline
 90
        2
 70
   128
 43
0.0
 10
-0.9999999999999998
 20
-1.0
 10
-0.9999999999999998
 20
-0.5
  0
LWPOLYLINE
  5
7F
330
A
100
AcDbEntity
  8
ADP1DETAIL
  6
CONTINUOUS
 62
     7
100
AcDbPolyline
 90
        2
 70
   128
 43
0.0
 10
-0.8125
 20
-0.8750000000000001
 10
-0.875
 20
-0.5
  0
LWPOLYLINE
  5
83
330
A
100
AcDbEntity
  8
ADP1DETAIL
  6
CONTINUOUS
 62
     7
100
AcDbPolyline
 90
        2
 70
   128
 43
0.0
 10
0.0
 20
-1.0
 10
0.0
 20
-0.5
  0
LWPOLYLINE
  5
87
330
A
100
AcDbEntity
  8
ADP1DETAIL
  6
CONTINUOUS
 62
     7
100
AcDbPolyline
 90
        2
 70
   128
 43
0.0
 10
-0.1875
 20
-0.8750000000000001
 10
-0.125
 20
-0.5
  0
LWPOLYLINE
  5
8B
330
A
100
AcDbEntity
  8
ADP1DETAIL
  6
CONTINUOUS
 62
     7
100
AcDbPolyline
 90
        2
 70
   128
 43
0.0
 10
0.0
 20
-0.5
 10
-0.125
 20
-0.5
  0
ARC
  5
8F
330
A
100
AcDbEntity
  8
ADP3DETAIL
  6
DASHDOT
 62
     1
100
AcDbCircle
 10
2.999997656174645
 20
1.496938089497897
 30
0.0
 40
2.5
210
0.0
220
0.0
230
-1.0
100
AcDbArc
 50
89.70715089622073
 51
179.929826162849
  0
ARC
  5
90
330
A
100
AcDbEntity
  8
ADP1DETAIL
  6
CONTINUOUS
 62
     7
100
AcDbCircle
 10
2.999997656174645
 20
1.496938089497897
 30
0.0
 40
3.0
210
0.0
220
0.0
230
-1.0
100
AcDbArc
 50
89.75595940485765
 51
179.9415218068414
  0
ARC
  5
91
330
A
100
AcDbEntity
  8
ADP1DETAIL
  6
CONTINUOUS
 62
     7
100
AcDbCircle
 10
2.999997656174645
 20
1.496938089497897
 30
0.0
 40
2.875
210
0.0
220
0.0
230
-1.0
100
AcDbArc
 50
89.74534887578942
 51
179.9389792757628
  0
ARC
  5
92
330
A
100
AcDbEntity
  8
ADP1DETAIL
  6
CONTINUOUS
 62
     7
100
AcDbCircle
 10
2.999997656174645
 20
1.496938089497897
 30
0.0
 40
2.8125
210
0.0
220
0.0
230
-1.0
100
AcDbArc
 50
89.73968992340521
 51
179.9376232591388
  0
ARC
  5
93
330
A
100
AcDbEntity
  8
ADP1DETAIL
  6
CONTINUOUS
 62
     7
100
AcDbCircle
 10
2.999997656174645
 20
1.496938089497897
 30
0.0
 40
2.1875
210
0.0
220
0.0
230
-1.0
100
AcDbArc
 50
89.66531486387049
 51
179.9198013228325
  0
ARC
  5
94
330
A
100
AcDbEntity
  8
ADP1DETAIL
  6
CONTINUOUS
 62
     7
100
AcDbCircle
 10
2.999997656174645
 20
1.496938089497897
 30
0.0
 40
2.125
210
0.0
220
0.0
230
-1.0
100
AcDbArc
 50
89.65547106644631
 51
179.9174425366008
  0
ARC
  5
95
330
A
100
AcDbEntity
  8
ADP1DETAIL
  6
CONTINUOUS
 62
     7
100
AcDbCircle
 10
2.999997656174645
 20
1.496938089497897
 30
0.0
 40
2.0
210
0.0
220
0.0
230
-1.0
100
AcDbArc
 50
89.63393772372464
 51
179.9122826912257
  0
LWPOLYLINE
  5
96
330
A
100
AcDbEntity
  8
ADPDIM
  6
CONTINUOUS
 62
     3
 48
0.125
100
AcDbPolyline
 90
        2
 70
   128
 43
0.0
 10
-2.942842769146365
 20
1.491604516268314
 10
-1.913479426213198
 20
1.491604516268314
  0
LWPOLYLINE
  5
9A
330
A
100
AcDbEntity
  8
ADPDIM
  6
CONTINUOUS
 62
     3
 48
0.125
100
AcDbPolyline
 90
        2
 70
   128
 43
0.0
 10
-1.062499999999999
 20
0.0
 10
-2.273479426213198
 20
0.0000000000000001
  0
LWPOLYLINE
  5
9E
330
A
100
AcDbEntity
  8
ADPDIM
  6
CONTINUOUS
 62
     3
 48
0.125
100
AcDbPolyline
 90
        2
 70
   128
 43
0.0
 10
-2.093479426213198
 20
1.491604516268314
 10
-2.093479426213198
 20
1.120802258134157
  0
LWPOLYLINE
  5
A2
330
A
100
AcDbEntity
  8
ADPDIM
  6
CONTINUOUS
 62
     3
 48
0.125
100
AcDbPolyline
 90
        2
 70
   128
 43
0.0
 10
-2.093479426213198
 20
0.0000000000000001
 10
-2.093479426213198
 20
0.370802258134157
  0
LWPOLYLINE
  5
A6
330
A
100
AcDbEntity
  8
ADPDIM
  6
CONTINUOUS
 62
     3
 48
0.125
100
AcDbPolyline
 90
        2
 70
   128
 43
0.0
 10
-1.968479426213198
 20
1.366604516268314
 10
-2.218479426213198
 20
1.616604516268314
  0
LWPOLYLINE
  5
AA
330
A
100
AcDbEntity
  8
ADPDIM
  6
CONTINUOUS
 62
     3
 48
0.125
100
AcDbPolyline
 90
        2
 70
   128
 43
0.0
 10
-1.968479426213198
 20
-0.1249999999999999
 10
-2.218479426213198
 20
0.1250000000000001
  0
TEXT
  5
AE
330
A
100
AcDbEntity
  8
ADPDIM
 62
     3
 48
0.0
100
AcDbText
 10
-2.030979426213198
 20
0.4958022581341571
 30
0.0
 40
0.125
  1
1 1/2
 50
90.0
 72
     5
 11
-2.030979426213198
 21
0.995802258134157
 31
0.0
100
AcDbText
  0
LWPOLYLINE
  5
AF
330
A
100
AcDbEntity
  8
ADPDIM
  6
CONTINUOUS
 62
     3
 48
0.125
100
AcDbPolyline
 90
        2
 70
   128
 43
0.0
 10
-1.230321428951119
 20
3.262793703867292
 10
-3.005342769146366
 20
1.491604516268314
  0
LWPOLYLINE
  5
B3
330
A
100
AcDbEntity
  8
ADPDIM
  6
CONTINUOUS
 62
     3
 48
0.125
100
AcDbPolyline
 90
        2
 70
   128
 43
0.0
 10
-1.230512459593826
 20
3.086017111787646
 10
-1.230130398308412
 20
3.439570295946938
  0
TEXT
  5
B7
330
A
100
AcDbEntity
  8
ADPDIM
 62
     3
 48
0.0
100
AcDbText
 10
-3.521593850741247
 20
0.8881749993707519
 30
0.0
 40
0.1249999999999999
  1
R2 1/2
 50
44.93808430632415
 72
     5
 11
-3.049680190148307
 21
1.359069829869256
 31
0.0
100
AcDbText
  0
LWPOLYLINE
  5
B8
330
A
100
AcDbEntity
  8
ADPDIM
  6
CONTINUOUS
 62
     3
 48
0.125
100
AcDbPolyline
 90
        2
 70
   128
 43
0.0
 10
-0.9999999999999998
 20
-1.0625
 10
-0.9999999999999998
 20
-1.380275693301129
  0
LWPOLYLINE
  5
BC
330
A
100
AcDbEntity
  8
ADPDIM
  6
CONTINUOUS
 62
     3
 48
0.125
100
AcDbPolyline
 90
        2
 70
   128
 43
0.0
 10
0.0
 20
-1.0625
 10
0.0
 20
-1.380275693301129
  0
LWPOLYLINE
  5
C0
330
A
100
AcDbEntity
  8
ADPDIM
  6
CONTINUOUS
 62
     3
 48
0.125
100
AcDbPolyline
 90
        2
 70
   128
 43
0.0
 10
-0.9999999999999998
 20
-1.200275693301129
 10
-0.6458333333333333
 20
-1.200275693301129
  0
LWPOLYLINE
  5
C4
330
A
100
AcDbEntity
  8
ADPDIM
  6
CONTINUOUS
 62
     3
 48
0.125
100
AcDbPolyline
 90
        2
 70
   128
 43
0.0
 10
0.0
 20
-1.200275693301129
 10
-0.3541666666666665
 20
-1.200275693301129
  0
LWPOLYLINE
  5
C8
330
A
100
AcDbEntity
  8
ADPDIM
  6
CONTINUOUS
 62
     3
 48
0.125
100
AcDbPolyline
 90
        2
 70
   128
 43
0.0
 10
-1.124999999999999
 20
-1.325275693301129
 10
-0.8749999999999998
 20
-1.075275693301129
  0
LWPOLYLINE
  5
CC
330
A
100
AcDbEntity
  8
ADPDIM
  6
CONTINUOUS
 62
     3
 48
0.125
100
AcDbPolyline
 90
        2
 70
   128
 43
0.0
 10
-0.125
 20
-1.325275693301129
 10
0.125
 20
-1.075275693301129
  0
TEXT
  5
D0
330
A
100
AcDbEntity
  8
ADPDIM
 62
     3
 48
0.0
100
AcDbText
 10
-0.5208333333333333
 20
-1.262775693301129
 30
0.0
 40
0.125
  1
1
 72
     5
 11
-0.4791666666666666
 21
-1.262775693301129
 31
0.0
100
AcDbText
  0
LWPOLYLINE
  5
D1
330
A
100
AcDbEntity
  8
ADPDIM
  6
CONTINUOUS
 62
     3
 48
0.125
100
AcDbPolyline
 90
        2
 70
   128
 43
0.0
 10
-0.125
 20
-0.4375
 10
-0.125
 20
-0.1760985922458957
  0
LWPOLYLINE
  5
D5
330
A
100
AcDbEntity
  8
ADPDIM
  6
CONTINUOUS
 62
     3
 48
0.125
100
AcDbPolyline
 90
        2
 70
   128
 43
0.0
 10
0.0
 20
-0.4375
 10
0.0
 20
-0.1760985922458957
  0
LWPOLYLINE
  5
D9
330
A
100
AcDbEntity
  8
ADPDIM
  6
CONTINUOUS
 62
     3
 48
0.125
100
AcDbPolyline
 90
        2
 70
   128
 43
0.0
 10
-0.125
 20
-0.3560985922458957
 10
-0.375
 20
-0.3560985922458957
  0
LWPOLYLINE
  5
DD
330
A
100
AcDbEntity
  8
ADPDIM
  6
CONTINUOUS
 62
     3
 48
0.125
100
AcDbPolyline
 90
        2
 70
   128
 43
0.0
 10
0.0
 20
-0.3560985922458957
 10
0.25
 20
-0.3560985922458957
  0
LWPOLYLINE
  5
E1
330
A
100
AcDbEntity
  8
ADPDIM
  6
CONTINUOUS
 62
     3
 48
0.125
100
AcDbPolyline
 90
        2
 70
   128
 43
0.0
 10
-0.25
 20
-0.4810985922458957
 10
0.0
 20
-0.2310985922458957
  0
LWPOLYLINE
  5
E5
330
A
100
AcDbEntity
  8
ADPDIM
  6
CONTINUOUS
 62
     3
 48
0.125
100
AcDbPolyline
 90
        2
 70
   128
 43
0.0
 10
-0.125
 20
-0.4810985922458957
 10
0.125
 20
-0.2310985922458957
  0
TEXT
  5
E9
330
A
100
AcDbEntity
  8
ADPDIM
 62
     3
 48
0.0
100
AcDbText
 10
0.375
 20
-0.4185985922458957
 30
0.0
 40
0.125
  1
1/8
 72
     5
 11
0.6666666666666666
 21
-0.4185985922458957
 31
0.0
100
AcDbText
  0
LWPOLYLINE
  5
EA
330
A
100
AcDbEntity
  8
ADPDIM
  6
CONTINUOUS
 62
     3
 48
0.125
100
AcDbPolyline
 90
        2
 70
   128
 43
0.0
 10
-1.062499999999999
 20
-0.5
 10
-1.579317044085271
 20
-0.5
  0
LWPOLYLINE
  5
EE
330
A
100
AcDbEntity
  8
ADPDIM
  6
CONTINUOUS
 62
     3
 48
0.125
100
AcDbPolyline
 90
        2
 70
   128
 43
0.0
 10
-1.062499999999999
 20
-1.0
 10
-1.579317044085271
 20
-1.0
  0
LWPOLYLINE
  5
F2
330
A
100
AcDbEntity
  8
ADPDIM
  6
CONTINUOUS
 62
     3
 48
0.125
100
AcDbPolyline
 90
        2
 70
   128
 43
0.0
 10
-1.399317044085271
 20
-0.5
 10
-1.399317044085271
 20
-0.25
  0
LWPOLYLINE
  5
F6
330
A
100
AcDbEntity
  8
ADPDIM
  6
CONTINUOUS
 62
     3
 48
0.125
100
AcDbPolyline
 90
        2
 70
   128
 43
0.0
 10
-1.399317044085271
 20
-1.0
 10
-1.399317044085271
 20
-1.25
  0
LWPOLYLINE
  5
FA
330
A
100
AcDbEntity
  8
ADPDIM
  6
CONTINUOUS
 62
     3
 48
0.125
100
AcDbPolyline
 90
        2
 70
   128
 43
0.0
 10
-1.274317044085271
 20
-0.625
 10
-1.524317044085271
 20
-0.375
  0
LWPOLYLINE
  5
FE
330
A
100
AcDbEntity
  8
ADPDIM
  6
CONTINUOUS
 62
     3
 48
0.125
100
AcDbPolyline
 90
        2
 70
   128
 43
0.0
 10
-1.274317044085271
 20
-1.125
 10
-1.524317044085271
 20
-0.8750000000000001
  0
TEXT
  5
102
330
A
100
AcDbEntity
  8
ADPDIM
 62
     3
 48
0.0
100
AcDbText
 10
-1.336817044085271
 20
-1.666666666666666
 30
0.0
 40
0.125
  1
1/2
 50
90.0
 72
     5
 11
-1.336817044085271
 21
-1.375
 31
0.0
100
AcDbText
  0
LWPOLYLINE
  5
103
330
A
100
AcDbEntity
  8
DEFPOINTS
  6
CONTINUOUS
 62
     3
 48
0.125
100
AcDbPolyline
 90
        2
 70
   128
 43
0.0
 10
-3.005342769146365
 20
1.491604516268313
 10
-3.005342769146365
 20
1.491604516268313
  0
LWPOLYLINE
  5
107
330
A
100
AcDbEntity
  8
DEFPOINTS
  6
CONTINUOUS
 62
     3
 48
0.125
100
AcDbPolyline
 90
        2
 70
   128
 43
0.0
 10
-3.005342769146365
 20
1.491604516268313
 10
-3.005342769146365
 20
1.491604516268313
  0
LWPOLYLINE
  5
10B
330
A
100
AcDbEntity
  8
DEFPOINTS
  6
CONTINUOUS
 62
     3
 48
0.125
100
AcDbPolyline
 90
        2
 70
   128
 43
0.0
 10
-1.0
 20
-0.0000000000000004
 10
-1.0
 20
-0.0000000000000004
  0
LWPOLYLINE
  5
10F
330
A
100
AcDbEntity
  8
DEFPOINTS
  6
CONTINUOUS
 62
     3
 48
0.125
100
AcDbPolyline
 90
        2
 70
   128
 43
0.0
 10
-1.0
 20
-0.0000000000000004
 10
-1.0
 20
-0.0000000000000004
  0
LWPOLYLINE
  5
113
330
A
100
AcDbEntity
  8
DEFPOINTS
  6
CONTINUOUS
 62
     3
 48
0.125
100
AcDbPolyline
 90
        2
 70
   128
 43
0.0
 10
-2.093479426213198
 20
-0.0000000000000004
 10
-2.093479426213198
 20
-0.0000000000000004
  0
LWPOLYLINE
  5
117
330
A
100
AcDbEntity
  8
DEFPOINTS
  6
CONTINUOUS
 62
     3
 48
0.125
100
AcDbPolyline
 90
        2
 70
   128
 43
0.0
 10
-2.093479426213198
 20
-0.0000000000000004
 10
-2.093479426213198
 20
-0.0000000000000004
  0
LWPOLYLINE
  5
11B
330
A
100
AcDbEntity
  8
DEFPOINTS
  6
CONTINUOUS
 62
     3
 48
0.125
100
AcDbPolyline
 90
        2
 70
   128
 43
0.0
 10
-1.230321428951118
 20
3.262793703867291
 10
-1.230321428951118
 20
3.262793703867291
  0
LWPOLYLINE
  5
11F
330
A
100
AcDbEntity
  8
DEFPOINTS
  6
CONTINUOUS
 62
     3
 48
0.125
100
AcDbPolyline
 90
        2
 70
   128
 43
0.0
 10
-1.230321428951118
 20
3.262793703867291
 10
-1.230321428951118
 20
3.262793703867291
  0
LWPOLYLINE
  5
123
330
A
100
AcDbEntity
  8
DEFPOINTS
  6
CONTINUOUS
 62
     3
 48
0.125
100
AcDbPolyline
 90
        2
 70
   128
 43
0.0
 10
-2.999997656174645
 20
1.496938089497898
 10
-2.999997656174645
 20
1.496938089497898
  0
LWPOLYLINE
  5
127
330
A
100
AcDbEntity
  8
DEFPOINTS
  6
CONTINUOUS
 62
     3
 48
0.125
100
AcDbPolyline
 90
        2
 70
   128
 43
0.0
 10
-2.999997656174645
 20
1.496938089497898
 10
-2.999997656174645
 20
1.496938089497898
  0
LWPOLYLINE
  5
12B
330
A
100
AcDbEntity
  8
DEFPOINTS
  6
CONTINUOUS
 62
     3
 48
0.125
100
AcDbPolyline
 90
        2
 70
   128
 43
0.0
 10
-1.0
 20
-1.0
 10
-1.0
 20
-1.0
  0
LWPOLYLINE
  5
12F
330
A
100
AcDbEntity
  8
DEFPOINTS
  6
CONTINUOUS
 62
     3
 48
0.125
100
AcDbPolyline
 90
        2
 70
   128
 43
0.0
 10
-1.0
 20
-1.0
 10
-1.0
 20
-1.0
  0
LWPOLYLINE
  5
133
330
A
100
AcDbEntity
  8
DEFPOINTS
  6
CONTINUOUS
 62
     3
 48
0.125
100
AcDbPolyline
 90
        2
 70
   128
 43
0.0
 10
0.0
 20
-1.0
 10
0.0
 20
-1.0
  0
LWPOLYLINE
  5
137
330
A
100
AcDbEntity
  8
DEFPOINTS
  6
CONTINUOUS
 62
     3
 48
0.125
100
AcDbPolyline
 90
        2
 70
   128
 43
0.0
 10
0.0
 20
-1.0
 10
0.0
 20
-1.0
  0
LWPOLYLINE
  5
13B
330
A
100
AcDbEntity
  8
DEFPOINTS
  6
CONTINUOUS
 62
     3
 48
0.125
100
AcDbPolyline
 90
        2
 70
   128
 43
0.0
 10
0.0
 20
-1.20027569330113
 10
0.0
 20
-1.20027569330113
  0
LWPOLYLINE
  5
13F
330
A
100
AcDbEntity
  8
DEFPOINTS
  6
CONTINUOUS
 62
     3
 48
0.125
100
AcDbPolyline
 90
        2
 70
   128
 43
0.0
 10
0.0
 20
-1.20027569330113
 10
0.0
 20
-1.20027569330113
  0
LWPOLYLINE
  5
143
330
A
100
AcDbEntity
  8
DEFPOINTS
  6
CONTINUOUS
 62
     3
 48
0.125
100
AcDbPolyline
 90
        2
 70
   128
 43
0.0
 10
-0.125
 20
-0.5000000000000005
 10
-0.125
 20
-0.5000000000000005
  0
LWPOLYLINE
  5
147
330
A
100
AcDbEntity
  8
DEFPOINTS
  6
CONTINUOUS
 62
     3
 48
0.125
100
AcDbPolyline
 90
        2
 70
   128
 43
0.0
 10
-0.125
 20
-0.5000000000000005
 10
-0.125
 20
-0.5000000000000005
  0
LWPOLYLINE
  5
14B
330
A
100
AcDbEntity
  8
DEFPOINTS
  6
CONTINUOUS
 62
     3
 48
0.125
100
AcDbPolyline
 90
        2
 70
   128
 43
0.0
 10
0.0
 20
-0.5000000000000005
 10
0.0
 20
-0.5000000000000005
  0
LWPOLYLINE
  5
14F
330
A
100
AcDbEntity
  8
DEFPOINTS
  6
CONTINUOUS
 62
     3
 48
0.125
100
AcDbPolyline
 90
        2
 70
   128
 43
0.0
 10
0.0
 20
-0.5000000000000005
 10
0.0
 20
-0.5000000000000005
  0
LWPOLYLINE
  5
153
330
A
100
AcDbEntity
  8
DEFPOINTS
  6
CONTINUOUS
 62
     3
 48
0.125
100
AcDbPolyline
 90
        2
 70
   128
 43
0.0
 10
0.0
 20
-0.356098592245897
 10
0.0
 20
-0.356098592245897
  0
LWPOLYLINE
  5
157
330
A
100
AcDbEntity
  8
DEFPOINTS
  6
CONTINUOUS
 62
     3
 48
0.125
100
AcDbPolyline
 90
        2
 70
   128
 43
0.0
 10
0.0
 20
-0.356098592245897
 10
0.0
 20
-0.356098592245897
  0
LWPOLYLINE
  5
15B
330
A
100
AcDbEntity
  8
DEFPOINTS
  6
CONTINUOUS
 62
     3
 48
0.125
100
AcDbPolyline
 90
        2
 70
   128
 43
0.0
 10
-1.0
 20
-0.5000000000000005
 10
-1.0
 20
-0.5000000000000005
  0
LWPOLYLINE
  5
15F
330
A
100
AcDbEntity
  8
DEFPOINTS
  6
CONTINUOUS
 62
     3
 48
0.125
100
AcDbPolyline
 90
        2
 70
   128
 43
0.0
 10
-1.0
 20
-0.5000000000000005
 10
-1.0
 20
-0.5000000000000005
  0
LWPOLYLINE
  5
163
330
A
100
AcDbEntity
  8
DEFPOINTS
  6
CONTINUOUS
 62
     3
 48
0.125
100
AcDbPolyline
 90
        2
 70
   128
 43
0.0
 10
-1.0
 20
-1.0
 10
-1.0
 20
-1.0
  0
LWPOLYLINE
  5
167
330
A
100
AcDbEntity
  8
DEFPOINTS
  6
CONTINUOUS
 62
     3
 48
0.125
100
AcDbPolyline
 90
        2
 70
   128
 43
0.0
 10
-1.0
 20
-1.0
 10
-1.0
 20
-1.0
  0
LWPOLYLINE
  5
16B
330
A
100
AcDbEntity
  8
DEFPOINTS
  6
CONTINUOUS
 62
     3
 48
0.125
100
AcDbPolyline
 90
        2
 70
   128
 43
0.0
 10
-1.399317044085271
 20
-1.0
 10
-1.399317044085271
 20
-1.0
  0
LWPOLYLINE
  5
16F
330
A
100
AcDbEntity
  8
DEFPOINTS
  6
CONTINUOUS
 62
     3
 48
0.125
100
AcDbPolyline
 90
        2
 70
   128
 43
0.0
 10
-1.399317044085271
 20
-1.0
 10
-1.399317044085271
 20
-1.0
  0
TEXT
  5
180
330
A
100
AcDbEntity
  8
ADPDIM
100
AcDbText
 10
-8.664164327531763
 20
-2.168460837024717
 30
0.0
 40
0.125
  1
J U L I U S  B L U M  &  C O . ,  I N C .      ( 8 0 0 )  5 2 6 - 6 2 9 3        W W W . J U L I U S B L U M . C O M        P A R T  N o .  4 0 0 - C C
 41
1.25
  7
ARIAL_WIDE
 72
     1
 11
-1.944508375962868
 21
-2.043460837024717
 31
0.0
100
AcDbText
 73
     3
  0
ENDSEC
  0
SECTION
  2
OBJECTS
  0
DICTIONARY
  5
19
330
0
100
AcDbDictionary
  3
ACAD_GROUP
350
1A
  3
ACAD_LAYOUT
350
178
  3
ACAD_MLINESTYLE
350
1B
  3
ACAD_PLOTSETTINGS
350
179
  3
ACAD_PLOTSTYLENAME
350
176
  3
ACDBHEADERROUNDTRIPXREC
350
346
  3
ACDBVARIABLEDICTIONARY
350
1E2
  0
DICTIONARY
  5
1D6
330
A
100
AcDbDictionary
280
     1
  3
ACAD_LAYOUTSELFREF
360
366
  0
DICTIONARY
  5
1D8
330
B
100
AcDbDictionary
280
     1
  3
ACAD_LAYOUTSELFREF
360
367
  0
DICTIONARY
  5
1A
102
{ACAD_REACTORS
330
19
102
}
330
19
100
AcDbDictionary
  0
DICTIONARY
  5
178
102
{ACAD_REACTORS
330
19
102
}
330
19
100
AcDbDictionary
  0
DICTIONARY
  5
1B
102
{ACAD_REACTORS
330
19
102
}
330
19
100
AcDbDictionary
  3
STANDARD
350
1C
  0
DICTIONARY
  5
179
102
{ACAD_REACTORS
330
19
102
}
330
19
100
AcDbDictionary
  0
ACDBDICTIONARYWDFLT
  5
176
102
{ACAD_REACTORS
330
19
102
}
330
19
100
AcDbDictionary
281
     1
  3
Normal
350
177
100
AcDbDictionaryWithDefault
340
177
  0
DICTIONARY
  5
346
102
{ACAD_REACTORS
330
19
102
}
330
19
100
AcDbDictionary
  3
CEPSNTYPE
350
350
  3
FINGERPRINTGUID
350
351
  3
HYPERLINKBASE
350
349
  3
INSUNITS
350
34F
  3
LAYOUTDICT
350
34B
  3
LWETCUNION
350
34E
  3
PLOTSETDICT
350
34C
  3
PLOTSTYLNAMDICT
350
34D
  3
PSVPSCALE
350
353
  3
PUCSBASE
350
356
  3
PUCSORGBACK
350
35C
  3
PUCSORGBOTTOM
350
358
  3
PUCSORGFRONT
350
35B
  3
PUCSORGLEFT
350
359
  3
PUCSORGRIGHT
350
35A
  3
PUCSORGTOP
350
357
  3
PUCSORTHOREF
350
354
  3
PUCSORTHOVIEW
350
355
  3
STYLESHEET
350
34A
  3
TSTACKALIGN
350
347
  3
TSTACKSIZE
350
348
  3
UCSBASE
350
35F
  3
UCSORGBACK
350
365
  3
UCSORGBOTTOM
350
361
  3
UCSORGFRONT
350
364
  3
UCSORGLEFT
350
362
  3
UCSORGRIGHT
350
363
  3
UCSORGTOP
350
360
  3
UCSORTHOREF
350
35D
  3
UCSORTHOVIEW
350
35E
  3
VERSIONGUID
350
352
  0
DICTIONARY
  5
1E2
102
{ACAD_REACTORS
330
19
102
}
330
19
100
AcDbDictionary
  3
DIMASSOC
350
1E3
  0
XRECORD
  5
366
102
{ACAD_REACTORS
330
1D6
102
}
330
1D6
100
AcDbXrecord
340
A
  0
XRECORD
  5
367
102
{ACAD_REACTORS
330
1D8
102
}
330
1D8
100
AcDbXrecord
340
B
  0
MLINESTYLE
  5
1C
102
{ACAD_REACTORS
330
1B
102
}
330
1B
100
AcDbMlineStyle
  2
STANDARD
 70
     0
  3

 62
     0
 51
90.00000000000019
 52
90.00000000000019
 71
     2
 49
0.5
 62
   256
  6
BYLAYER
 49
-0.5
 62
   256
  6
BYLAYER
  0
ACDBPLACEHOLDER
  5
177
102
{ACAD_REACTORS
330
176
102
}
330
176
100
AcDbPlaceHolder
280
     0
  0
XRECORD
  5
350
102
{ACAD_REACTORS
330
346
102
}
330
346
100
AcDbXrecord
 90
        0
  0
XRECORD
  5
351
102
{ACAD_REACTORS
330
346
102
}
330
346
100
AcDbXrecord
  1
{3456B8BC-F5BA-4F2C-A2A4-3E418E4BDC3C}
  0
XRECORD
  5
349
102
{ACAD_REACTORS
330
346
102
}
330
346
100
AcDbXrecord
  1

  0
XRECORD
  5
34F
102
{ACAD_REACTORS
330
346
102
}
330
346
100
AcDbXrecord
 90
        0
  0
XRECORD
  5
34B
102
{ACAD_REACTORS
330
346
102
}
330
346
100
AcDbXrecord
340
178
  0
XRECORD
  5
34E
102
{ACAD_REACTORS
330
346
102
}
330
346
100
AcDbXrecord
 90
    14877
  0
XRECORD
  5
34C
102
{ACAD_REACTORS
330
346
102
}
330
346
100
AcDbXrecord
340
179
  0
XRECORD
  5
34D
102
{ACAD_REACTORS
330
346
102
}
330
346
100
AcDbXrecord
340
176
  0
XRECORD
  5
353
102
{ACAD_REACTORS
330
346
102
}
330
346
100
AcDbXrecord
 40
0.0
  0
XRECORD
  5
356
102
{ACAD_REACTORS
330
346
102
}
330
346
100
AcDbXrecord
340
0
  0
XRECORD
  5
35C
102
{ACAD_REACTORS
330
346
102
}
330
346
100
AcDbXrecord
 10
0.0
 20
0.0
 30
0.0
  0
XRECORD
  5
358
102
{ACAD_REACTORS
330
346
102
}
330
346
100
AcDbXrecord
 10
0.0
 20
0.0
 30
0.0
  0
XRECORD
  5
35B
102
{ACAD_REACTORS
330
346
102
}
330
346
100
AcDbXrecord
 10
0.0
 20
0.0
 30
0.0
  0
XRECORD
  5
359
102
{ACAD_REACTORS
330
346
102
}
330
346
100
AcDbXrecord
 10
0.0
 20
0.0
 30
0.0
  0
XRECORD
  5
35A
102
{ACAD_REACTORS
330
346
102
}
330
346
100
AcDbXrecord
 10
0.0
 20
0.0
 30
0.0
  0
XRECORD
  5
357
102
{ACAD_REACTORS
330
346
102
}
330
346
100
AcDbXrecord
 10
0.0
 20
0.0
 30
0.0
  0
XRECORD
  5
354
102
{ACAD_REACTORS
330
346
102
}
330
346
100
AcDbXrecord
340
0
  0
XRECORD
  5
355
102
{ACAD_REACTORS
330
346
102
}
330
346
100
AcDbXrecord
 70
     0
  0
XRECORD
  5
34A
102
{ACAD_REACTORS
330
346
102
}
330
346
100
AcDbXrecord
  1

  0
XRECORD
  5
347
102
{ACAD_REACTORS
330
346
102
}
330
346
100
AcDbXrecord
 90
        1
  0
XRECORD
  5
348
102
{ACAD_REACTORS
330
346
102
}
330
346
100
AcDbXrecord
 90
       70
  0
XRECORD
  5
35F
102
{ACAD_REACTORS
330
346
102
}
330
346
100
AcDbXrecord
340
0
  0
XRECORD
  5
365
102
{ACAD_REACTORS
330
346
102
}
330
346
100
AcDbXrecord
 10
0.0
 20
0.0
 30
0.0
  0
XRECORD
  5
361
102
{ACAD_REACTORS
330
346
102
}
330
346
100
AcDbXrecord
 10
0.0
 20
0.0
 30
0.0
  0
XRECORD
  5
364
102
{ACAD_REACTORS
330
346
102
}
330
346
100
AcDbXrecord
 10
0.0
 20
0.0
 30
0.0
  0
XRECORD
  5
362
102
{ACAD_REACTORS
330
346
102
}
330
346
100
AcDbXrecord
 10
0.0
 20
0.0
 30
0.0
  0
XRECORD
  5
363
102
{ACAD_REACTORS
330
346
102
}
330
346
100
AcDbXrecord
 10
0.0
 20
0.0
 30
0.0
  0
XRECORD
  5
360
102
{ACAD_REACTORS
330
346
102
}
330
346
100
AcDbXrecord
 10
0.0
 20
0.0
 30
0.0
  0
XRECORD
  5
35D
102
{ACAD_REACTORS
330
346
102
}
330
346
100
AcDbXrecord
340
0
  0
XRECORD
  5
35E
102
{ACAD_REACTORS
330
346
102
}
330
346
100
AcDbXrecord
 70
     0
  0
XRECORD
  5
352
102
{ACAD_REACTORS
330
346
102
}
330
346
100
AcDbXrecord
  1
{FC04700E-8AF7-4A67-8DAA-2CF582CA30C3}
  0
DICTIONARYVAR
  5
1E3
102
{ACAD_REACTORS
330
1E2
102
}
330
1E2
100
DictionaryVariables
280
     0
  1
1
  0
ENDSEC
  0
EOF
