  0
SECTION
  2
HEADER
  9
$ACADVER
  1
AC1014
  9
$ACADMAINTVER
 70
     9
  9
$DWGCODEPAGE
  3
ANSI_1252
  9
$INSBASE
 10
0.0
 20
0.0
 30
0.0
  9
$EXTMIN
 10
15.24610212820877
 20
-3.557941670199101
 30
0.0
  9
$EXTMAX
 10
28.16390567527562
 20
0.8643882031421853
 30
0.0
  9
$LIMMIN
 10
0.0
 20
0.0
  9
$LIMMAX
 10
0.0
 20
0.0
  9
$ORTHOMODE
 70
     1
  9
$REGENMODE
 70
     1
  9
$FILLMODE
 70
     1
  9
$QTEXTMODE
 70
     0
  9
$MIRRTEXT
 70
     1
  9
$DRAGMODE
 70
     0
  9
$LTSCALE
 40
1.0
  9
$OSMODE
 70
    37
  9
$ATTMODE
 70
     1
  9
$TEXTSIZE
 40
0.0
  9
$TRACEWID
 40
0.05
  9
$TEXTSTYLE
  7
STANDARD
  9
$CLAYER
  8
0
  9
$CELTYPE
  6
CONTINUOUS
  9
$CECOLOR
 62
   256
  9
$CELTSCALE
 40
1.0
  9
$DELOBJ
 70
     1
  9
$DISPSILH
 70
     0
  9
$DIMSCALE
 40
1.0
  9
$DIMASZ
 40
0.18
  9
$DIMEXO
 40
0.0625
  9
$DIMDLI
 40
0.38
  9
$DIMRND
 40
0.0
  9
$DIMDLE
 40
0.0
  9
$DIMEXE
 40
0.18
  9
$DIMTP
 40
0.0
  9
$DIMTM
 40
0.0
  9
$DIMTXT
 40
0.18
  9
$DIMCEN
 40
0.09
  9
$DIMTSZ
 40
0.0
  9
$DIMTOL
 70
     0
  9
$DIMLIM
 70
     0
  9
$DIMTIH
 70
     1
  9
$DIMTOH
 70
     1
  9
$DIMSE1
 70
     0
  9
$DIMSE2
 70
     0
  9
$DIMTAD
 70
     0
  9
$DIMZIN
 70
     0
  9
$DIMBLK
  1

  9
$DIMASO
 70
     1
  9
$DIMSHO
 70
     1
  9
$DIMPOST
  1

  9
$DIMAPOST
  1

  9
$DIMALT
 70
     0
  9
$DIMALTD
 70
     2
  9
$DIMALTF
 40
25.4
  9
$DIMLFAC
 40
1.0
  9
$DIMTOFL
 70
     0
  9
$DIMTVP
 40
0.0
  9
$DIMTIX
 70
     0
  9
$DIMSOXD
 70
     0
  9
$DIMSAH
 70
     0
  9
$DIMBLK1
  1

  9
$DIMBLK2
  1

  9
$DIMSTYLE
  2
STANDARD
  9
$DIMCLRD
 70
     0
  9
$DIMCLRE
 70
     0
  9
$DIMCLRT
 70
     0
  9
$DIMTFAC
 40
1.0
  9
$DIMGAP
 40
0.09
  9
$DIMJUST
 70
     0
  9
$DIMSD1
 70
     0
  9
$DIMSD2
 70
     0
  9
$DIMTOLJ
 70
     1
  9
$DIMTZIN
 70
     0
  9
$DIMALTZ
 70
     0
  9
$DIMALTTZ
 70
     0
  9
$DIMFIT
 70
     3
  9
$DIMUPT
 70
     0
  9
$DIMUNIT
 70
     2
  9
$DIMDEC
 70
     4
  9
$DIMTDEC
 70
     4
  9
$DIMALTU
 70
     2
  9
$DIMALTTD
 70
     2
  9
$DIMTXSTY
  7
STANDARD
  9
$DIMAUNIT
 70
     0
  9
$LUNITS
 70
     2
  9
$LUPREC
 70
     4
  9
$SKETCHINC
 40
0.1
  9
$FILLETRAD
 40
0.0
  9
$AUNITS
 70
     0
  9
$AUPREC
 70
     0
  9
$MENU
  1
acad
  9
$ELEVATION
 40
0.0
  9
$PELEVATION
 40
0.0
  9
$THICKNESS
 40
0.0
  9
$LIMCHECK
 70
     0
  9
$BLIPMODE
 70
     0
  9
$CHAMFERA
 40
0.0
  9
$CHAMFERB
 40
0.0
  9
$CHAMFERC
 40
0.0
  9
$CHAMFERD
 40
0.0
  9
$SKPOLY
 70
     0
  9
$TDCREATE
 40
2444971.791666666
  9
$TDUPDATE
 40
2452297.067195995
  9
$TDINDWG
 40
0.0016645023
  9
$TDUSRTIMER
 40
0.0016645023
  9
$USRTIMER
 70
     1
  9
$ANGBASE
 50
0.0
  9
$ANGDIR
 70
     0
  9
$PDMODE
 70
     0
  9
$PDSIZE
 40
0.0
  9
$PLINEWID
 40
0.0
  9
$COORDS
 70
     2
  9
$SPLFRAME
 70
     0
  9
$SPLINETYPE
 70
     6
  9
$SPLINESEGS
 70
     8
  9
$ATTDIA
 70
     0
  9
$ATTREQ
 70
     1
  9
$HANDLING
 70
 22529
  9
$HANDSEED
  5
2D8
  9
$SURFTAB1
 70
     6
  9
$SURFTAB2
 70
     6
  9
$SURFTYPE
 70
     6
  9
$SURFU
 70
     6
  9
$SURFV
 70
     6
  9
$UCSNAME
  2

  9
$UCSORG
 10
0.0
 20
0.0
 30
0.0
  9
$UCSXDIR
 10
1.0
 20
0.0
 30
0.0
  9
$UCSYDIR
 10
0.0
 20
1.0
 30
0.0
  9
$PUCSNAME
  2

  9
$PUCSORG
 10
0.0
 20
0.0
 30
0.0
  9
$PUCSXDIR
 10
1.0
 20
0.0
 30
0.0
  9
$PUCSYDIR
 10
0.0
 20
1.0
 30
0.0
  9
$USERI1
 70
     0
  9
$USERI2
 70
     0
  9
$USERI3
 70
     0
  9
$USERI4
 70
     0
  9
$USERI5
 70
     0
  9
$USERR1
 40
0.0
  9
$USERR2
 40
0.0
  9
$USERR3
 40
0.0
  9
$USERR4
 40
0.0
  9
$USERR5
 40
0.0
  9
$WORLDVIEW
 70
     1
  9
$SHADEDGE
 70
     3
  9
$SHADEDIF
 70
    70
  9
$TILEMODE
 70
     1
  9
$MAXACTVP
 70
    16
  9
$PINSBASE
 10
0.0
 20
0.0
 30
0.0
  9
$PLIMCHECK
 70
     0
  9
$PEXTMIN
 10
1.000000000000000E+20
 20
1.000000000000000E+20
 30
1.000000000000000E+20
  9
$PEXTMAX
 10
-1.000000000000000E+20
 20
-1.000000000000000E+20
 30
-1.000000000000000E+20
  9
$PLIMMIN
 10
0.0
 20
0.0
  9
$PLIMMAX
 10
12.0
 20
9.0
  9
$UNITMODE
 70
     0
  9
$VISRETAIN
 70
     0
  9
$PLINEGEN
 70
     0
  9
$PSLTSCALE
 70
     0
  9
$TREEDEPTH
 70
  3020
  9
$PICKSTYLE
 70
     1
  9
$CMLSTYLE
  2
STANDARD
  9
$CMLJUST
 70
     0
  9
$CMLSCALE
 40
1.0
  9
$PROXYGRAPHICS
 70
     1
  9
$MEASUREMENT
 70
     0
  0
ENDSEC
  0
SECTION
  2
CLASSES
  0
CLASS
  1
LWPOLYLINE
  2
AcDbPolyline
  3
AutoCAD 2000
 90
        0
280
     0
281
     1
  0
CLASS
  1
IMAGE
  2
AcDbRasterImage
  3
ISM
 90
      127
280
     0
281
     1
  0
CLASS
  1
OLE2FRAME
  2
AcDbOle2Frame
  3
AutoCAD 2000
 90
        0
280
     0
281
     1
  0
CLASS
  1
HATCH
  2
AcDbHatch
  3
AutoCAD 2000
 90
        0
280
     0
281
     1
  0
CLASS
  1
DICTIONARYVAR
  2
AcDbDictionaryVar
  3
AutoCAD 2000
 90
        0
280
     0
281
     0
  0
CLASS
  1
RASTERVARIABLES
  2
AcDbRasterVariables
  3
ISM
 90
        0
280
     0
281
     0
  0
CLASS
  1
IMAGEDEF
  2
AcDbRasterImageDef
  3
ISM
 90
        0
280
     0
281
     0
  0
CLASS
  1
IMAGEDEF_REACTOR
  2
AcDbRasterImageDefReactor
  3
ISM
 90
        1
280
     0
281
     0
  0
CLASS
  1
IDBUFFER
  2
AcDbIdBuffer
  3
AutoCAD 2000
 90
        0
280
     0
281
     0
  0
CLASS
  1
SPATIAL_FILTER
  2
AcDbSpatialFilter
  3
AutoCAD 2000
 90
        0
280
     0
281
     0
  0
CLASS
  1
XRECORD
  2
AcDbXrecord
  3
AutoCAD 2000
 90
        0
280
     0
281
     0
  0
CLASS
  1
SORTENTSTABLE
  2
AcDbSortentsTable
  3
AutoCAD 2000
 90
        0
280
     0
281
     0
  0
CLASS
  1
LAYER_INDEX
  2
AcDbLayerIndex
  3
AutoCAD 2000
 90
        0
280
     0
281
     0
  0
CLASS
  1
SPATIAL_INDEX
  2
AcDbSpatialIndex
  3
AutoCAD 2000
 90
        0
280
     0
281
     0
  0
CLASS
  1
OBJECT_PTR
  2
CAseDLPNTableRecord
  3
ASE-LPNTableRecord
 90
        1
280
     0
281
     0
  0
CLASS
  1
ACDBDICTIONARYWDFLT
  2
AcDbDictionaryWithDefault
  3
AutoCAD 2000
 90
        0
280
     0
281
     0
  0
CLASS
  1
ACDBPLACEHOLDER
  2
AcDbPlaceHolder
  3
AutoCAD 2000
 90
        0
280
     0
281
     0
  0
CLASS
  1
LAYOUT
  2
AcDbLayout
  3
AutoCAD 2000
 90
        0
280
     0
281
     0
  0
CLASS
  1
LONG_TRANSACTION
  2
AcDbLongTransaction
  3
AutoCAD 2000
 90
        0
280
     0
281
     0
  0
CLASS
  1
LWPOLYLINE
  2
AcDbPolyline
  3
AutoCAD 2000
 90
        0
280
     0
281
     1
  0
CLASS
  1
HATCH
  2
AcDbHatch
  3
AutoCAD 2000
 90
        0
280
     0
281
     1
  0
CLASS
  1
XRECORD
  2
AcDbXrecord
  3
AutoCAD 2000
 90
        0
280
     0
281
     0
  0
CLASS
  1
LONG_TRANSACTION
  2
AcDbLongTransaction
  3
AutoCAD 2000
 90
        0
280
     0
281
     0
  0
CLASS
  1
LWPOLYLINE
  2
AcDbPolyline
  3
AutoCAD 2000
 90
        0
280
     0
281
     1
  0
CLASS
  1
HATCH
  2
AcDbHatch
  3
AutoCAD 2000
 90
        0
280
     0
281
     1
  0
CLASS
  1
XRECORD
  2
AcDbXrecord
  3
AutoCAD 2000
 90
        0
280
     0
281
     0
  0
CLASS
  1
LONG_TRANSACTION
  2
AcDbLongTransaction
  3
AutoCAD 2000
 90
        0
280
     0
281
     0
  0
CLASS
  1
LWPOLYLINE
  2
AcDbPolyline
  3
AutoCAD 2000
 90
        0
280
     0
281
     1
  0
CLASS
  1
HATCH
  2
AcDbHatch
  3
AutoCAD 2000
 90
        0
280
     0
281
     1
  0
CLASS
  1
XRECORD
  2
AcDbXrecord
  3
AutoCAD 2000
 90
        0
280
     0
281
     0
  0
CLASS
  1
LONG_TRANSACTION
  2
AcDbLongTransaction
  3
AutoCAD 2000
 90
        0
280
     0
281
     0
  0
CLASS
  1
LWPOLYLINE
  2
AcDbPolyline
  3
AutoCAD 2000
 90
        0
280
     0
281
     1
  0
CLASS
  1
HATCH
  2
AcDbHatch
  3
AutoCAD 2000
 90
        0
280
     0
281
     1
  0
CLASS
  1
XRECORD
  2
AcDbXrecord
  3
AutoCAD 2000
 90
        0
280
     0
281
     0
  0
CLASS
  1
LONG_TRANSACTION
  2
AcDbLongTransaction
  3
AutoCAD 2000
 90
        0
280
     0
281
     0
  0
CLASS
  1
LWPOLYLINE
  2
AcDbPolyline
  3
AutoCAD 2000
 90
        0
280
     0
281
     1
  0
CLASS
  1
HATCH
  2
AcDbHatch
  3
AutoCAD 2000
 90
        0
280
     0
281
     1
  0
CLASS
  1
XRECORD
  2
AcDbXrecord
  3
AutoCAD 2000
 90
        0
280
     0
281
     0
  0
CLASS
  1
LONG_TRANSACTION
  2
AcDbLongTransaction
  3
AutoCAD 2000
 90
        0
280
     0
281
     0
  0
CLASS
  1
LWPOLYLINE
  2
AcDbPolyline
  3
AutoCAD 2000
 90
        0
280
     0
281
     1
  0
CLASS
  1
HATCH
  2
AcDbHatch
  3
AutoCAD 2000
 90
        0
280
     0
281
     1
  0
CLASS
  1
XRECORD
  2
AcDbXrecord
  3
AutoCAD 2000
 90
        0
280
     0
281
     0
  0
ENDSEC
  0
SECTION
  2
TABLES
  0
TABLE
  2
VPORT
  5
7
330
0
100
AcDbSymbolTable
 70
     3
  0
VPORT
  5
2E
330
7
100
AcDbSymbolTableRecord
100
AcDbViewportTableRecord
  2
DCADVPORT
 70
     0
 10
20.31917992943128
 20
-2.724905345242909
 11
23.50571587186108
 21
0.8643882031421853
 12
6.209999999999999
 22
9.019999999999999
 13
0.0
 23
0.0
 14
1.0
 24
1.0
 15
0.0
 25
0.0
 16
0.0
 26
0.0
 36
1.0
 17
0.0
 27
0.0
 37
0.0
 40
18.04
 41
0.688564
 42
50.0
 43
1.0
 44
1.0
 50
0.0
 51
0.0
 71
     0
 72
   100
 73
     1
 74
     1
 75
     0
 76
     0
 77
     0
 78
     0
  0
VPORT
  5
2B5
330
7
100
AcDbSymbolTableRecord
100
AcDbViewportTableRecord
  2
*ACTIVE
 70
     0
 10
0.0
 20
0.0
 11
1.0
 21
1.0
 12
21.70556666504289
 22
-1.346611851695213
 13
0.0
 23
0.0
 14
1.0
 24
1.0
 15
0.0
 25
0.0
 16
0.0
 26
0.0
 36
1.0
 17
0.0
 27
0.0
 37
0.0
 40
8.266653038414652
 41
1.570528967254408
 42
50.0
 43
0.0
 44
0.0
 50
0.0
 51
0.0
 71
     0
 72
   100
 73
     1
 74
     1
 75
     0
 76
     0
 77
     0
 78
     0
  0
ENDTAB
  0
TABLE
  2
LTYPE
  5
4
330
0
100
AcDbSymbolTable
 70
     2
  0
LTYPE
  5
11
330
4
100
AcDbSymbolTableRecord
100
AcDbLinetypeTableRecord
  2
BYBLOCK
 70
     0
  3

 72
    65
 73
     0
 40
0.0
  0
LTYPE
  5
12
330
4
100
AcDbSymbolTableRecord
100
AcDbLinetypeTableRecord
  2
BYLAYER
 70
     0
  3

 72
    65
 73
     0
 40
0.0
  0
LTYPE
  5
13
330
4
100
AcDbSymbolTableRecord
100
AcDbLinetypeTableRecord
  2
CONTINUOUS
 70
     0
  3
Solid line
 72
    65
 73
     0
 40
0.0
  0
LTYPE
  5
1E
330
4
100
AcDbSymbolTableRecord
100
AcDbLinetypeTableRecord
  2
CONTINUOUS
 70
     0
  3
Solid line
 72
    65
 73
     0
 40
0.0
  0
ENDTAB
  0
TABLE
  2
LAYER
  5
2
330
0
100
AcDbSymbolTable
 70
     6
  0
LAYER
  5
14
330
2
100
AcDbSymbolTableRecord
100
AcDbLayerTableRecord
  2
0
 70
     0
 62
     7
  6
CONTINUOUS
  0
LAYER
  5
2A
330
2
100
AcDbSymbolTableRecord
100
AcDbLayerTableRecord
  2
ADP2DETAILX
 70
     0
 62
   250
  6
CONTINUOUS
  0
LAYER
  5
2B
330
2
100
AcDbSymbolTableRecord
100
AcDbLayerTableRecord
  2
ADPDIM1
 70
     0
 62
   250
  6
CONTINUOUS
  0
LAYER
  5
2C
330
2
100
AcDbSymbolTableRecord
100
AcDbLayerTableRecord
  2
ADP1DETAIL
 70
     0
 62
   250
  6
CONTINUOUS
  0
LAYER
  5
2D
330
2
100
AcDbSymbolTableRecord
100
AcDbLayerTableRecord
  2
DEFPOINTS
 70
     0
 62
   250
  6
CONTINUOUS
  0
LAYER
  5
14B
330
2
100
AcDbSymbolTableRecord
100
AcDbLayerTableRecord
  2
ADPDIM
 70
     0
 62
     3
  6
CONTINUOUS
  0
ENDTAB
  0
TABLE
  2
STYLE
  5
3
330
0
100
AcDbSymbolTable
 70
     2
  0
STYLE
  5
17
330
3
100
AcDbSymbolTableRecord
100
AcDbTextStyleTableRecord
  2
STANDARD
 70
     0
 40
0.0
 41
1.0
 50
0.0
 71
     0
 42
0.0
  3
txt
  4

  0
STYLE
  5
14C
330
3
100
AcDbSymbolTableRecord
100
AcDbTextStyleTableRecord
  2
ARIAL_WIDE
 70
     0
 40
0.0
 41
1.25
 50
0.0
 71
     0
 42
0.2
  3
ARIAL.TTF
  4

1001
ACAD
1000
Arial
1071
       34
  0
ENDTAB
  0
TABLE
  2
VIEW
  5
5
330
0
100
AcDbSymbolTable
 70
     0
  0
ENDTAB
  0
TABLE
  2
UCS
  5
6
330
0
100
AcDbSymbolTable
 70
     0
  0
ENDTAB
  0
TABLE
  2
APPID
  5
8
330
0
100
AcDbSymbolTable
 70
     1
  0
APPID
  5
16
330
8
100
AcDbSymbolTableRecord
100
AcDbRegAppTableRecord
  2
ACAD
 70
     0
  0
ENDTAB
  0
TABLE
  2
DIMSTYLE
  5
9
330
0
100
AcDbSymbolTable
 70
     1
  0
DIMSTYLE
105
18
330
9
100
AcDbSymbolTableRecord
100
AcDbDimStyleTableRecord
  2
STANDARD
 70
     0
  3

  4

  5

  6

  7

 40
1.0
 41
0.18
 42
0.0625
 43
0.38
 44
0.18
 45
0.0
 46
0.0
 47
0.0
 48
0.0
140
0.18
141
0.09
142
0.0
143
25.4
144
1.0
145
0.0
146
1.0
147
0.09
 71
     0
 72
     0
 73
     1
 74
     1
 75
     0
 76
     0
 77
     0
 78
     0
170
     0
171
     2
172
     0
173
     0
174
     0
175
     0
176
     0
177
     0
178
     0
270
     2
271
     4
272
     4
273
     2
274
     2
340
17
275
     0
280
     0
281
     0
282
     0
283
     1
284
     0
285
     0
286
     0
287
     0
288
     0
  0
ENDTAB
  0
TABLE
  2
BLOCK_RECORD
  5
1
330
0
100
AcDbSymbolTable
 70
     0
  0
BLOCK_RECORD
  5
A
102
{ACAD_XDICTIONARY
360
1A7
102
}
330
1
100
AcDbSymbolTableRecord
100
AcDbBlockTableRecord
  2
*MODEL_SPACE
  0
BLOCK_RECORD
  5
B
102
{ACAD_XDICTIONARY
360
1A9
102
}
330
1
100
AcDbSymbolTableRecord
100
AcDbBlockTableRecord
  2
*PAPER_SPACE
  0
ENDTAB
  0
ENDSEC
  0
SECTION
  2
BLOCKS
  0
BLOCK
  5
D
330
A
100
AcDbEntity
  8
0
100
AcDbBlockBegin
  2
*MODEL_SPACE
 70
     0
 10
0.0
 20
0.0
 30
0.0
  3
*MODEL_SPACE
  1

  0
ENDBLK
  5
E
330
A
100
AcDbEntity
  8
0
100
AcDbBlockEnd
  0
BLOCK
  5
F
330
B
100
AcDbEntity
 67
     1
  8
0
100
AcDbBlockBegin
  2
*PAPER_SPACE
 70
     0
 10
0.0
 20
0.0
 30
0.0
  3
*PAPER_SPACE
  1

  0
ENDBLK
  5
10
330
B
100
AcDbEntity
 67
     1
  8
0
100
AcDbBlockEnd
  0
ENDSEC
  0
SECTION
  2
ENTITIES
  0
ARC
  5
2F
330
A
100
AcDbEntity
  8
ADP1DETAIL
  6
CONTINUOUS
 62
     7
100
AcDbCircle
 10
-20.7879086704458
 20
-0.1518919722845204
 30
0.0
 40
0.46875
210
0.0
220
0.0
230
-1.0
100
AcDbArc
 50
270.5456823399796
 51
89.45431766002121
  0
LWPOLYLINE
  5
30
330
A
100
AcDbEntity
  8
ADP1DETAIL
  6
CONTINUOUS
 62
     7
100
AcDbPolyline
 90
        2
 70
   128
 43
0.0
 10
20.98188903619382
 20
-2.352723527061091
 10
20.33244878916712
 20
-2.35272352706109
  0
LWPOLYLINE
  5
34
330
A
100
AcDbEntity
  8
ADP1DETAIL
  6
CONTINUOUS
 62
     7
100
AcDbPolyline
 90
        2
 70
   128
 43
0.0
 10
20.33244878916712
 20
-2.474905345242909
 10
23.05803958595042
 20
-2.474905345242909
  0
LWPOLYLINE
  5
38
330
A
100
AcDbEntity
  8
ADP1DETAIL
  6
CONTINUOUS
 62
     7
100
AcDbPolyline
 90
        2
 70
   128
 43
0.0
 10
20.33244878916712
 20
-2.35272352706109
 10
20.33244878916712
 20
-2.474905345242909
  0
LWPOLYLINE
  5
3C
330
A
100
AcDbEntity
  8
ADP1DETAIL
  6
CONTINUOUS
 62
     7
100
AcDbPolyline
 90
        2
 70
   128
 43
0.0
 10
20.9691586704458
 20
0.5631263037188133
 10
22.41242207660374
 20
0.5631263037188133
  0
LWPOLYLINE
  5
40
330
A
100
AcDbEntity
  8
ADP1DETAIL
  6
CONTINUOUS
 62
     7
100
AcDbPolyline
 90
        2
 70
   128
 43
0.0
 10
22.07561630892109
 20
-1.420450799788364
 10
21.32879812710291
 20
-1.420450799788364
  0
LWPOLYLINE
  5
44
330
A
100
AcDbEntity
  8
ADP1DETAIL
  6
CONTINUOUS
 62
     7
100
AcDbPolyline
 90
        2
 70
   128
 43
0.0
 10
22.07561630892109
 20
-1.359359890697454
 10
21.32879812710291
 20
-1.359359890697454
  0
LWPOLYLINE
  5
48
330
A
100
AcDbEntity
  8
ADP1DETAIL
  6
CONTINUOUS
 62
     7
100
AcDbPolyline
 90
        2
 70
   128
 43
0.0
 10
21.32879812710291
 20
-1.420450799788364
 10
22.07561630892109
 20
-1.420450799788364
  0
LWPOLYLINE
  5
4C
330
A
100
AcDbEntity
  8
ADP1DETAIL
  6
CONTINUOUS
 62
     7
100
AcDbPolyline
 90
        2
 70
   128
 43
0.0
 10
20.98188903619382
 20
-2.169450799788363
 10
22.41816176346655
 20
-2.169450799788363
  0
LWPOLYLINE
  5
50
330
A
100
AcDbEntity
  8
ADP1DETAIL
  6
CONTINUOUS
 62
     7
100
AcDbPolyline
 90
        2
 70
   128
 43
0.0
 10
22.41816176346655
 20
-2.474905345242909
 10
20.98188903619382
 20
-2.474905345242909
  0
LWPOLYLINE
  5
54
330
A
100
AcDbEntity
  8
ADP1DETAIL
  6
CONTINUOUS
 62
     7
100
AcDbPolyline
 90
        2
 70
   128
 43
0.0
 10
22.41242207660374
 20
-0.8669102482878559
 10
20.9691586704458
 20
-0.866910248287855
  0
LWPOLYLINE
  5
58
330
A
100
AcDbEntity
  8
ADP1DETAIL
  6
CONTINUOUS
 62
     7
100
AcDbPolyline
 90
        2
 70
   128
 43
0.0
 10
22.25234358164837
 20
-1.544814436151999
 10
21.15643449073927
 20
-1.544814436151999
  0
ARC
  5
5C
330
A
100
AcDbEntity
  8
ADP1DETAIL
  6
CONTINUOUS
 62
     7
100
AcDbCircle
 10
-21.30977318385133
 20
-1.584986840230296
 30
0.0
 40
0.1667593440217625
210
0.0
220
0.0
230
-1.0
100
AcDbArc
 50
14.58255288236453
 51
96.33916067107563
  0
ARC
  5
5D
330
A
100
AcDbEntity
  8
ADP1DETAIL
  6
CONTINUOUS
 62
     7
100
AcDbCircle
 10
-21.03200839135114
 20
-1.775747327921854
 30
0.0
 40
0.2602201687607564
210
0.0
220
0.0
230
-1.0
100
AcDbArc
 50
116.5659019903221
 51
179.7343273433568
  0
ARC
  5
5E
330
A
100
AcDbEntity
  8
ADP1DETAIL
  6
CONTINUOUS
 62
     7
100
AcDbCircle
 10
-20.91970677298273
 20
-1.835253134476247
 30
0.0
 40
0.3774339599204398
210
0.0
220
0.0
230
-1.0
100
AcDbArc
 50
170.7434318645196
 51
235.6994589528411
  0
ARC
  5
5F
330
A
100
AcDbEntity
  8
ADP1DETAIL
  6
CONTINUOUS
 62
     7
100
AcDbCircle
 10
-21.00369198360863
 20
-1.820833969286411
 30
0.0
 40
0.3506889101355311
210
0.0
220
0.0
230
-1.0
100
AcDbArc
 50
248.4677412781804
 51
273.1260197598586
  0
LWPOLYLINE
  5
60
330
A
100
AcDbEntity
  8
ADP2DETAILX
  6
CONTINUOUS
 62
     5
100
AcDbPolyline
 90
        2
 70
   128
 43
0.0
 10
20.54217007374608
 20
-2.351658609232472
 10
20.6233540017171
 20
-2.471770297882305
  0
LWPOLYLINE
  5
64
330
A
100
AcDbEntity
  8
ADP2DETAILX
  6
CONTINUOUS
 62
     5
100
AcDbPolyline
 90
        2
 70
   128
 43
0.0
 10
20.89529482354168
 20
-2.351658609232472
 10
20.81411089557066
 20
-2.471770297882305
  0
LWPOLYLINE
  5
68
330
A
100
AcDbEntity
  8
ADP1DETAIL
  6
CONTINUOUS
 62
     7
100
AcDbPolyline
 90
        2
 70
   128
 43
0.0
 10
20.98188903619382
 20
-2.474905345242909
 10
20.98188903619382
 20
-2.169450799788363
  0
LWPOLYLINE
  5
6C
330
A
100
AcDbEntity
  8
ADP2DETAILX
  6
CONTINUOUS
 62
     5
100
AcDbPolyline
 90
        2
 70
   128
 43
0.0
 10
21.38802539983018
 20
-1.35987363738403
 10
21.38802539983018
 20
-2.474905345242909
  0
LWPOLYLINE
  5
70
330
A
100
AcDbEntity
  8
ADP1DETAIL
  6
CONTINUOUS
 62
     7
100
AcDbPolyline
 90
        2
 70
   128
 43
0.0
 10
21.32879812710291
 20
-1.359359890697454
 10
21.32879812710291
 20
-1.420450799788364
  0
LWPOLYLINE
  5
74
330
A
100
AcDbEntity
  8
ADP1DETAIL
  6
CONTINUOUS
 62
     7
100
AcDbPolyline
 90
        2
 70
   128
 43
0.0
 10
20.9691586704458
 20
0.5631263037188133
 10
20.9691586704458
 20
-0.866910248287855
  0
CIRCLE
  5
78
330
A
100
AcDbEntity
  8
ADP1DETAIL
  6
CONTINUOUS
 62
     7
100
AcDbCircle
 10
-20.7254086704458
 20
-0.1518919722845204
 30
0.0
 40
0.1750000000000007
210
0.0
220
0.0
230
-1.0
  0
CIRCLE
  5
79
330
A
100
AcDbEntity
  8
ADP1DETAIL
  6
CONTINUOUS
 62
     7
100
AcDbCircle
 10
-20.7254086704458
 20
-0.1518919722845204
 30
0.0
 40
0.0940000000000012
210
0.0
220
0.0
230
-1.0
  0
ARC
  5
7A
330
A
100
AcDbEntity
  8
ADP1DETAIL
  6
CONTINUOUS
 62
     7
100
AcDbCircle
 10
-20.7816586704458
 20
-0.8081122097048565
 30
0.0
 40
0.1875
210
0.0
220
0.0
230
-1.0
100
AcDbArc
 50
90.54568233997859
 51
180.0
  0
ARC
  5
7B
330
A
100
AcDbEntity
  8
ADP1DETAIL
  6
CONTINUOUS
 62
     7
100
AcDbCircle
 10
-20.7816586704458
 20
0.5043282651358157
 30
0.0
 40
0.1875
210
0.0
220
0.0
230
-1.0
100
AcDbArc
 50
180.0
 51
269.4543176600222
  0
LWPOLYLINE
  5
7C
330
A
100
AcDbEntity
  8
ADP1DETAIL
  6
CONTINUOUS
 62
     7
100
AcDbPolyline
 90
        2
 70
   128
 43
0.0
 10
23.05803958595042
 20
-2.35272352706109
 10
22.41816176346655
 20
-2.35272352706109
  0
LWPOLYLINE
  5
80
330
A
100
AcDbEntity
  8
ADP2DETAILX
  6
CONTINUOUS
 62
     5
100
AcDbPolyline
 90
        2
 70
   128
 43
0.0
 10
22.01202539983019
 20
-1.35987363738403
 10
22.01202539983019
 20
-2.474905345242909
  0
ARC
  5
84
330
A
100
AcDbEntity
  8
ADP1DETAIL
  6
CONTINUOUS
 62
     7
100
AcDbCircle
 10
-22.09490450711099
 20
-1.584986840230305
 30
0.0
 40
0.1667593440217703
210
0.0
220
0.0
230
-1.0
100
AcDbArc
 50
83.66083932892228
 51
165.4174471176334
  0
ARC
  5
85
330
A
100
AcDbEntity
  8
ADP1DETAIL
  6
CONTINUOUS
 62
     7
100
AcDbCircle
 10
-22.3726692996112
 20
-1.775747327921846
 30
0.0
 40
0.260220168760758
210
0.0
220
0.0
230
-1.0
100
AcDbArc
 50
0.2656726566415577
 51
63.43409800967659
  0
ARC
  5
86
330
A
100
AcDbEntity
  8
ADP1DETAIL
  6
CONTINUOUS
 62
     7
100
AcDbCircle
 10
-22.48497091797959
 20
-1.835253134476236
 30
0.0
 40
0.3774339599204354
210
0.0
220
0.0
230
-1.0
100
AcDbArc
 50
304.3005410471592
 51
9.256568135478705
  0
ARC
  5
87
330
A
100
AcDbEntity
  8
ADP1DETAIL
  6
CONTINUOUS
 62
     7
100
AcDbCircle
 10
-22.40098570735368
 20
-1.820833969286409
 30
0.0
 40
0.3506889101355318
210
0.0
220
0.0
230
-1.0
100
AcDbArc
 50
266.8739802401412
 51
291.5322587218194
  0
LWPOLYLINE
  5
88
330
A
100
AcDbEntity
  8
ADP2DETAILX
  6
CONTINUOUS
 62
     5
100
AcDbPolyline
 90
        2
 70
   128
 43
0.0
 10
22.4808523817618
 20
-2.351658609232472
 10
22.56203630973282
 20
-2.471770297882305
  0
LWPOLYLINE
  5
8C
330
A
100
AcDbEntity
  8
ADP1DETAIL
  6
CONTINUOUS
 62
     7
100
AcDbPolyline
 90
        2
 70
   128
 43
0.0
 10
22.41816176346655
 20
-2.169450799788363
 10
22.41816176346655
 20
-2.474905345242909
  0
LWPOLYLINE
  5
90
330
A
100
AcDbEntity
  8
ADP1DETAIL
  6
CONTINUOUS
 62
     7
100
AcDbPolyline
 90
        2
 70
   128
 43
0.0
 10
22.07561630892109
 20
-1.420450799788364
 10
22.07561630892109
 20
-1.359359890697454
  0
LWPOLYLINE
  5
94
330
A
100
AcDbEntity
  8
ADP1DETAIL
  6
CONTINUOUS
 62
     7
100
AcDbPolyline
 90
        2
 70
   128
 43
0.0
 10
23.05803958595042
 20
-2.474905345242909
 10
23.05803958595042
 20
-2.35272352706109
  0
LWPOLYLINE
  5
98
330
A
100
AcDbEntity
  8
ADP1DETAIL
  6
CONTINUOUS
 62
     7
100
AcDbPolyline
 90
        2
 70
   128
 43
0.0
 10
23.05803958595042
 20
-2.474905345242909
 10
23.05803958595042
 20
-2.474905345242909
  0
LWPOLYLINE
  5
9C
330
A
100
AcDbEntity
  8
ADP2DETAILX
  6
CONTINUOUS
 62
     5
100
AcDbPolyline
 90
        2
 70
   128
 43
0.0
 10
22.8339771315574
 20
-2.351658609232472
 10
22.75279320358638
 20
-2.471770297882305
  0
CIRCLE
  5
A0
330
A
100
AcDbEntity
  8
ADP1DETAIL
  6
CONTINUOUS
 62
     7
100
AcDbCircle
 10
-22.65617207660374
 20
-0.1518919722845204
 30
0.0
 40
0.0940000000000012
210
0.0
220
0.0
230
-1.0
  0
CIRCLE
  5
A1
330
A
100
AcDbEntity
  8
ADP1DETAIL
  6
CONTINUOUS
 62
     7
100
AcDbCircle
 10
-22.65617207660374
 20
-0.1518919722845204
 30
0.0
 40
0.1750000000000007
210
0.0
220
0.0
230
-1.0
  0
ARC
  5
A2
330
A
100
AcDbEntity
  8
ADP1DETAIL
  6
CONTINUOUS
 62
     7
100
AcDbCircle
 10
-22.59367207660374
 20
-0.1518919722845204
 30
0.0
 40
0.46875
210
0.0
220
0.0
230
-1.0
100
AcDbArc
 50
90.54568233997882
 51
269.454317660022
  0
LWPOLYLINE
  5
A3
330
A
100
AcDbEntity
  8
ADP1DETAIL
  6
CONTINUOUS
 62
     7
100
AcDbPolyline
 90
        2
 70
   128
 43
0.0
 10
22.41242207660374
 20
0.5631263037188133
 10
22.41242207660374
 20
-0.8669102482878559
  0
ARC
  5
A7
330
A
100
AcDbEntity
  8
ADP1DETAIL
  6
CONTINUOUS
 62
     7
100
AcDbCircle
 10
-22.59992207660374
 20
-0.8081122097048565
 30
0.0
 40
0.1875
210
0.0
220
0.0
230
-1.0
100
AcDbArc
 50
0.0
 51
89.45431766002142
  0
ARC
  5
A8
330
A
100
AcDbEntity
  8
ADP1DETAIL
  6
CONTINUOUS
 62
     7
100
AcDbCircle
 10
-22.59992207660374
 20
0.5043282651358157
 30
0.0
 40
0.1875
210
0.0
220
0.0
230
-1.0
100
AcDbArc
 50
270.5456823399793
 51
360.0000000000008
  0
LWPOLYLINE
  5
A9
330
A
100
AcDbEntity
  8
ADPDIM1
  6
CONTINUOUS
 62
     3
 48
0.125
100
AcDbPolyline
 90
        2
 70
   128
 43
0.0
 10
20.9691586704458
 20
0.6256263037188133
 10
20.9691586704458
 20
0.8643882031421853
  0
LWPOLYLINE
  5
AD
330
A
100
AcDbEntity
  8
ADPDIM1
  6
CONTINUOUS
 62
     3
 48
0.125
100
AcDbPolyline
 90
        2
 70
   128
 43
0.0
 10
22.41242207660374
 20
0.6256263037188133
 10
22.41242207660374
 20
0.8643882031421853
  0
LWPOLYLINE
  5
B1
330
A
100
AcDbEntity
  8
ADPDIM1
  6
CONTINUOUS
 62
     3
 48
0.125
100
AcDbPolyline
 90
        2
 70
   128
 43
0.0
 10
20.9691586704458
 20
0.6843882031421851
 10
21.25329037352477
 20
0.6843882031421851
  0
LWPOLYLINE
  5
B5
330
A
100
AcDbEntity
  8
ADPDIM1
  6
CONTINUOUS
 62
     3
 48
0.125
100
AcDbPolyline
 90
        2
 70
   128
 43
0.0
 10
22.41242207660374
 20
0.6843882031421851
 10
22.12829037352477
 20
0.6843882031421851
  0
LWPOLYLINE
  5
B9
330
A
100
AcDbEntity
  8
ADPDIM1
  6
CONTINUOUS
 62
     3
 48
0.125
100
AcDbPolyline
 90
        2
 70
   128
 43
0.0
 10
20.8441586704458
 20
0.5593882031421851
 10
21.0941586704458
 20
0.809388203142185
  0
LWPOLYLINE
  5
BD
330
A
100
AcDbEntity
  8
ADPDIM1
  6
CONTINUOUS
 62
     3
 48
0.125
100
AcDbPolyline
 90
        2
 70
   128
 43
0.0
 10
22.28742207660374
 20
0.5593882031421851
 10
22.53742207660374
 20
0.809388203142185
  0
TEXT
  5
C1
330
A
100
AcDbEntity
  8
ADPDIM1
 62
     3
 48
0.0
100
AcDbText
 10
21.37829037352477
 20
0.6218882031421851
 30
0.0
 40
0.125
  1
1 7/16
 72
     5
 11
22.00329037352477
 21
0.6218882031421851
 31
0.0
100
AcDbText
  0
LWPOLYLINE
  5
C2
330
A
100
AcDbEntity
  8
ADPDIM1
  6
CONTINUOUS
 62
     3
 48
0.125
100
AcDbPolyline
 90
        2
 70
   128
 43
0.0
 10
23.1095952182754
 20
-2.474905345242909
 10
23.50571587186108
 20
-2.474905345242909
  0
LWPOLYLINE
  5
C6
330
A
100
AcDbEntity
  8
ADPDIM1
  6
CONTINUOUS
 62
     3
 48
0.125
100
AcDbPolyline
 90
        2
 70
   128
 43
0.0
 10
22.11242646420062
 20
-1.359359890697454
 10
23.50571587186108
 20
-1.359359890697454
  0
LWPOLYLINE
  5
CA
330
A
100
AcDbEntity
  8
ADPDIM1
  6
CONTINUOUS
 62
     3
 48
0.125
100
AcDbPolyline
 90
        2
 70
   128
 43
0.0
 10
23.32571587186108
 20
-2.474905345242909
 10
23.32571587186108
 20
-2.724905345242909
  0
LWPOLYLINE
  5
CE
330
A
100
AcDbEntity
  8
ADPDIM1
  6
CONTINUOUS
 62
     3
 48
0.125
100
AcDbPolyline
 90
        2
 70
   128
 43
0.0
 10
23.32571587186108
 20
-1.359359890697454
 10
23.32571587186108
 20
-1.109359890697454
  0
LWPOLYLINE
  5
D2
330
A
100
AcDbEntity
  8
ADPDIM1
  6
CONTINUOUS
 62
     3
 48
0.125
100
AcDbPolyline
 90
        2
 70
   128
 43
0.0
 10
23.45071587186108
 20
-2.599905345242909
 10
23.20071587186108
 20
-2.349905345242909
  0
LWPOLYLINE
  5
D6
330
A
100
AcDbEntity
  8
ADPDIM1
  6
CONTINUOUS
 62
     3
 48
0.125
100
AcDbPolyline
 90
        2
 70
   128
 43
0.0
 10
23.45071587186108
 20
-1.484359890697454
 10
23.20071587186108
 20
-1.234359890697454
  0
TEXT
  5
DA
330
A
100
AcDbEntity
  8
ADPDIM1
 62
     3
 48
0.0
100
AcDbText
 10
23.38821587186108
 20
-0.9843598906974548
 30
0.0
 40
0.125
  1
1 1/8
 50
90.0
 72
     5
 11
23.38821587186108
 21
-0.4843598906974549
 31
0.0
100
AcDbText
  0
LWPOLYLINE
  5
DB
330
A
100
AcDbEntity
  8
ADPDIM1
  6
CONTINUOUS
 62
     3
 48
0.125
100
AcDbPolyline
 90
        2
 70
   128
 43
0.0
 10
21.38802539983018
 20
-1.29737363738403
 10
21.38802539983018
 20
-1.024508169377472
  0
LWPOLYLINE
  5
DF
330
A
100
AcDbEntity
  8
ADPDIM1
  6
CONTINUOUS
 62
     3
 48
0.125
100
AcDbPolyline
 90
        2
 70
   128
 43
0.0
 10
22.01202539983019
 20
-1.29737363738403
 10
22.01202539983019
 20
-1.024508169377472
  0
LWPOLYLINE
  5
E3
330
A
100
AcDbEntity
  8
ADPDIM1
  6
CONTINUOUS
 62
     3
 48
0.125
100
AcDbPolyline
 90
        2
 70
   128
 43
0.0
 10
21.38802539983018
 20
-1.204508169377472
 10
21.13802539983018
 20
-1.204508169377472
  0
LWPOLYLINE
  5
E7
330
A
100
AcDbEntity
  8
ADPDIM1
  6
CONTINUOUS
 62
     3
 48
0.125
100
AcDbPolyline
 90
        2
 70
   128
 43
0.0
 10
22.01202539983019
 20
-1.204508169377472
 10
22.26202539983018
 20
-1.204508169377472
  0
LWPOLYLINE
  5
EB
330
A
100
AcDbEntity
  8
ADPDIM1
  6
CONTINUOUS
 62
     3
 48
0.125
100
AcDbPolyline
 90
        2
 70
   128
 43
0.0
 10
21.26302539983018
 20
-1.329508169377472
 10
21.51302539983019
 20
-1.079508169377472
  0
LWPOLYLINE
  5
EF
330
A
100
AcDbEntity
  8
ADPDIM1
  6
CONTINUOUS
 62
     3
 48
0.125
100
AcDbPolyline
 90
        2
 70
   128
 43
0.0
 10
21.88702539983018
 20
-1.329508169377472
 10
22.13702539983019
 20
-1.079508169377472
  0
TEXT
  5
F3
330
A
100
AcDbEntity
  8
ADPDIM1
 62
     3
 48
0.0
100
AcDbText
 10
22.38702539983019
 20
-1.267008169377472
 30
0.0
 40
0.125
  1
5/8
 72
     5
 11
22.72035873316351
 21
-1.267008169377472
 31
0.0
100
AcDbText
  0
CIRCLE
  5
F4
330
A
100
AcDbEntity
  8
ADP2DETAILX
  6
CONTINUOUS
 62
     7
100
AcDbCircle
 10
-21.69093286632878
 20
-0.1535724560533338
 30
0.0
 40
0.5951924864042084
210
0.0
220
0.0
230
-1.0
  0
CIRCLE
  5
F5
330
A
100
AcDbEntity
  8
ADP2DETAILX
  6
CONTINUOUS
 62
     7
100
AcDbCircle
 10
-21.69093286632878
 20
-0.1535724560533338
 30
0.0
 40
0.4095361136407832
210
0.0
220
0.0
230
-1.0
  0
CIRCLE
  5
F6
330
A
100
AcDbEntity
  8
ADP2DETAILX
  6
CONTINUOUS
 62
     7
100
AcDbCircle
 10
-21.69093286632878
 20
-0.1535724560533338
 30
0.0
 40
0.3203125
210
0.0
220
0.0
230
-1.0
  0
LWPOLYLINE
  5
F7
330
A
100
AcDbEntity
  8
DEFPOINTS
  6
CONTINUOUS
 62
     3
 48
0.125
100
AcDbPolyline
 90
        2
 70
   128
 43
0.0
 10
20.9691586704458
 20
0.5631263037188128
 10
20.9691586704458
 20
0.5631263037188128
  0
LWPOLYLINE
  5
FB
330
A
100
AcDbEntity
  8
DEFPOINTS
  6
CONTINUOUS
 62
     3
 48
0.125
100
AcDbPolyline
 90
        2
 70
   128
 43
0.0
 10
20.9691586704458
 20
0.5631263037188128
 10
20.9691586704458
 20
0.5631263037188128
  0
LWPOLYLINE
  5
FF
330
A
100
AcDbEntity
  8
DEFPOINTS
  6
CONTINUOUS
 62
     3
 48
0.125
100
AcDbPolyline
 90
        2
 70
   128
 43
0.0
 10
22.41242207660374
 20
0.5631263037188128
 10
22.41242207660374
 20
0.5631263037188128
  0
LWPOLYLINE
  5
103
330
A
100
AcDbEntity
  8
DEFPOINTS
  6
CONTINUOUS
 62
     3
 48
0.125
100
AcDbPolyline
 90
        2
 70
   128
 43
0.0
 10
22.41242207660374
 20
0.5631263037188128
 10
22.41242207660374
 20
0.5631263037188128
  0
LWPOLYLINE
  5
107
330
A
100
AcDbEntity
  8
DEFPOINTS
  6
CONTINUOUS
 62
     3
 48
0.125
100
AcDbPolyline
 90
        2
 70
   128
 43
0.0
 10
22.41242207660374
 20
0.6843882031421847
 10
22.41242207660374
 20
0.6843882031421847
  0
LWPOLYLINE
  5
10B
330
A
100
AcDbEntity
  8
DEFPOINTS
  6
CONTINUOUS
 62
     3
 48
0.125
100
AcDbPolyline
 90
        2
 70
   128
 43
0.0
 10
22.41242207660374
 20
0.6843882031421847
 10
22.41242207660374
 20
0.6843882031421847
  0
LWPOLYLINE
  5
10F
330
A
100
AcDbEntity
  8
DEFPOINTS
  6
CONTINUOUS
 62
     3
 48
0.125
100
AcDbPolyline
 90
        2
 70
   128
 43
0.0
 10
23.0470952182754
 20
-2.474905345242909
 10
23.0470952182754
 20
-2.474905345242909
  0
LWPOLYLINE
  5
113
330
A
100
AcDbEntity
  8
DEFPOINTS
  6
CONTINUOUS
 62
     3
 48
0.125
100
AcDbPolyline
 90
        2
 70
   128
 43
0.0
 10
23.0470952182754
 20
-2.474905345242909
 10
23.0470952182754
 20
-2.474905345242909
  0
LWPOLYLINE
  5
117
330
A
100
AcDbEntity
  8
DEFPOINTS
  6
CONTINUOUS
 62
     3
 48
0.125
100
AcDbPolyline
 90
        2
 70
   128
 43
0.0
 10
22.04992646420061
 20
-1.359359890697454
 10
22.04992646420061
 20
-1.359359890697454
  0
LWPOLYLINE
  5
11B
330
A
100
AcDbEntity
  8
DEFPOINTS
  6
CONTINUOUS
 62
     3
 48
0.125
100
AcDbPolyline
 90
        2
 70
   128
 43
0.0
 10
22.04992646420061
 20
-1.359359890697454
 10
22.04992646420061
 20
-1.359359890697454
  0
LWPOLYLINE
  5
11F
330
A
100
AcDbEntity
  8
DEFPOINTS
  6
CONTINUOUS
 62
     3
 48
0.125
100
AcDbPolyline
 90
        2
 70
   128
 43
0.0
 10
23.32571587186107
 20
-1.359359890697454
 10
23.32571587186107
 20
-1.359359890697454
  0
LWPOLYLINE
  5
123
330
A
100
AcDbEntity
  8
DEFPOINTS
  6
CONTINUOUS
 62
     3
 48
0.125
100
AcDbPolyline
 90
        2
 70
   128
 43
0.0
 10
23.32571587186107
 20
-1.359359890697454
 10
23.32571587186107
 20
-1.359359890697454
  0
LWPOLYLINE
  5
127
330
A
100
AcDbEntity
  8
DEFPOINTS
  6
CONTINUOUS
 62
     3
 48
0.125
100
AcDbPolyline
 90
        2
 70
   128
 43
0.0
 10
21.38802539983018
 20
-1.35987363738403
 10
21.38802539983018
 20
-1.35987363738403
  0
LWPOLYLINE
  5
12B
330
A
100
AcDbEntity
  8
DEFPOINTS
  6
CONTINUOUS
 62
     3
 48
0.125
100
AcDbPolyline
 90
        2
 70
   128
 43
0.0
 10
21.38802539983018
 20
-1.35987363738403
 10
21.38802539983018
 20
-1.35987363738403
  0
LWPOLYLINE
  5
12F
330
A
100
AcDbEntity
  8
DEFPOINTS
  6
CONTINUOUS
 62
     3
 48
0.125
100
AcDbPolyline
 90
        2
 70
   128
 43
0.0
 10
22.01202539983019
 20
-1.35987363738403
 10
22.01202539983019
 20
-1.35987363738403
  0
LWPOLYLINE
  5
133
330
A
100
AcDbEntity
  8
DEFPOINTS
  6
CONTINUOUS
 62
     3
 48
0.125
100
AcDbPolyline
 90
        2
 70
   128
 43
0.0
 10
22.01202539983019
 20
-1.35987363738403
 10
22.01202539983019
 20
-1.35987363738403
  0
LWPOLYLINE
  5
137
330
A
100
AcDbEntity
  8
DEFPOINTS
  6
CONTINUOUS
 62
     3
 48
0.125
100
AcDbPolyline
 90
        2
 70
   128
 43
0.0
 10
22.01202539983019
 20
-1.204508169377472
 10
22.01202539983019
 20
-1.204508169377472
  0
LWPOLYLINE
  5
13B
330
A
100
AcDbEntity
  8
DEFPOINTS
  6
CONTINUOUS
 62
     3
 48
0.125
100
AcDbPolyline
 90
        2
 70
   128
 43
0.0
 10
22.01202539983019
 20
-1.204508169377472
 10
22.01202539983019
 20
-1.204508169377472
  0
TEXT
  5
1EC
330
A
100
AcDbEntity
  8
ADPDIM
100
AcDbText
 10
15.24610212820877
 20
-3.52093621317318
 30
0.0
 40
0.125
  1
J U L I U S  B L U M  &  C O . ,  I N C .      ( 8 0 0 )  5 2 6 - 6 2 9 3        W W W . J U L I U S B L U M . C O M        P A R T  N O .  2 9 7
 41
1.25
  7
ARIAL_WIDE
 72
     1
 11
21.70500390174219
 21
-3.39593621317318
 31
0.0
100
AcDbText
 73
     3
  0
ENDSEC
  0
SECTION
  2
OBJECTS
  0
DICTIONARY
  5
19
330
0
100
AcDbDictionary
  3
ACAD_GROUP
350
1A
  3
ACAD_LAYOUT
350
144
  3
ACAD_MLINESTYLE
350
1B
  3
ACAD_PLOTSETTINGS
350
145
  3
ACAD_PLOTSTYLENAME
350
142
  3
ACDBHEADERROUNDTRIPXREC
350
2B6
  3
ACDBVARIABLEDICTIONARY
350
1B3
  0
DICTIONARY
  5
1A7
330
A
100
AcDbDictionary
280
     1
  3
ACAD_LAYOUTSELFREF
360
2D6
  0
DICTIONARY
  5
1A9
330
B
100
AcDbDictionary
280
     1
  3
ACAD_LAYOUTSELFREF
360
2D7
  0
DICTIONARY
  5
1A
102
{ACAD_REACTORS
330
19
102
}
330
19
100
AcDbDictionary
  0
DICTIONARY
  5
144
102
{ACAD_REACTORS
330
19
102
}
330
19
100
AcDbDictionary
  0
DICTIONARY
  5
1B
102
{ACAD_REACTORS
330
19
102
}
330
19
100
AcDbDictionary
  3
STANDARD
350
1C
  0
DICTIONARY
  5
145
102
{ACAD_REACTORS
330
19
102
}
330
19
100
AcDbDictionary
  0
ACDBDICTIONARYWDFLT
  5
142
102
{ACAD_REACTORS
330
19
102
}
330
19
100
AcDbDictionary
281
     1
  3
Normal
350
143
100
AcDbDictionaryWithDefault
340
143
  0
DICTIONARY
  5
2B6
102
{ACAD_REACTORS
330
19
102
}
330
19
100
AcDbDictionary
  3
CEPSNTYPE
350
2C0
  3
FINGERPRINTGUID
350
2C1
  3
HYPERLINKBASE
350
2B9
  3
INSUNITS
350
2BF
  3
LAYOUTDICT
350
2BB
  3
LWETCUNION
350
2BE
  3
PLOTSETDICT
350
2BC
  3
PLOTSTYLNAMDICT
350
2BD
  3
PSVPSCALE
350
2C3
  3
PUCSBASE
350
2C6
  3
PUCSORGBACK
350
2CC
  3
PUCSORGBOTTOM
350
2C8
  3
PUCSORGFRONT
350
2CB
  3
PUCSORGLEFT
350
2C9
  3
PUCSORGRIGHT
350
2CA
  3
PUCSORGTOP
350
2C7
  3
PUCSORTHOREF
350
2C4
  3
PUCSORTHOVIEW
350
2C5
  3
STYLESHEET
350
2BA
  3
TSTACKALIGN
350
2B7
  3
TSTACKSIZE
350
2B8
  3
UCSBASE
350
2CF
  3
UCSORGBACK
350
2D5
  3
UCSORGBOTTOM
350
2D1
  3
UCSORGFRONT
350
2D4
  3
UCSORGLEFT
350
2D2
  3
UCSORGRIGHT
350
2D3
  3
UCSORGTOP
350
2D0
  3
UCSORTHOREF
350
2CD
  3
UCSORTHOVIEW
350
2CE
  3
VERSIONGUID
350
2C2
  0
DICTIONARY
  5
1B3
102
{ACAD_REACTORS
330
19
102
}
330
19
100
AcDbDictionary
  3
DIMASSOC
350
1B4
  0
XRECORD
  5
2D6
102
{ACAD_REACTORS
330
1A7
102
}
330
1A7
100
AcDbXrecord
340
A
  0
XRECORD
  5
2D7
102
{ACAD_REACTORS
330
1A9
102
}
330
1A9
100
AcDbXrecord
340
B
  0
MLINESTYLE
  5
1C
102
{ACAD_REACTORS
330
1B
102
}
330
1B
100
AcDbMlineStyle
  2
STANDARD
 70
     0
  3

 62
     0
 51
90.00000000000019
 52
90.00000000000019
 71
     2
 49
0.5
 62
   256
  6
BYLAYER
 49
-0.5
 62
   256
  6
BYLAYER
  0
ACDBPLACEHOLDER
  5
143
102
{ACAD_REACTORS
330
142
102
}
330
142
100
AcDbPlaceHolder
280
     0
  0
XRECORD
  5
2C0
102
{ACAD_REACTORS
330
2B6
102
}
330
2B6
100
AcDbXrecord
 90
        0
  0
XRECORD
  5
2C1
102
{ACAD_REACTORS
330
2B6
102
}
330
2B6
100
AcDbXrecord
  1
{E851E775-0228-4D8A-ACF5-5D5A224D7F54}
  0
XRECORD
  5
2B9
102
{ACAD_REACTORS
330
2B6
102
}
330
2B6
100
AcDbXrecord
  1

  0
XRECORD
  5
2BF
102
{ACAD_REACTORS
330
2B6
102
}
330
2B6
100
AcDbXrecord
 90
        0
  0
XRECORD
  5
2BB
102
{ACAD_REACTORS
330
2B6
102
}
330
2B6
100
AcDbXrecord
340
144
  0
XRECORD
  5
2BE
102
{ACAD_REACTORS
330
2B6
102
}
330
2B6
100
AcDbXrecord
 90
    14877
  0
XRECORD
  5
2BC
102
{ACAD_REACTORS
330
2B6
102
}
330
2B6
100
AcDbXrecord
340
145
  0
XRECORD
  5
2BD
102
{ACAD_REACTORS
330
2B6
102
}
330
2B6
100
AcDbXrecord
340
142
  0
XRECORD
  5
2C3
102
{ACAD_REACTORS
330
2B6
102
}
330
2B6
100
AcDbXrecord
 40
0.0
  0
XRECORD
  5
2C6
102
{ACAD_REACTORS
330
2B6
102
}
330
2B6
100
AcDbXrecord
340
0
  0
XRECORD
  5
2CC
102
{ACAD_REACTORS
330
2B6
102
}
330
2B6
100
AcDbXrecord
 10
0.0
 20
0.0
 30
0.0
  0
XRECORD
  5
2C8
102
{ACAD_REACTORS
330
2B6
102
}
330
2B6
100
AcDbXrecord
 10
0.0
 20
0.0
 30
0.0
  0
XRECORD
  5
2CB
102
{ACAD_REACTORS
330
2B6
102
}
330
2B6
100
AcDbXrecord
 10
0.0
 20
0.0
 30
0.0
  0
XRECORD
  5
2C9
102
{ACAD_REACTORS
330
2B6
102
}
330
2B6
100
AcDbXrecord
 10
0.0
 20
0.0
 30
0.0
  0
XRECORD
  5
2CA
102
{ACAD_REACTORS
330
2B6
102
}
330
2B6
100
AcDbXrecord
 10
0.0
 20
0.0
 30
0.0
  0
XRECORD
  5
2C7
102
{ACAD_REACTORS
330
2B6
102
}
330
2B6
100
AcDbXrecord
 10
0.0
 20
0.0
 30
0.0
  0
XRECORD
  5
2C4
102
{ACAD_REACTORS
330
2B6
102
}
330
2B6
100
AcDbXrecord
340
0
  0
XRECORD
  5
2C5
102
{ACAD_REACTORS
330
2B6
102
}
330
2B6
100
AcDbXrecord
 70
     0
  0
XRECORD
  5
2BA
102
{ACAD_REACTORS
330
2B6
102
}
330
2B6
100
AcDbXrecord
  1

  0
XRECORD
  5
2B7
102
{ACAD_REACTORS
330
2B6
102
}
330
2B6
100
AcDbXrecord
 90
        1
  0
XRECORD
  5
2B8
102
{ACAD_REACTORS
330
2B6
102
}
330
2B6
100
AcDbXrecord
 90
       70
  0
XRECORD
  5
2CF
102
{ACAD_REACTORS
330
2B6
102
}
330
2B6
100
AcDbXrecord
340
0
  0
XRECORD
  5
2D5
102
{ACAD_REACTORS
330
2B6
102
}
330
2B6
100
AcDbXrecord
 10
0.0
 20
0.0
 30
0.0
  0
XRECORD
  5
2D1
102
{ACAD_REACTORS
330
2B6
102
}
330
2B6
100
AcDbXrecord
 10
0.0
 20
0.0
 30
0.0
  0
XRECORD
  5
2D4
102
{ACAD_REACTORS
330
2B6
102
}
330
2B6
100
AcDbXrecord
 10
0.0
 20
0.0
 30
0.0
  0
XRECORD
  5
2D2
102
{ACAD_REACTORS
330
2B6
102
}
330
2B6
100
AcDbXrecord
 10
0.0
 20
0.0
 30
0.0
  0
XRECORD
  5
2D3
102
{ACAD_REACTORS
330
2B6
102
}
330
2B6
100
AcDbXrecord
 10
0.0
 20
0.0
 30
0.0
  0
XRECORD
  5
2D0
102
{ACAD_REACTORS
330
2B6
102
}
330
2B6
100
AcDbXrecord
 10
0.0
 20
0.0
 30
0.0
  0
XRECORD
  5
2CD
102
{ACAD_REACTORS
330
2B6
102
}
330
2B6
100
AcDbXrecord
340
0
  0
XRECORD
  5
2CE
102
{ACAD_REACTORS
330
2B6
102
}
330
2B6
100
AcDbXrecord
 70
     0
  0
XRECORD
  5
2C2
102
{ACAD_REACTORS
330
2B6
102
}
330
2B6
100
AcDbXrecord
  1
{249298C7-BD15-4A64-B40C-049F5F198CFB}
  0
DICTIONARYVAR
  5
1B4
102
{ACAD_REACTORS
330
1B3
102
}
330
1B3
100
DictionaryVariables
280
     0
  1
1
  0
ENDSEC
  0
EOF
