  0
SECTION
  2
HEADER
  9
$ACADVER
  1
AC1014
  9
$ACADMAINTVER
 70
     9
  9
$DWGCODEPAGE
  3
ANSI_1252
  9
$INSBASE
 10
0.0
 20
0.0
 30
0.0
  9
$EXTMIN
 10
7.885441823310864
 20
-13.34274351676588
 30
0.0
  9
$EXTMAX
 10
17.573794483611
 20
-9.584971077434818
 30
0.0
  9
$LIMMIN
 10
0.0
 20
0.0
  9
$LIMMAX
 10
0.0
 20
0.0
  9
$ORTHOMODE
 70
     1
  9
$REGENMODE
 70
     1
  9
$FILLMODE
 70
     1
  9
$QTEXTMODE
 70
     0
  9
$MIRRTEXT
 70
     1
  9
$DRAGMODE
 70
     0
  9
$LTSCALE
 40
1.0
  9
$OSMODE
 70
    37
  9
$ATTMODE
 70
     1
  9
$TEXTSIZE
 40
0.0
  9
$TRACEWID
 40
0.05
  9
$TEXTSTYLE
  7
STANDARD
  9
$CLAYER
  8
0
  9
$CELTYPE
  6
CONTINUOUS
  9
$CECOLOR
 62
   256
  9
$CELTSCALE
 40
1.0
  9
$DELOBJ
 70
     1
  9
$DISPSILH
 70
     0
  9
$DIMSCALE
 40
1.0
  9
$DIMASZ
 40
0.18
  9
$DIMEXO
 40
0.0625
  9
$DIMDLI
 40
0.38
  9
$DIMRND
 40
0.0
  9
$DIMDLE
 40
0.0
  9
$DIMEXE
 40
0.18
  9
$DIMTP
 40
0.0
  9
$DIMTM
 40
0.0
  9
$DIMTXT
 40
0.18
  9
$DIMCEN
 40
0.09
  9
$DIMTSZ
 40
0.0
  9
$DIMTOL
 70
     0
  9
$DIMLIM
 70
     0
  9
$DIMTIH
 70
     1
  9
$DIMTOH
 70
     1
  9
$DIMSE1
 70
     0
  9
$DIMSE2
 70
     0
  9
$DIMTAD
 70
     0
  9
$DIMZIN
 70
     0
  9
$DIMBLK
  1

  9
$DIMASO
 70
     1
  9
$DIMSHO
 70
     1
  9
$DIMPOST
  1

  9
$DIMAPOST
  1

  9
$DIMALT
 70
     0
  9
$DIMALTD
 70
     2
  9
$DIMALTF
 40
25.4
  9
$DIMLFAC
 40
1.0
  9
$DIMTOFL
 70
     0
  9
$DIMTVP
 40
0.0
  9
$DIMTIX
 70
     0
  9
$DIMSOXD
 70
     0
  9
$DIMSAH
 70
     0
  9
$DIMBLK1
  1

  9
$DIMBLK2
  1

  9
$DIMSTYLE
  2
STANDARD
  9
$DIMCLRD
 70
     0
  9
$DIMCLRE
 70
     0
  9
$DIMCLRT
 70
     0
  9
$DIMTFAC
 40
1.0
  9
$DIMGAP
 40
0.09
  9
$DIMJUST
 70
     0
  9
$DIMSD1
 70
     0
  9
$DIMSD2
 70
     0
  9
$DIMTOLJ
 70
     1
  9
$DIMTZIN
 70
     0
  9
$DIMALTZ
 70
     0
  9
$DIMALTTZ
 70
     0
  9
$DIMFIT
 70
     3
  9
$DIMUPT
 70
     0
  9
$DIMUNIT
 70
     2
  9
$DIMDEC
 70
     4
  9
$DIMTDEC
 70
     4
  9
$DIMALTU
 70
     2
  9
$DIMALTTD
 70
     2
  9
$DIMTXSTY
  7
STANDARD
  9
$DIMAUNIT
 70
     0
  9
$LUNITS
 70
     2
  9
$LUPREC
 70
     4
  9
$SKETCHINC
 40
0.1
  9
$FILLETRAD
 40
0.0
  9
$AUNITS
 70
     0
  9
$AUPREC
 70
     0
  9
$MENU
  1
acad
  9
$ELEVATION
 40
0.0
  9
$PELEVATION
 40
0.0
  9
$THICKNESS
 40
0.0
  9
$LIMCHECK
 70
     0
  9
$BLIPMODE
 70
     0
  9
$CHAMFERA
 40
0.0
  9
$CHAMFERB
 40
0.0
  9
$CHAMFERC
 40
0.0
  9
$CHAMFERD
 40
0.0
  9
$SKPOLY
 70
     0
  9
$TDCREATE
 40
2444971.791666666
  9
$TDUPDATE
 40
2452297.066706805
  9
$TDINDWG
 40
0.0104282407
  9
$TDUSRTIMER
 40
0.0104282407
  9
$USRTIMER
 70
     1
  9
$ANGBASE
 50
0.0
  9
$ANGDIR
 70
     0
  9
$PDMODE
 70
     0
  9
$PDSIZE
 40
0.0
  9
$PLINEWID
 40
0.0
  9
$COORDS
 70
     2
  9
$SPLFRAME
 70
     0
  9
$SPLINETYPE
 70
     6
  9
$SPLINESEGS
 70
     8
  9
$ATTDIA
 70
     0
  9
$ATTREQ
 70
     1
  9
$HANDLING
 70
 22529
  9
$HANDSEED
  5
2E8
  9
$SURFTAB1
 70
     6
  9
$SURFTAB2
 70
     6
  9
$SURFTYPE
 70
     6
  9
$SURFU
 70
     6
  9
$SURFV
 70
     6
  9
$UCSNAME
  2

  9
$UCSORG
 10
0.0
 20
0.0
 30
0.0
  9
$UCSXDIR
 10
1.0
 20
0.0
 30
0.0
  9
$UCSYDIR
 10
0.0
 20
1.0
 30
0.0
  9
$PUCSNAME
  2

  9
$PUCSORG
 10
0.0
 20
0.0
 30
0.0
  9
$PUCSXDIR
 10
1.0
 20
0.0
 30
0.0
  9
$PUCSYDIR
 10
0.0
 20
1.0
 30
0.0
  9
$USERI1
 70
     0
  9
$USERI2
 70
     0
  9
$USERI3
 70
     0
  9
$USERI4
 70
     0
  9
$USERI5
 70
     0
  9
$USERR1
 40
0.0
  9
$USERR2
 40
0.0
  9
$USERR3
 40
0.0
  9
$USERR4
 40
0.0
  9
$USERR5
 40
0.0
  9
$WORLDVIEW
 70
     1
  9
$SHADEDGE
 70
     3
  9
$SHADEDIF
 70
    70
  9
$TILEMODE
 70
     1
  9
$MAXACTVP
 70
    16
  9
$PINSBASE
 10
0.0
 20
0.0
 30
0.0
  9
$PLIMCHECK
 70
     0
  9
$PEXTMIN
 10
1.000000000000000E+20
 20
1.000000000000000E+20
 30
1.000000000000000E+20
  9
$PEXTMAX
 10
-1.000000000000000E+20
 20
-1.000000000000000E+20
 30
-1.000000000000000E+20
  9
$PLIMMIN
 10
0.0
 20
0.0
  9
$PLIMMAX
 10
12.0
 20
9.0
  9
$UNITMODE
 70
     0
  9
$VISRETAIN
 70
     0
  9
$PLINEGEN
 70
     0
  9
$PSLTSCALE
 70
     0
  9
$TREEDEPTH
 70
  3020
  9
$PICKSTYLE
 70
     1
  9
$CMLSTYLE
  2
STANDARD
  9
$CMLJUST
 70
     0
  9
$CMLSCALE
 40
1.0
  9
$PROXYGRAPHICS
 70
     1
  9
$MEASUREMENT
 70
     0
  0
ENDSEC
  0
SECTION
  2
CLASSES
  0
CLASS
  1
LWPOLYLINE
  2
AcDbPolyline
  3
AutoCAD 2000
 90
        0
280
     0
281
     1
  0
CLASS
  1
IMAGE
  2
AcDbRasterImage
  3
ISM
 90
      127
280
     0
281
     1
  0
CLASS
  1
OLE2FRAME
  2
AcDbOle2Frame
  3
AutoCAD 2000
 90
        0
280
     0
281
     1
  0
CLASS
  1
HATCH
  2
AcDbHatch
  3
AutoCAD 2000
 90
        0
280
     0
281
     1
  0
CLASS
  1
DICTIONARYVAR
  2
AcDbDictionaryVar
  3
AutoCAD 2000
 90
        0
280
     0
281
     0
  0
CLASS
  1
RASTERVARIABLES
  2
AcDbRasterVariables
  3
ISM
 90
        0
280
     0
281
     0
  0
CLASS
  1
IMAGEDEF
  2
AcDbRasterImageDef
  3
ISM
 90
        0
280
     0
281
     0
  0
CLASS
  1
IMAGEDEF_REACTOR
  2
AcDbRasterImageDefReactor
  3
ISM
 90
        1
280
     0
281
     0
  0
CLASS
  1
IDBUFFER
  2
AcDbIdBuffer
  3
AutoCAD 2000
 90
        0
280
     0
281
     0
  0
CLASS
  1
SPATIAL_FILTER
  2
AcDbSpatialFilter
  3
AutoCAD 2000
 90
        0
280
     0
281
     0
  0
CLASS
  1
XRECORD
  2
AcDbXrecord
  3
AutoCAD 2000
 90
        0
280
     0
281
     0
  0
CLASS
  1
SORTENTSTABLE
  2
AcDbSortentsTable
  3
AutoCAD 2000
 90
        0
280
     0
281
     0
  0
CLASS
  1
LAYER_INDEX
  2
AcDbLayerIndex
  3
AutoCAD 2000
 90
        0
280
     0
281
     0
  0
CLASS
  1
SPATIAL_INDEX
  2
AcDbSpatialIndex
  3
AutoCAD 2000
 90
        0
280
     0
281
     0
  0
CLASS
  1
OBJECT_PTR
  2
CAseDLPNTableRecord
  3
ASE-LPNTableRecord
 90
        1
280
     0
281
     0
  0
CLASS
  1
ACDBDICTIONARYWDFLT
  2
AcDbDictionaryWithDefault
  3
AutoCAD 2000
 90
        0
280
     0
281
     0
  0
CLASS
  1
ACDBPLACEHOLDER
  2
AcDbPlaceHolder
  3
AutoCAD 2000
 90
        0
280
     0
281
     0
  0
CLASS
  1
LAYOUT
  2
AcDbLayout
  3
AutoCAD 2000
 90
        0
280
     0
281
     0
  0
CLASS
  1
LONG_TRANSACTION
  2
AcDbLongTransaction
  3
AutoCAD 2000
 90
        0
280
     0
281
     0
  0
CLASS
  1
LWPOLYLINE
  2
AcDbPolyline
  3
AutoCAD 2000
 90
        0
280
     0
281
     1
  0
CLASS
  1
HATCH
  2
AcDbHatch
  3
AutoCAD 2000
 90
        0
280
     0
281
     1
  0
CLASS
  1
XRECORD
  2
AcDbXrecord
  3
AutoCAD 2000
 90
        0
280
     0
281
     0
  0
CLASS
  1
LONG_TRANSACTION
  2
AcDbLongTransaction
  3
AutoCAD 2000
 90
        0
280
     0
281
     0
  0
CLASS
  1
LWPOLYLINE
  2
AcDbPolyline
  3
AutoCAD 2000
 90
        0
280
     0
281
     1
  0
CLASS
  1
HATCH
  2
AcDbHatch
  3
AutoCAD 2000
 90
        0
280
     0
281
     1
  0
CLASS
  1
XRECORD
  2
AcDbXrecord
  3
AutoCAD 2000
 90
        0
280
     0
281
     0
  0
CLASS
  1
LONG_TRANSACTION
  2
AcDbLongTransaction
  3
AutoCAD 2000
 90
        0
280
     0
281
     0
  0
CLASS
  1
LWPOLYLINE
  2
AcDbPolyline
  3
AutoCAD 2000
 90
        0
280
     0
281
     1
  0
CLASS
  1
HATCH
  2
AcDbHatch
  3
AutoCAD 2000
 90
        0
280
     0
281
     1
  0
CLASS
  1
XRECORD
  2
AcDbXrecord
  3
AutoCAD 2000
 90
        0
280
     0
281
     0
  0
CLASS
  1
LONG_TRANSACTION
  2
AcDbLongTransaction
  3
AutoCAD 2000
 90
        0
280
     0
281
     0
  0
CLASS
  1
LWPOLYLINE
  2
AcDbPolyline
  3
AutoCAD 2000
 90
        0
280
     0
281
     1
  0
CLASS
  1
HATCH
  2
AcDbHatch
  3
AutoCAD 2000
 90
        0
280
     0
281
     1
  0
CLASS
  1
XRECORD
  2
AcDbXrecord
  3
AutoCAD 2000
 90
        0
280
     0
281
     0
  0
CLASS
  1
LONG_TRANSACTION
  2
AcDbLongTransaction
  3
AutoCAD 2000
 90
        0
280
     0
281
     0
  0
CLASS
  1
LWPOLYLINE
  2
AcDbPolyline
  3
AutoCAD 2000
 90
        0
280
     0
281
     1
  0
CLASS
  1
HATCH
  2
AcDbHatch
  3
AutoCAD 2000
 90
        0
280
     0
281
     1
  0
CLASS
  1
XRECORD
  2
AcDbXrecord
  3
AutoCAD 2000
 90
        0
280
     0
281
     0
  0
CLASS
  1
LONG_TRANSACTION
  2
AcDbLongTransaction
  3
AutoCAD 2000
 90
        0
280
     0
281
     0
  0
CLASS
  1
LWPOLYLINE
  2
AcDbPolyline
  3
AutoCAD 2000
 90
        0
280
     0
281
     1
  0
CLASS
  1
HATCH
  2
AcDbHatch
  3
AutoCAD 2000
 90
        0
280
     0
281
     1
  0
CLASS
  1
XRECORD
  2
AcDbXrecord
  3
AutoCAD 2000
 90
        0
280
     0
281
     0
  0
ENDSEC
  0
SECTION
  2
TABLES
  0
TABLE
  2
VPORT
  5
7
330
0
100
AcDbSymbolTable
 70
     3
  0
VPORT
  5
2E
330
7
100
AcDbSymbolTableRecord
100
AcDbViewportTableRecord
  2
DCADVPORT
 70
     0
 10
11.42454154279786
 20
-12.79441802116746
 11
14.47280862549182
 21
-9.584971077434818
 12
6.209999999999999
 22
9.019999999999999
 13
0.0
 23
0.0
 14
1.0
 24
1.0
 15
0.0
 25
0.0
 16
0.0
 26
0.0
 36
1.0
 17
0.0
 27
0.0
 37
0.0
 40
18.04
 41
0.688564
 42
50.0
 43
1.0
 44
1.0
 50
0.0
 51
0.0
 71
     0
 72
   100
 73
     1
 74
     1
 75
     0
 76
     0
 77
     0
 78
     0
  0
VPORT
  5
2C5
330
7
100
AcDbSymbolTableRecord
100
AcDbViewportTableRecord
  2
*ACTIVE
 70
     0
 10
0.0
 20
0.0
 11
1.0
 21
1.0
 12
12.72957119501042
 22
-11.46365906235647
 13
0.0
 23
0.0
 14
1.0
 24
1.0
 15
0.0
 25
0.0
 16
0.0
 26
0.0
 36
1.0
 17
0.0
 27
0.0
 37
0.0
 40
6.199463050988501
 41
1.570528967254408
 42
50.0
 43
0.0
 44
0.0
 50
0.0
 51
0.0
 71
     0
 72
   100
 73
     1
 74
     1
 75
     0
 76
     0
 77
     0
 78
     0
  0
ENDTAB
  0
TABLE
  2
LTYPE
  5
4
330
0
100
AcDbSymbolTable
 70
     2
  0
LTYPE
  5
11
330
4
100
AcDbSymbolTableRecord
100
AcDbLinetypeTableRecord
  2
BYBLOCK
 70
     0
  3

 72
    65
 73
     0
 40
0.0
  0
LTYPE
  5
12
330
4
100
AcDbSymbolTableRecord
100
AcDbLinetypeTableRecord
  2
BYLAYER
 70
     0
  3

 72
    65
 73
     0
 40
0.0
  0
LTYPE
  5
13
330
4
100
AcDbSymbolTableRecord
100
AcDbLinetypeTableRecord
  2
CONTINUOUS
 70
     0
  3
Solid line
 72
    65
 73
     0
 40
0.0
  0
LTYPE
  5
1E
330
4
100
AcDbSymbolTableRecord
100
AcDbLinetypeTableRecord
  2
CONTINUOUS
 70
     0
  3
Solid line
 72
    65
 73
     0
 40
0.0
  0
ENDTAB
  0
TABLE
  2
LAYER
  5
2
330
0
100
AcDbSymbolTable
 70
     6
  0
LAYER
  5
14
330
2
100
AcDbSymbolTableRecord
100
AcDbLayerTableRecord
  2
0
 70
     0
 62
     7
  6
CONTINUOUS
  0
LAYER
  5
2A
330
2
100
AcDbSymbolTableRecord
100
AcDbLayerTableRecord
  2
ADP2DETAILX
 70
     0
 62
   250
  6
CONTINUOUS
  0
LAYER
  5
2B
330
2
100
AcDbSymbolTableRecord
100
AcDbLayerTableRecord
  2
ADPDIM1
 70
     0
 62
   250
  6
CONTINUOUS
  0
LAYER
  5
2C
330
2
100
AcDbSymbolTableRecord
100
AcDbLayerTableRecord
  2
ADP1DETAIL
 70
     0
 62
   250
  6
CONTINUOUS
  0
LAYER
  5
2D
330
2
100
AcDbSymbolTableRecord
100
AcDbLayerTableRecord
  2
DEFPOINTS
 70
     0
 62
   250
  6
CONTINUOUS
  0
LAYER
  5
15B
330
2
100
AcDbSymbolTableRecord
100
AcDbLayerTableRecord
  2
ADPDIM
 70
     0
 62
     3
  6
CONTINUOUS
  0
ENDTAB
  0
TABLE
  2
STYLE
  5
3
330
0
100
AcDbSymbolTable
 70
     2
  0
STYLE
  5
17
330
3
100
AcDbSymbolTableRecord
100
AcDbTextStyleTableRecord
  2
STANDARD
 70
     0
 40
0.0
 41
1.0
 50
0.0
 71
     0
 42
0.0
  3
txt
  4

  0
STYLE
  5
15C
330
3
100
AcDbSymbolTableRecord
100
AcDbTextStyleTableRecord
  2
ARIAL_WIDE
 70
     0
 40
0.0
 41
1.25
 50
0.0
 71
     0
 42
0.2
  3
ARIAL.TTF
  4

1001
ACAD
1000
Arial
1071
       34
  0
ENDTAB
  0
TABLE
  2
VIEW
  5
5
330
0
100
AcDbSymbolTable
 70
     0
  0
ENDTAB
  0
TABLE
  2
UCS
  5
6
330
0
100
AcDbSymbolTable
 70
     0
  0
ENDTAB
  0
TABLE
  2
APPID
  5
8
330
0
100
AcDbSymbolTable
 70
     1
  0
APPID
  5
16
330
8
100
AcDbSymbolTableRecord
100
AcDbRegAppTableRecord
  2
ACAD
 70
     0
  0
ENDTAB
  0
TABLE
  2
DIMSTYLE
  5
9
330
0
100
AcDbSymbolTable
 70
     1
  0
DIMSTYLE
105
18
330
9
100
AcDbSymbolTableRecord
100
AcDbDimStyleTableRecord
  2
STANDARD
 70
     0
  3

  4

  5

  6

  7

 40
1.0
 41
0.18
 42
0.0625
 43
0.38
 44
0.18
 45
0.0
 46
0.0
 47
0.0
 48
0.0
140
0.18
141
0.09
142
0.0
143
25.4
144
1.0
145
0.0
146
1.0
147
0.09
 71
     0
 72
     0
 73
     1
 74
     1
 75
     0
 76
     0
 77
     0
 78
     0
170
     0
171
     2
172
     0
173
     0
174
     0
175
     0
176
     0
177
     0
178
     0
270
     2
271
     4
272
     4
273
     2
274
     2
340
17
275
     0
280
     0
281
     0
282
     0
283
     1
284
     0
285
     0
286
     0
287
     0
288
     0
  0
ENDTAB
  0
TABLE
  2
BLOCK_RECORD
  5
1
330
0
100
AcDbSymbolTable
 70
     0
  0
BLOCK_RECORD
  5
A
102
{ACAD_XDICTIONARY
360
1B7
102
}
330
1
100
AcDbSymbolTableRecord
100
AcDbBlockTableRecord
  2
*MODEL_SPACE
  0
BLOCK_RECORD
  5
B
102
{ACAD_XDICTIONARY
360
1B9
102
}
330
1
100
AcDbSymbolTableRecord
100
AcDbBlockTableRecord
  2
*PAPER_SPACE
  0
ENDTAB
  0
ENDSEC
  0
SECTION
  2
BLOCKS
  0
BLOCK
  5
D
330
A
100
AcDbEntity
  8
0
100
AcDbBlockBegin
  2
*MODEL_SPACE
 70
     0
 10
0.0
 20
0.0
 30
0.0
  3
*MODEL_SPACE
  1

  0
ENDBLK
  5
E
330
A
100
AcDbEntity
  8
0
100
AcDbBlockEnd
  0
BLOCK
  5
F
330
B
100
AcDbEntity
 67
     1
  8
0
100
AcDbBlockBegin
  2
*PAPER_SPACE
 70
     0
 10
0.0
 20
0.0
 30
0.0
  3
*PAPER_SPACE
  1

  0
ENDBLK
  5
10
330
B
100
AcDbEntity
 67
     1
  8
0
100
AcDbBlockEnd
  0
ENDSEC
  0
SECTION
  2
ENTITIES
  0
ARC
  5
2F
330
A
100
AcDbEntity
  8
ADP1DETAIL
  6
CONTINUOUS
 62
     7
100
AcDbCircle
 10
-12.40186593748207
 20
-11.90449951615484
 30
0.0
 40
0.1667593440217629
210
0.0
220
0.0
230
-1.0
100
AcDbArc
 50
14.58255288236378
 51
96.33916067107684
  0
ARC
  5
30
330
A
100
AcDbEntity
  8
ADP1DETAIL
  6
CONTINUOUS
 62
     7
100
AcDbCircle
 10
-12.12410114498188
 20
-12.0952600038464
 30
0.0
 40
0.2602201687607563
210
0.0
220
0.0
230
-1.0
100
AcDbArc
 50
116.5659019903229
 51
179.734327343358
  0
ARC
  5
31
330
A
100
AcDbEntity
  8
ADP1DETAIL
  6
CONTINUOUS
 62
     7
100
AcDbCircle
 10
-12.17479044270912
 20
-12.13411039430983
 30
0.0
 40
0.2133227043285835
210
0.0
220
0.0
230
-1.0
100
AcDbArc
 50
169.1769482251377
 51
256.5257698562044
  0
ARC
  5
32
330
A
100
AcDbEntity
  8
ADP1DETAIL
  6
CONTINUOUS
 62
     7
100
AcDbCircle
 10
-12.09578473723937
 20
-12.01534664521096
 30
0.0
 40
0.3506889101355336
210
0.0
220
0.0
230
-1.0
100
AcDbArc
 50
248.4677412781815
 51
273.1260197598595
  0
LWPOLYLINE
  5
33
330
A
100
AcDbEntity
  8
ADP2DETAILX
  6
CONTINUOUS
 62
     5
100
AcDbPolyline
 90
        2
 70
   128
 43
0.0
 10
12.48011815346093
 20
-11.67938631330858
 10
12.48011815346093
 20
-12.66941802116746
  0
LWPOLYLINE
  5
37
330
A
100
AcDbEntity
  8
ADP2DETAILX
  6
CONTINUOUS
 62
     5
100
AcDbPolyline
 90
        2
 70
   128
 43
0.0
 10
12.97911815346093
 20
-11.67938631330858
 10
12.97911815346093
 20
-12.66941802116746
  0
ARC
  5
3B
330
A
100
AcDbEntity
  8
ADP1DETAIL
  6
CONTINUOUS
 62
     7
100
AcDbCircle
 10
-13.06199726074174
 20
-11.90449951615486
 30
0.0
 40
0.166759344021766
210
0.0
220
0.0
230
-1.0
100
AcDbArc
 50
83.66083932892284
 51
165.4174471176342
  0
ARC
  5
3C
330
A
100
AcDbEntity
  8
ADP1DETAIL
  6
CONTINUOUS
 62
     7
100
AcDbCircle
 10
-13.33976205324194
 20
-12.0952600038464
 30
0.0
 40
0.2602201687607604
210
0.0
220
0.0
230
-1.0
100
AcDbArc
 50
0.2656726566415594
 51
63.43409800967641
  0
ARC
  5
3D
330
A
100
AcDbEntity
  8
ADP1DETAIL
  6
CONTINUOUS
 62
     7
100
AcDbCircle
 10
-13.28907275551468
 20
-12.13411039430983
 30
0.0
 40
0.213322704328584
210
0.0
220
0.0
230
-1.0
100
AcDbArc
 50
283.4742301437966
 51
10.82305177486196
  0
ARC
  5
3E
330
A
100
AcDbEntity
  8
ADP1DETAIL
  6
CONTINUOUS
 62
     7
100
AcDbCircle
 10
-13.36807846098442
 20
-12.01534664521096
 30
0.0
 40
0.3506889101355321
210
0.0
220
0.0
230
-1.0
100
AcDbArc
 50
266.8739802401406
 51
291.5322587218188
  0
LWPOLYLINE
  5
3F
330
A
100
AcDbEntity
  8
ADP1DETAIL
  6
CONTINUOUS
 62
     7
100
AcDbPolyline
 90
        2
 70
   128
 43
0.0
 10
11.42454154279786
 20
-12.66941802116746
 10
14.02513233958117
 20
-12.66941802116746
  0
LWPOLYLINE
  5
43
330
A
100
AcDbEntity
  8
ADP1DETAIL
  6
CONTINUOUS
 62
     7
100
AcDbPolyline
 90
        2
 70
   128
 43
0.0
 10
13.38525451709729
 20
-12.66941802116746
 10
12.07398178982457
 20
-12.66941802116746
  0
LWPOLYLINE
  5
47
330
A
100
AcDbEntity
  8
ADP1DETAIL
  6
CONTINUOUS
 62
     7
100
AcDbPolyline
 90
        2
 70
   128
 43
0.0
 10
12.07398178982457
 20
-12.36396347571292
 10
13.38525451709729
 20
-12.36396347571292
  0
LWPOLYLINE
  5
4B
330
A
100
AcDbEntity
  8
ADP1DETAIL
  6
CONTINUOUS
 62
     7
100
AcDbPolyline
 90
        2
 70
   128
 43
0.0
 10
12.07398178982457
 20
-12.54723620298564
 10
11.42454154279786
 20
-12.54723620298564
  0
LWPOLYLINE
  5
4F
330
A
100
AcDbEntity
  8
ADP2DETAILX
  6
CONTINUOUS
 62
     5
100
AcDbPolyline
 90
        2
 70
   128
 43
0.0
 10
11.63426282737683
 20
-12.54617128515702
 10
11.71544675534785
 20
-12.66628297380686
  0
LWPOLYLINE
  5
53
330
A
100
AcDbEntity
  8
ADP1DETAIL
  6
CONTINUOUS
 62
     7
100
AcDbPolyline
 90
        2
 70
   128
 43
0.0
 10
11.42454154279786
 20
-12.54723620298564
 10
11.42454154279786
 20
-12.66941802116746
  0
LWPOLYLINE
  5
57
330
A
100
AcDbEntity
  8
ADP2DETAILX
  6
CONTINUOUS
 62
     5
100
AcDbPolyline
 90
        2
 70
   128
 43
0.0
 10
11.98738757717243
 20
-12.54617128515702
 10
11.90620364920141
 20
-12.66628297380686
  0
LWPOLYLINE
  5
5B
330
A
100
AcDbEntity
  8
ADP1DETAIL
  6
CONTINUOUS
 62
     7
100
AcDbPolyline
 90
        2
 70
   128
 43
0.0
 10
12.07398178982457
 20
-12.66941802116746
 10
12.07398178982457
 20
-12.36396347571292
  0
LWPOLYLINE
  5
5F
330
A
100
AcDbEntity
  8
ADP1DETAIL
  6
CONTINUOUS
 62
     7
100
AcDbPolyline
 90
        2
 70
   128
 43
0.0
 10
14.02513233958117
 20
-12.54723620298564
 10
13.38525451709729
 20
-12.54723620298564
  0
LWPOLYLINE
  5
63
330
A
100
AcDbEntity
  8
ADP2DETAILX
  6
CONTINUOUS
 62
     5
100
AcDbPolyline
 90
        2
 70
   128
 43
0.0
 10
13.80106988518814
 20
-12.54617128515702
 10
13.71988595721712
 20
-12.66628297380686
  0
LWPOLYLINE
  5
67
330
A
100
AcDbEntity
  8
ADP1DETAIL
  6
CONTINUOUS
 62
     7
100
AcDbPolyline
 90
        2
 70
   128
 43
0.0
 10
13.38525451709729
 20
-12.36396347571292
 10
13.38525451709729
 20
-12.66941802116746
  0
LWPOLYLINE
  5
6B
330
A
100
AcDbEntity
  8
ADP2DETAILX
  6
CONTINUOUS
 62
     5
100
AcDbPolyline
 90
        2
 70
   128
 43
0.0
 10
13.44794513539254
 20
-12.54617128515702
 10
13.52912906336356
 20
-12.66628297380686
  0
LWPOLYLINE
  5
6F
330
A
100
AcDbEntity
  8
ADP1DETAIL
  6
CONTINUOUS
 62
     7
100
AcDbPolyline
 90
        2
 70
   128
 43
0.0
 10
14.02513233958117
 20
-12.66941802116746
 10
14.02513233958117
 20
-12.66941802116746
  0
LWPOLYLINE
  5
73
330
A
100
AcDbEntity
  8
ADP1DETAIL
  6
CONTINUOUS
 62
     7
100
AcDbPolyline
 90
        2
 70
   128
 43
0.0
 10
14.02513233958117
 20
-12.66941802116746
 10
14.02513233958117
 20
-12.54723620298564
  0
CIRCLE
  5
77
330
A
100
AcDbEntity
  8
ADP1DETAIL
  6
CONTINUOUS
 62
     7
100
AcDbCircle
 10
-12.73179997164275
 20
-10.59980851820041
 30
0.0
 40
0.4894966953429272
210
0.0
220
0.0
230
-1.0
  0
LWPOLYLINE
  5
78
330
A
100
AcDbEntity
  8
ADP1DETAIL
  6
CONTINUOUS
 62
     7
100
AcDbPolyline
 90
        2
 70
   128
 43
0.0
 10
12.07709987745759
 20
-9.948732976858188
 10
13.38213642946426
 20
-9.948732976858188
  0
LWPOLYLINE
  5
7C
330
A
100
AcDbEntity
  8
ADP1DETAIL
  6
CONTINUOUS
 62
     7
100
AcDbPolyline
 90
        2
 70
   128
 43
0.0
 10
13.38213642946426
 20
-11.25376952886485
 10
12.07709987745759
 20
-11.25376952886485
  0
LWPOLYLINE
  5
80
330
A
100
AcDbEntity
  8
ADP1DETAIL
  6
CONTINUOUS
 62
     7
100
AcDbPolyline
 90
        2
 70
   128
 43
0.0
 10
13.21943633527911
 20
-11.86432711207655
 10
12.24852724437002
 20
-11.86432711207655
  0
CIRCLE
  5
84
330
A
100
AcDbEntity
  8
ADP1DETAIL
  6
CONTINUOUS
 62
     7
100
AcDbCircle
 10
-11.83334987745759
 20
-10.60125125286152
 30
0.0
 40
0.0939999999999994
210
0.0
220
0.0
230
-1.0
  0
LWPOLYLINE
  5
85
330
A
100
AcDbEntity
  8
ADP1DETAIL
  6
CONTINUOUS
 62
     7
100
AcDbPolyline
 90
        2
 70
   128
 43
0.0
 10
12.07709987745759
 20
-9.95058395756669
 10
12.07709987745759
 20
-11.25562050957336
  0
CIRCLE
  5
89
330
A
100
AcDbEntity
  8
ADP1DETAIL
  6
CONTINUOUS
 62
     7
100
AcDbCircle
 10
-11.83334987745759
 20
-10.60125125286152
 30
0.0
 40
0.1750000000000007
210
0.0
220
0.0
230
-1.0
  0
ARC
  5
8A
330
A
100
AcDbEntity
  8
ADP1DETAIL
  6
CONTINUOUS
 62
     7
100
AcDbCircle
 10
-11.83334987745759
 20
-10.60125125286152
 30
0.0
 40
0.4062500000000008
210
0.0
220
0.0
230
-1.0
100
AcDbArc
 50
270.5456823399797
 51
89.454317660021
  0
ARC
  5
8B
330
A
100
AcDbEntity
  8
ADP1DETAIL
  6
CONTINUOUS
 62
     7
100
AcDbCircle
 10
-11.82709987745759
 20
-11.25747149028186
 30
0.0
 40
0.25
210
0.0
220
0.0
230
-1.0
100
AcDbArc
 50
90.54568233997873
 51
180.0
  0
LWPOLYLINE
  5
8C
330
A
100
AcDbEntity
  8
ADP1DETAIL
  6
CONTINUOUS
 62
     7
100
AcDbPolyline
 90
        2
 70
   128
 43
0.0
 10
12.07709987745759
 20
-11.25747149028186
 10
12.07709987745759
 20
-11.25376952886485
  0
LWPOLYLINE
  5
90
330
A
100
AcDbEntity
  8
ADP1DETAIL
  6
CONTINUOUS
 62
     7
100
AcDbPolyline
 90
        2
 70
   128
 43
0.0
 10
12.07709987745759
 20
-11.25810858118744
 10
12.07709987745759
 20
-11.25376952886485
  0
ARC
  5
94
330
A
100
AcDbEntity
  8
ADP1DETAIL
  6
CONTINUOUS
 62
     7
100
AcDbCircle
 10
-11.82709987745759
 20
-9.945031015441188
 30
0.0
 40
0.25
210
0.0
220
0.0
230
-1.0
100
AcDbArc
 50
180.0
 51
269.454317660022
  0
LWPOLYLINE
  5
95
330
A
100
AcDbEntity
  8
ADP1DETAIL
  6
CONTINUOUS
 62
     7
100
AcDbPolyline
 90
        2
 70
   128
 43
0.0
 10
12.07709987745759
 20
-10.59691220053893
 10
12.07709987745759
 20
-10.60125125286152
  0
LWPOLYLINE
  5
99
330
A
100
AcDbEntity
  8
ADP1DETAIL
  6
CONTINUOUS
 62
     7
100
AcDbPolyline
 90
        2
 70
   128
 43
0.0
 10
12.07709987745759
 20
-10.60125125286152
 10
12.07709987745759
 20
-10.59754929144452
  0
CIRCLE
  5
9D
330
A
100
AcDbEntity
  8
ADP1DETAIL
  6
CONTINUOUS
 62
     7
100
AcDbCircle
 10
-13.62588642946426
 20
-10.60125125286152
 30
0.0
 40
0.1750000000000007
210
0.0
220
0.0
230
-1.0
  0
ARC
  5
9E
330
A
100
AcDbEntity
  8
ADP1DETAIL
  6
CONTINUOUS
 62
     7
100
AcDbCircle
 10
-13.62588642946426
 20
-10.60125125286152
 30
0.0
 40
0.4062500000000008
210
0.0
220
0.0
230
-1.0
100
AcDbArc
 50
90.54568233997901
 51
269.4543176600218
  0
CIRCLE
  5
9F
330
A
100
AcDbEntity
  8
ADP1DETAIL
  6
CONTINUOUS
 62
     7
100
AcDbCircle
 10
-12.73179997164275
 20
-10.59980851820041
 30
0.0
 40
0.2516823425251839
210
0.0
220
0.0
230
-1.0
  0
CIRCLE
  5
A0
330
A
100
AcDbEntity
  8
ADP1DETAIL
  6
CONTINUOUS
 62
     7
100
AcDbCircle
 10
-12.73179997164275
 20
-10.59980851820041
 30
0.0
 40
0.3109090909090906
210
0.0
220
0.0
230
-1.0
  0
CIRCLE
  5
A1
330
A
100
AcDbEntity
  8
ADP1DETAIL
  6
CONTINUOUS
 62
     7
100
AcDbCircle
 10
-13.62588642946426
 20
-10.60125125286152
 30
0.0
 40
0.0939999999999994
210
0.0
220
0.0
230
-1.0
  0
LWPOLYLINE
  5
A2
330
A
100
AcDbEntity
  8
ADP1DETAIL
  6
CONTINUOUS
 62
     7
100
AcDbPolyline
 90
        2
 70
   128
 43
0.0
 10
13.38213642946426
 20
-9.948732976858188
 10
13.38213642946426
 20
-11.25376952886485
  0
LWPOLYLINE
  5
A6
330
A
100
AcDbEntity
  8
ADP1DETAIL
  6
CONTINUOUS
 62
     7
100
AcDbPolyline
 90
        2
 70
   128
 43
0.0
 10
13.04270906255184
 20
-11.73996347571292
 10
12.42089088073366
 20
-11.73996347571292
  0
LWPOLYLINE
  5
AA
330
A
100
AcDbEntity
  8
ADP1DETAIL
  6
CONTINUOUS
 62
     7
100
AcDbPolyline
 90
        2
 70
   128
 43
0.0
 10
13.04270906255184
 20
-11.67887256662201
 10
12.42089088073366
 20
-11.67887256662201
  0
LWPOLYLINE
  5
AE
330
A
100
AcDbEntity
  8
ADP1DETAIL
  6
CONTINUOUS
 62
     7
100
AcDbPolyline
 90
        2
 70
   128
 43
0.0
 10
12.42089088073366
 20
-11.73996347571292
 10
13.04270906255184
 20
-11.73996347571292
  0
LWPOLYLINE
  5
B2
330
A
100
AcDbEntity
  8
ADP1DETAIL
  6
CONTINUOUS
 62
     7
100
AcDbPolyline
 90
        2
 70
   128
 43
0.0
 10
12.42089088073366
 20
-11.67887256662201
 10
12.42089088073366
 20
-11.73996347571292
  0
LWPOLYLINE
  5
B6
330
A
100
AcDbEntity
  8
ADP1DETAIL
  6
CONTINUOUS
 62
     7
100
AcDbPolyline
 90
        2
 70
   128
 43
0.0
 10
13.04270906255184
 20
-11.73996347571292
 10
13.04270906255184
 20
-11.67887256662201
  0
ARC
  5
BA
330
A
100
AcDbEntity
  8
ADP1DETAIL
  6
CONTINUOUS
 62
     7
100
AcDbCircle
 10
-13.63213642946426
 20
-11.25747149028186
 30
0.0
 40
0.25
210
0.0
220
0.0
230
-1.0
100
AcDbArc
 50
0.0
 51
89.45431766002128
  0
ARC
  5
BB
330
A
100
AcDbEntity
  8
ADP1DETAIL
  6
CONTINUOUS
 62
     7
100
AcDbCircle
 10
-13.63213642946426
 20
-9.945031015441188
 30
0.0
 40
0.25
210
0.0
220
0.0
230
-1.0
100
AcDbArc
 50
270.5456823399795
 51
360.0000000000008
  0
LWPOLYLINE
  5
BC
330
A
100
AcDbEntity
  8
ADPDIM1
  6
CONTINUOUS
 62
     3
 48
0.125
100
AcDbPolyline
 90
        2
 70
   128
 43
0.0
 10
14.07668797190615
 20
-12.66941802116746
 10
14.47280862549182
 20
-12.66941802116746
  0
LWPOLYLINE
  5
C0
330
A
100
AcDbEntity
  8
ADPDIM1
  6
CONTINUOUS
 62
     3
 48
0.125
100
AcDbPolyline
 90
        2
 70
   128
 43
0.0
 10
13.07951921783136
 20
-11.67887256662201
 10
14.47280862549182
 20
-11.67887256662201
  0
LWPOLYLINE
  5
C4
330
A
100
AcDbEntity
  8
ADPDIM1
  6
CONTINUOUS
 62
     3
 48
0.125
100
AcDbPolyline
 90
        2
 70
   128
 43
0.0
 10
14.29280862549182
 20
-12.66941802116746
 10
14.29280862549182
 20
-12.31997862722807
  0
LWPOLYLINE
  5
C8
330
A
100
AcDbEntity
  8
ADPDIM1
  6
CONTINUOUS
 62
     3
 48
0.125
100
AcDbPolyline
 90
        2
 70
   128
 43
0.0
 10
14.29280862549182
 20
-11.67887256662201
 10
14.29280862549182
 20
-12.0283119605614
  0
LWPOLYLINE
  5
CC
330
A
100
AcDbEntity
  8
ADPDIM1
  6
CONTINUOUS
 62
     3
 48
0.125
100
AcDbPolyline
 90
        2
 70
   128
 43
0.0
 10
14.41780862549182
 20
-12.79441802116746
 10
14.16780862549182
 20
-12.54441802116746
  0
LWPOLYLINE
  5
D0
330
A
100
AcDbEntity
  8
ADPDIM1
  6
CONTINUOUS
 62
     3
 48
0.125
100
AcDbPolyline
 90
        2
 70
   128
 43
0.0
 10
14.41780862549182
 20
-11.80387256662201
 10
14.16780862549182
 20
-11.55387256662201
  0
TEXT
  5
D4
330
A
100
AcDbEntity
  8
ADPDIM1
 62
     3
 48
0.0
100
AcDbText
 10
14.35530862549182
 20
-12.19497862722807
 30
0.0
 40
0.125
  1
1
 50
90.0
 72
     5
 11
14.35530862549182
 21
-12.1533119605614
 31
0.0
100
AcDbText
  0
LWPOLYLINE
  5
D5
330
A
100
AcDbEntity
  8
ADPDIM1
  6
CONTINUOUS
 62
     3
 48
0.125
100
AcDbPolyline
 90
        2
 70
   128
 43
0.0
 10
12.07709987745759
 20
-9.882531015441188
 10
12.07709987745759
 20
-9.584971077434818
  0
LWPOLYLINE
  5
D9
330
A
100
AcDbEntity
  8
ADPDIM1
  6
CONTINUOUS
 62
     3
 48
0.125
100
AcDbPolyline
 90
        2
 70
   128
 43
0.0
 10
13.36896111256761
 20
-9.886232976858188
 10
13.36896111256761
 20
-9.584971077434818
  0
LWPOLYLINE
  5
DD
330
A
100
AcDbEntity
  8
ADPDIM1
  6
CONTINUOUS
 62
     3
 48
0.125
100
AcDbPolyline
 90
        2
 70
   128
 43
0.0
 10
12.07709987745759
 20
-9.764971077434818
 10
11.82709987745759
 20
-9.764971077434818
  0
LWPOLYLINE
  5
E1
330
A
100
AcDbEntity
  8
ADPDIM1
  6
CONTINUOUS
 62
     3
 48
0.125
100
AcDbPolyline
 90
        2
 70
   128
 43
0.0
 10
13.36896111256761
 20
-9.764971077434818
 10
13.61896111256761
 20
-9.764971077434818
  0
LWPOLYLINE
  5
E5
330
A
100
AcDbEntity
  8
ADPDIM1
  6
CONTINUOUS
 62
     3
 48
0.125
100
AcDbPolyline
 90
        2
 70
   128
 43
0.0
 10
11.95209987745759
 20
-9.889971077434818
 10
12.20209987745759
 20
-9.639971077434818
  0
LWPOLYLINE
  5
E9
330
A
100
AcDbEntity
  8
ADPDIM1
  6
CONTINUOUS
 62
     3
 48
0.125
100
AcDbPolyline
 90
        2
 70
   128
 43
0.0
 10
13.24396111256761
 20
-9.889971077434818
 10
13.49396111256761
 20
-9.639971077434818
  0
TEXT
  5
ED
330
A
100
AcDbEntity
  8
ADPDIM1
 62
     3
 48
0.0
100
AcDbText
 10
13.74396111256761
 20
-9.827471077434818
 30
0.0
 40
0.125
  1
1 5/16
 72
     5
 11
14.36896111256761
 21
-9.827471077434818
 31
0.0
100
AcDbText
  0
LWPOLYLINE
  5
EE
330
A
100
AcDbEntity
  8
ADPDIM1
  6
CONTINUOUS
 62
     3
 48
0.125
100
AcDbPolyline
 90
        2
 70
   128
 43
0.0
 10
12.48011815346093
 20
-11.63646081111247
 10
12.48011815346093
 20
-11.34402084530202
  0
LWPOLYLINE
  5
F2
330
A
100
AcDbEntity
  8
ADPDIM1
  6
CONTINUOUS
 62
     3
 48
0.125
100
AcDbPolyline
 90
        2
 70
   128
 43
0.0
 10
12.97911815346093
 20
-11.63646081111247
 10
12.97911815346093
 20
-11.34402084530202
  0
LWPOLYLINE
  5
F6
330
A
100
AcDbEntity
  8
ADPDIM1
  6
CONTINUOUS
 62
     3
 48
0.125
100
AcDbPolyline
 90
        2
 70
   128
 43
0.0
 10
12.48011815346093
 20
-11.52402084530202
 10
12.23011815346093
 20
-11.52402084530202
  0
LWPOLYLINE
  5
FA
330
A
100
AcDbEntity
  8
ADPDIM1
  6
CONTINUOUS
 62
     3
 48
0.125
100
AcDbPolyline
 90
        2
 70
   128
 43
0.0
 10
12.97911815346093
 20
-11.52402084530202
 10
13.22911815346093
 20
-11.52402084530202
  0
LWPOLYLINE
  5
FE
330
A
100
AcDbEntity
  8
ADPDIM1
  6
CONTINUOUS
 62
     3
 48
0.125
100
AcDbPolyline
 90
        2
 70
   128
 43
0.0
 10
12.35511815346093
 20
-11.64902084530202
 10
12.60511815346093
 20
-11.39902084530203
  0
LWPOLYLINE
  5
102
330
A
100
AcDbEntity
  8
ADPDIM1
  6
CONTINUOUS
 62
     3
 48
0.125
100
AcDbPolyline
 90
        2
 70
   128
 43
0.0
 10
12.85411815346093
 20
-11.64902084530202
 10
13.10411815346093
 20
-11.39902084530203
  0
TEXT
  5
106
330
A
100
AcDbEntity
  8
ADPDIM1
 62
     3
 48
0.0
100
AcDbText
 10
13.35411815346093
 20
-11.58652084530203
 30
0.0
 40
0.125
  1
1/2
 72
     5
 11
13.6457848201276
 21
-11.58652084530203
 31
0.0
100
AcDbText
  0
LWPOLYLINE
  5
107
330
A
100
AcDbEntity
  8
DEFPOINTS
  6
CONTINUOUS
 62
     3
 48
0.125
100
AcDbPolyline
 90
        2
 70
   128
 43
0.0
 10
14.01418797190615
 20
-12.66941802116746
 10
14.01418797190615
 20
-12.66941802116746
  0
LWPOLYLINE
  5
10B
330
A
100
AcDbEntity
  8
DEFPOINTS
  6
CONTINUOUS
 62
     3
 48
0.125
100
AcDbPolyline
 90
        2
 70
   128
 43
0.0
 10
14.01418797190615
 20
-12.66941802116746
 10
14.01418797190615
 20
-12.66941802116746
  0
LWPOLYLINE
  5
10F
330
A
100
AcDbEntity
  8
DEFPOINTS
  6
CONTINUOUS
 62
     3
 48
0.125
100
AcDbPolyline
 90
        2
 70
   128
 43
0.0
 10
13.01701921783136
 20
-11.678872566622
 10
13.01701921783136
 20
-11.678872566622
  0
LWPOLYLINE
  5
113
330
A
100
AcDbEntity
  8
DEFPOINTS
  6
CONTINUOUS
 62
     3
 48
0.125
100
AcDbPolyline
 90
        2
 70
   128
 43
0.0
 10
13.01701921783136
 20
-11.678872566622
 10
13.01701921783136
 20
-11.678872566622
  0
LWPOLYLINE
  5
117
330
A
100
AcDbEntity
  8
DEFPOINTS
  6
CONTINUOUS
 62
     3
 48
0.125
100
AcDbPolyline
 90
        2
 70
   128
 43
0.0
 10
14.29280862549182
 20
-11.678872566622
 10
14.29280862549182
 20
-11.678872566622
  0
LWPOLYLINE
  5
11B
330
A
100
AcDbEntity
  8
DEFPOINTS
  6
CONTINUOUS
 62
     3
 48
0.125
100
AcDbPolyline
 90
        2
 70
   128
 43
0.0
 10
14.29280862549182
 20
-11.678872566622
 10
14.29280862549182
 20
-11.678872566622
  0
LWPOLYLINE
  5
11F
330
A
100
AcDbEntity
  8
DEFPOINTS
  6
CONTINUOUS
 62
     3
 48
0.125
100
AcDbPolyline
 90
        2
 70
   128
 43
0.0
 10
12.07709987745759
 20
-9.945031015441188
 10
12.07709987745759
 20
-9.945031015441188
  0
LWPOLYLINE
  5
123
330
A
100
AcDbEntity
  8
DEFPOINTS
  6
CONTINUOUS
 62
     3
 48
0.125
100
AcDbPolyline
 90
        2
 70
   128
 43
0.0
 10
12.07709987745759
 20
-9.945031015441188
 10
12.07709987745759
 20
-9.945031015441188
  0
LWPOLYLINE
  5
127
330
A
100
AcDbEntity
  8
DEFPOINTS
  6
CONTINUOUS
 62
     3
 48
0.125
100
AcDbPolyline
 90
        2
 70
   128
 43
0.0
 10
13.36896111256761
 20
-9.948732976858188
 10
13.36896111256761
 20
-9.948732976858188
  0
LWPOLYLINE
  5
12B
330
A
100
AcDbEntity
  8
DEFPOINTS
  6
CONTINUOUS
 62
     3
 48
0.125
100
AcDbPolyline
 90
        2
 70
   128
 43
0.0
 10
13.36896111256761
 20
-9.948732976858188
 10
13.36896111256761
 20
-9.948732976858188
  0
LWPOLYLINE
  5
12F
330
A
100
AcDbEntity
  8
DEFPOINTS
  6
CONTINUOUS
 62
     3
 48
0.125
100
AcDbPolyline
 90
        2
 70
   128
 43
0.0
 10
13.36896111256761
 20
-9.764971077434818
 10
13.36896111256761
 20
-9.764971077434818
  0
LWPOLYLINE
  5
133
330
A
100
AcDbEntity
  8
DEFPOINTS
  6
CONTINUOUS
 62
     3
 48
0.125
100
AcDbPolyline
 90
        2
 70
   128
 43
0.0
 10
13.36896111256761
 20
-9.764971077434818
 10
13.36896111256761
 20
-9.764971077434818
  0
LWPOLYLINE
  5
137
330
A
100
AcDbEntity
  8
DEFPOINTS
  6
CONTINUOUS
 62
     3
 48
0.125
100
AcDbPolyline
 90
        2
 70
   128
 43
0.0
 10
12.48011815346093
 20
-11.69896081111247
 10
12.48011815346093
 20
-11.69896081111247
  0
LWPOLYLINE
  5
13B
330
A
100
AcDbEntity
  8
DEFPOINTS
  6
CONTINUOUS
 62
     3
 48
0.125
100
AcDbPolyline
 90
        2
 70
   128
 43
0.0
 10
12.48011815346093
 20
-11.69896081111247
 10
12.48011815346093
 20
-11.69896081111247
  0
LWPOLYLINE
  5
13F
330
A
100
AcDbEntity
  8
DEFPOINTS
  6
CONTINUOUS
 62
     3
 48
0.125
100
AcDbPolyline
 90
        2
 70
   128
 43
0.0
 10
12.97911815346093
 20
-11.69896081111247
 10
12.97911815346093
 20
-11.69896081111247
  0
LWPOLYLINE
  5
143
330
A
100
AcDbEntity
  8
DEFPOINTS
  6
CONTINUOUS
 62
     3
 48
0.125
100
AcDbPolyline
 90
        2
 70
   128
 43
0.0
 10
12.97911815346093
 20
-11.69896081111247
 10
12.97911815346093
 20
-11.69896081111247
  0
LWPOLYLINE
  5
147
330
A
100
AcDbEntity
  8
DEFPOINTS
  6
CONTINUOUS
 62
     3
 48
0.125
100
AcDbPolyline
 90
        2
 70
   128
 43
0.0
 10
12.97911815346093
 20
-11.52402084530202
 10
12.97911815346093
 20
-11.52402084530202
  0
LWPOLYLINE
  5
14B
330
A
100
AcDbEntity
  8
DEFPOINTS
  6
CONTINUOUS
 62
     3
 48
0.125
100
AcDbPolyline
 90
        2
 70
   128
 43
0.0
 10
12.97911815346093
 20
-11.52402084530202
 10
12.97911815346093
 20
-11.52402084530202
  0
TEXT
  5
1FC
330
A
100
AcDbEntity
  8
ADPDIM
100
AcDbText
 10
7.885441823310864
 20
-13.31498942399643
 30
0.0
 40
0.09375
  1
J U L I U S  B L U M  &  C O . ,  I N C .      ( 8 0 0 )  5 2 6 - 6 2 9 3        W W W . J U L I U S B L U M . C O M        P A R T  N O .  2 7 6
 41
1.25
  7
ARIAL_WIDE
 72
     1
 11
12.72961815346093
 21
-13.22123942399644
 31
0.0
100
AcDbText
 73
     3
  0
ENDSEC
  0
SECTION
  2
OBJECTS
  0
DICTIONARY
  5
19
330
0
100
AcDbDictionary
  3
ACAD_GROUP
350
1A
  3
ACAD_LAYOUT
350
154
  3
ACAD_MLINESTYLE
350
1B
  3
ACAD_PLOTSETTINGS
350
155
  3
ACAD_PLOTSTYLENAME
350
152
  3
ACDBHEADERROUNDTRIPXREC
350
2C6
  3
ACDBVARIABLEDICTIONARY
350
1C3
  0
DICTIONARY
  5
1B7
330
A
100
AcDbDictionary
280
     1
  3
ACAD_LAYOUTSELFREF
360
2E6
  0
DICTIONARY
  5
1B9
330
B
100
AcDbDictionary
280
     1
  3
ACAD_LAYOUTSELFREF
360
2E7
  0
DICTIONARY
  5
1A
102
{ACAD_REACTORS
330
19
102
}
330
19
100
AcDbDictionary
  0
DICTIONARY
  5
154
102
{ACAD_REACTORS
330
19
102
}
330
19
100
AcDbDictionary
  0
DICTIONARY
  5
1B
102
{ACAD_REACTORS
330
19
102
}
330
19
100
AcDbDictionary
  3
STANDARD
350
1C
  0
DICTIONARY
  5
155
102
{ACAD_REACTORS
330
19
102
}
330
19
100
AcDbDictionary
  0
ACDBDICTIONARYWDFLT
  5
152
102
{ACAD_REACTORS
330
19
102
}
330
19
100
AcDbDictionary
281
     1
  3
Normal
350
153
100
AcDbDictionaryWithDefault
340
153
  0
DICTIONARY
  5
2C6
102
{ACAD_REACTORS
330
19
102
}
330
19
100
AcDbDictionary
  3
CEPSNTYPE
350
2D0
  3
FINGERPRINTGUID
350
2D1
  3
HYPERLINKBASE
350
2C9
  3
INSUNITS
350
2CF
  3
LAYOUTDICT
350
2CB
  3
LWETCUNION
350
2CE
  3
PLOTSETDICT
350
2CC
  3
PLOTSTYLNAMDICT
350
2CD
  3
PSVPSCALE
350
2D3
  3
PUCSBASE
350
2D6
  3
PUCSORGBACK
350
2DC
  3
PUCSORGBOTTOM
350
2D8
  3
PUCSORGFRONT
350
2DB
  3
PUCSORGLEFT
350
2D9
  3
PUCSORGRIGHT
350
2DA
  3
PUCSORGTOP
350
2D7
  3
PUCSORTHOREF
350
2D4
  3
PUCSORTHOVIEW
350
2D5
  3
STYLESHEET
350
2CA
  3
TSTACKALIGN
350
2C7
  3
TSTACKSIZE
350
2C8
  3
UCSBASE
350
2DF
  3
UCSORGBACK
350
2E5
  3
UCSORGBOTTOM
350
2E1
  3
UCSORGFRONT
350
2E4
  3
UCSORGLEFT
350
2E2
  3
UCSORGRIGHT
350
2E3
  3
UCSORGTOP
350
2E0
  3
UCSORTHOREF
350
2DD
  3
UCSORTHOVIEW
350
2DE
  3
VERSIONGUID
350
2D2
  0
DICTIONARY
  5
1C3
102
{ACAD_REACTORS
330
19
102
}
330
19
100
AcDbDictionary
  3
DIMASSOC
350
1C4
  0
XRECORD
  5
2E6
102
{ACAD_REACTORS
330
1B7
102
}
330
1B7
100
AcDbXrecord
340
A
  0
XRECORD
  5
2E7
102
{ACAD_REACTORS
330
1B9
102
}
330
1B9
100
AcDbXrecord
340
B
  0
MLINESTYLE
  5
1C
102
{ACAD_REACTORS
330
1B
102
}
330
1B
100
AcDbMlineStyle
  2
STANDARD
 70
     0
  3

 62
     0
 51
90.00000000000019
 52
90.00000000000019
 71
     2
 49
0.5
 62
   256
  6
BYLAYER
 49
-0.5
 62
   256
  6
BYLAYER
  0
ACDBPLACEHOLDER
  5
153
102
{ACAD_REACTORS
330
152
102
}
330
152
100
AcDbPlaceHolder
280
     0
  0
XRECORD
  5
2D0
102
{ACAD_REACTORS
330
2C6
102
}
330
2C6
100
AcDbXrecord
 90
        0
  0
XRECORD
  5
2D1
102
{ACAD_REACTORS
330
2C6
102
}
330
2C6
100
AcDbXrecord
  1
{06C7E7F3-5BF5-48B4-A249-684AACCF405C}
  0
XRECORD
  5
2C9
102
{ACAD_REACTORS
330
2C6
102
}
330
2C6
100
AcDbXrecord
  1

  0
XRECORD
  5
2CF
102
{ACAD_REACTORS
330
2C6
102
}
330
2C6
100
AcDbXrecord
 90
        0
  0
XRECORD
  5
2CB
102
{ACAD_REACTORS
330
2C6
102
}
330
2C6
100
AcDbXrecord
340
154
  0
XRECORD
  5
2CE
102
{ACAD_REACTORS
330
2C6
102
}
330
2C6
100
AcDbXrecord
 90
    14877
  0
XRECORD
  5
2CC
102
{ACAD_REACTORS
330
2C6
102
}
330
2C6
100
AcDbXrecord
340
155
  0
XRECORD
  5
2CD
102
{ACAD_REACTORS
330
2C6
102
}
330
2C6
100
AcDbXrecord
340
152
  0
XRECORD
  5
2D3
102
{ACAD_REACTORS
330
2C6
102
}
330
2C6
100
AcDbXrecord
 40
0.0
  0
XRECORD
  5
2D6
102
{ACAD_REACTORS
330
2C6
102
}
330
2C6
100
AcDbXrecord
340
0
  0
XRECORD
  5
2DC
102
{ACAD_REACTORS
330
2C6
102
}
330
2C6
100
AcDbXrecord
 10
0.0
 20
0.0
 30
0.0
  0
XRECORD
  5
2D8
102
{ACAD_REACTORS
330
2C6
102
}
330
2C6
100
AcDbXrecord
 10
0.0
 20
0.0
 30
0.0
  0
XRECORD
  5
2DB
102
{ACAD_REACTORS
330
2C6
102
}
330
2C6
100
AcDbXrecord
 10
0.0
 20
0.0
 30
0.0
  0
XRECORD
  5
2D9
102
{ACAD_REACTORS
330
2C6
102
}
330
2C6
100
AcDbXrecord
 10
0.0
 20
0.0
 30
0.0
  0
XRECORD
  5
2DA
102
{ACAD_REACTORS
330
2C6
102
}
330
2C6
100
AcDbXrecord
 10
0.0
 20
0.0
 30
0.0
  0
XRECORD
  5
2D7
102
{ACAD_REACTORS
330
2C6
102
}
330
2C6
100
AcDbXrecord
 10
0.0
 20
0.0
 30
0.0
  0
XRECORD
  5
2D4
102
{ACAD_REACTORS
330
2C6
102
}
330
2C6
100
AcDbXrecord
340
0
  0
XRECORD
  5
2D5
102
{ACAD_REACTORS
330
2C6
102
}
330
2C6
100
AcDbXrecord
 70
     0
  0
XRECORD
  5
2CA
102
{ACAD_REACTORS
330
2C6
102
}
330
2C6
100
AcDbXrecord
  1

  0
XRECORD
  5
2C7
102
{ACAD_REACTORS
330
2C6
102
}
330
2C6
100
AcDbXrecord
 90
        1
  0
XRECORD
  5
2C8
102
{ACAD_REACTORS
330
2C6
102
}
330
2C6
100
AcDbXrecord
 90
       70
  0
XRECORD
  5
2DF
102
{ACAD_REACTORS
330
2C6
102
}
330
2C6
100
AcDbXrecord
340
0
  0
XRECORD
  5
2E5
102
{ACAD_REACTORS
330
2C6
102
}
330
2C6
100
AcDbXrecord
 10
0.0
 20
0.0
 30
0.0
  0
XRECORD
  5
2E1
102
{ACAD_REACTORS
330
2C6
102
}
330
2C6
100
AcDbXrecord
 10
0.0
 20
0.0
 30
0.0
  0
XRECORD
  5
2E4
102
{ACAD_REACTORS
330
2C6
102
}
330
2C6
100
AcDbXrecord
 10
0.0
 20
0.0
 30
0.0
  0
XRECORD
  5
2E2
102
{ACAD_REACTORS
330
2C6
102
}
330
2C6
100
AcDbXrecord
 10
0.0
 20
0.0
 30
0.0
  0
XRECORD
  5
2E3
102
{ACAD_REACTORS
330
2C6
102
}
330
2C6
100
AcDbXrecord
 10
0.0
 20
0.0
 30
0.0
  0
XRECORD
  5
2E0
102
{ACAD_REACTORS
330
2C6
102
}
330
2C6
100
AcDbXrecord
 10
0.0
 20
0.0
 30
0.0
  0
XRECORD
  5
2DD
102
{ACAD_REACTORS
330
2C6
102
}
330
2C6
100
AcDbXrecord
340
0
  0
XRECORD
  5
2DE
102
{ACAD_REACTORS
330
2C6
102
}
330
2C6
100
AcDbXrecord
 70
     0
  0
XRECORD
  5
2D2
102
{ACAD_REACTORS
330
2C6
102
}
330
2C6
100
AcDbXrecord
  1
{1FFFC96B-96FC-4945-9A5E-BB9E7DCD8C54}
  0
DICTIONARYVAR
  5
1C4
102
{ACAD_REACTORS
330
1C3
102
}
330
1C3
100
DictionaryVariables
280
     0
  1
1
  0
ENDSEC
  0
EOF
