  0
SECTION
  2
HEADER
  9
$ACADVER
  1
AC1014
  9
$ACADMAINTVER
 70
     9
  9
$DWGCODEPAGE
  3
ANSI_1252
  9
$INSBASE
 10
0.0
 20
0.0
 30
0.0
  9
$EXTMIN
 10
-19.47182352472307
 20
13.79384243849486
 30
0.0
  9
$EXTMAX
 10
-9.783470864422934
 20
16.49440431308115
 30
0.0
  9
$LIMMIN
 10
0.0
 20
0.0
  9
$LIMMAX
 10
0.0
 20
0.0
  9
$ORTHOMODE
 70
     1
  9
$REGENMODE
 70
     1
  9
$FILLMODE
 70
     1
  9
$QTEXTMODE
 70
     0
  9
$MIRRTEXT
 70
     1
  9
$DRAGMODE
 70
     0
  9
$LTSCALE
 40
1.0
  9
$OSMODE
 70
    37
  9
$ATTMODE
 70
     1
  9
$TEXTSIZE
 40
0.0
  9
$TRACEWID
 40
0.05
  9
$TEXTSTYLE
  7
STANDARD
  9
$CLAYER
  8
0
  9
$CELTYPE
  6
CONTINUOUS
  9
$CECOLOR
 62
   256
  9
$CELTSCALE
 40
1.0
  9
$DELOBJ
 70
     1
  9
$DISPSILH
 70
     0
  9
$DIMSCALE
 40
1.0
  9
$DIMASZ
 40
0.18
  9
$DIMEXO
 40
0.0625
  9
$DIMDLI
 40
0.38
  9
$DIMRND
 40
0.0
  9
$DIMDLE
 40
0.0
  9
$DIMEXE
 40
0.18
  9
$DIMTP
 40
0.0
  9
$DIMTM
 40
0.0
  9
$DIMTXT
 40
0.18
  9
$DIMCEN
 40
0.09
  9
$DIMTSZ
 40
0.0
  9
$DIMTOL
 70
     0
  9
$DIMLIM
 70
     0
  9
$DIMTIH
 70
     1
  9
$DIMTOH
 70
     1
  9
$DIMSE1
 70
     0
  9
$DIMSE2
 70
     0
  9
$DIMTAD
 70
     0
  9
$DIMZIN
 70
     0
  9
$DIMBLK
  1

  9
$DIMASO
 70
     1
  9
$DIMSHO
 70
     1
  9
$DIMPOST
  1

  9
$DIMAPOST
  1

  9
$DIMALT
 70
     0
  9
$DIMALTD
 70
     2
  9
$DIMALTF
 40
25.4
  9
$DIMLFAC
 40
1.0
  9
$DIMTOFL
 70
     0
  9
$DIMTVP
 40
0.0
  9
$DIMTIX
 70
     0
  9
$DIMSOXD
 70
     0
  9
$DIMSAH
 70
     0
  9
$DIMBLK1
  1

  9
$DIMBLK2
  1

  9
$DIMSTYLE
  2
STANDARD
  9
$DIMCLRD
 70
     0
  9
$DIMCLRE
 70
     0
  9
$DIMCLRT
 70
     0
  9
$DIMTFAC
 40
1.0
  9
$DIMGAP
 40
0.09
  9
$DIMJUST
 70
     0
  9
$DIMSD1
 70
     0
  9
$DIMSD2
 70
     0
  9
$DIMTOLJ
 70
     1
  9
$DIMTZIN
 70
     0
  9
$DIMALTZ
 70
     0
  9
$DIMALTTZ
 70
     0
  9
$DIMFIT
 70
     3
  9
$DIMUPT
 70
     0
  9
$DIMUNIT
 70
     2
  9
$DIMDEC
 70
     4
  9
$DIMTDEC
 70
     4
  9
$DIMALTU
 70
     2
  9
$DIMALTTD
 70
     2
  9
$DIMTXSTY
  7
STANDARD
  9
$DIMAUNIT
 70
     0
  9
$LUNITS
 70
     2
  9
$LUPREC
 70
     4
  9
$SKETCHINC
 40
0.1
  9
$FILLETRAD
 40
0.0
  9
$AUNITS
 70
     0
  9
$AUPREC
 70
     0
  9
$MENU
  1
acad
  9
$ELEVATION
 40
0.0
  9
$PELEVATION
 40
0.0
  9
$THICKNESS
 40
0.0
  9
$LIMCHECK
 70
     0
  9
$BLIPMODE
 70
     0
  9
$CHAMFERA
 40
0.0
  9
$CHAMFERB
 40
0.0
  9
$CHAMFERC
 40
0.0
  9
$CHAMFERD
 40
0.0
  9
$SKPOLY
 70
     0
  9
$TDCREATE
 40
2444971.791666666
  9
$TDUPDATE
 40
2452297.065847975
  9
$TDINDWG
 40
0.0182237500
  9
$TDUSRTIMER
 40
0.0182237500
  9
$USRTIMER
 70
     1
  9
$ANGBASE
 50
0.0
  9
$ANGDIR
 70
     0
  9
$PDMODE
 70
     0
  9
$PDSIZE
 40
0.0
  9
$PLINEWID
 40
0.0
  9
$COORDS
 70
     2
  9
$SPLFRAME
 70
     0
  9
$SPLINETYPE
 70
     6
  9
$SPLINESEGS
 70
     8
  9
$ATTDIA
 70
     0
  9
$ATTREQ
 70
     1
  9
$HANDLING
 70
 22529
  9
$HANDSEED
  5
4E3
  9
$SURFTAB1
 70
     6
  9
$SURFTAB2
 70
     6
  9
$SURFTYPE
 70
     6
  9
$SURFU
 70
     6
  9
$SURFV
 70
     6
  9
$UCSNAME
  2

  9
$UCSORG
 10
0.0
 20
0.0
 30
0.0
  9
$UCSXDIR
 10
1.0
 20
0.0
 30
0.0
  9
$UCSYDIR
 10
0.0
 20
1.0
 30
0.0
  9
$PUCSNAME
  2

  9
$PUCSORG
 10
0.0
 20
0.0
 30
0.0
  9
$PUCSXDIR
 10
1.0
 20
0.0
 30
0.0
  9
$PUCSYDIR
 10
0.0
 20
1.0
 30
0.0
  9
$USERI1
 70
     0
  9
$USERI2
 70
     0
  9
$USERI3
 70
     0
  9
$USERI4
 70
     0
  9
$USERI5
 70
     0
  9
$USERR1
 40
0.0
  9
$USERR2
 40
0.0
  9
$USERR3
 40
0.0
  9
$USERR4
 40
0.0
  9
$USERR5
 40
0.0
  9
$WORLDVIEW
 70
     1
  9
$SHADEDGE
 70
     3
  9
$SHADEDIF
 70
    70
  9
$TILEMODE
 70
     1
  9
$MAXACTVP
 70
    16
  9
$PINSBASE
 10
0.0
 20
0.0
 30
0.0
  9
$PLIMCHECK
 70
     0
  9
$PEXTMIN
 10
1.000000000000000E+20
 20
1.000000000000000E+20
 30
1.000000000000000E+20
  9
$PEXTMAX
 10
-1.000000000000000E+20
 20
-1.000000000000000E+20
 30
-1.000000000000000E+20
  9
$PLIMMIN
 10
0.0
 20
0.0
  9
$PLIMMAX
 10
12.0
 20
9.0
  9
$UNITMODE
 70
     0
  9
$VISRETAIN
 70
     0
  9
$PLINEGEN
 70
     0
  9
$PSLTSCALE
 70
     0
  9
$TREEDEPTH
 70
  3020
  9
$PICKSTYLE
 70
     1
  9
$CMLSTYLE
  2
STANDARD
  9
$CMLJUST
 70
     0
  9
$CMLSCALE
 40
1.0
  9
$PROXYGRAPHICS
 70
     1
  9
$MEASUREMENT
 70
     0
  0
ENDSEC
  0
SECTION
  2
CLASSES
  0
CLASS
  1
LWPOLYLINE
  2
AcDbPolyline
  3
AutoCAD 2000
 90
        0
280
     0
281
     1
  0
CLASS
  1
IMAGE
  2
AcDbRasterImage
  3
ISM
 90
      127
280
     0
281
     1
  0
CLASS
  1
OLE2FRAME
  2
AcDbOle2Frame
  3
AutoCAD 2000
 90
        0
280
     0
281
     1
  0
CLASS
  1
HATCH
  2
AcDbHatch
  3
AutoCAD 2000
 90
        0
280
     0
281
     1
  0
CLASS
  1
DICTIONARYVAR
  2
AcDbDictionaryVar
  3
AutoCAD 2000
 90
        0
280
     0
281
     0
  0
CLASS
  1
RASTERVARIABLES
  2
AcDbRasterVariables
  3
ISM
 90
        0
280
     0
281
     0
  0
CLASS
  1
IMAGEDEF
  2
AcDbRasterImageDef
  3
ISM
 90
        0
280
     0
281
     0
  0
CLASS
  1
IMAGEDEF_REACTOR
  2
AcDbRasterImageDefReactor
  3
ISM
 90
        1
280
     0
281
     0
  0
CLASS
  1
IDBUFFER
  2
AcDbIdBuffer
  3
AutoCAD 2000
 90
        0
280
     0
281
     0
  0
CLASS
  1
SPATIAL_FILTER
  2
AcDbSpatialFilter
  3
AutoCAD 2000
 90
        0
280
     0
281
     0
  0
CLASS
  1
XRECORD
  2
AcDbXrecord
  3
AutoCAD 2000
 90
        0
280
     0
281
     0
  0
CLASS
  1
SORTENTSTABLE
  2
AcDbSortentsTable
  3
AutoCAD 2000
 90
        0
280
     0
281
     0
  0
CLASS
  1
LAYER_INDEX
  2
AcDbLayerIndex
  3
AutoCAD 2000
 90
        0
280
     0
281
     0
  0
CLASS
  1
SPATIAL_INDEX
  2
AcDbSpatialIndex
  3
AutoCAD 2000
 90
        0
280
     0
281
     0
  0
CLASS
  1
OBJECT_PTR
  2
CAseDLPNTableRecord
  3
ASE-LPNTableRecord
 90
        1
280
     0
281
     0
  0
CLASS
  1
ACDBDICTIONARYWDFLT
  2
AcDbDictionaryWithDefault
  3
AutoCAD 2000
 90
        0
280
     0
281
     0
  0
CLASS
  1
ACDBPLACEHOLDER
  2
AcDbPlaceHolder
  3
AutoCAD 2000
 90
        0
280
     0
281
     0
  0
CLASS
  1
LAYOUT
  2
AcDbLayout
  3
AutoCAD 2000
 90
        0
280
     0
281
     0
  0
CLASS
  1
LONG_TRANSACTION
  2
AcDbLongTransaction
  3
AutoCAD 2000
 90
        0
280
     0
281
     0
  0
CLASS
  1
LWPOLYLINE
  2
AcDbPolyline
  3
AutoCAD 2000
 90
        0
280
     0
281
     1
  0
CLASS
  1
HATCH
  2
AcDbHatch
  3
AutoCAD 2000
 90
        0
280
     0
281
     1
  0
CLASS
  1
XRECORD
  2
AcDbXrecord
  3
AutoCAD 2000
 90
        0
280
     0
281
     0
  0
CLASS
  1
LONG_TRANSACTION
  2
AcDbLongTransaction
  3
AutoCAD 2000
 90
        0
280
     0
281
     0
  0
CLASS
  1
LWPOLYLINE
  2
AcDbPolyline
  3
AutoCAD 2000
 90
        0
280
     0
281
     1
  0
CLASS
  1
HATCH
  2
AcDbHatch
  3
AutoCAD 2000
 90
        0
280
     0
281
     1
  0
CLASS
  1
XRECORD
  2
AcDbXrecord
  3
AutoCAD 2000
 90
        0
280
     0
281
     0
  0
CLASS
  1
LONG_TRANSACTION
  2
AcDbLongTransaction
  3
AutoCAD 2000
 90
        0
280
     0
281
     0
  0
CLASS
  1
LWPOLYLINE
  2
AcDbPolyline
  3
AutoCAD 2000
 90
        0
280
     0
281
     1
  0
CLASS
  1
HATCH
  2
AcDbHatch
  3
AutoCAD 2000
 90
        0
280
     0
281
     1
  0
CLASS
  1
XRECORD
  2
AcDbXrecord
  3
AutoCAD 2000
 90
        0
280
     0
281
     0
  0
CLASS
  1
LONG_TRANSACTION
  2
AcDbLongTransaction
  3
AutoCAD 2000
 90
        0
280
     0
281
     0
  0
CLASS
  1
LWPOLYLINE
  2
AcDbPolyline
  3
AutoCAD 2000
 90
        0
280
     0
281
     1
  0
CLASS
  1
HATCH
  2
AcDbHatch
  3
AutoCAD 2000
 90
        0
280
     0
281
     1
  0
CLASS
  1
XRECORD
  2
AcDbXrecord
  3
AutoCAD 2000
 90
        0
280
     0
281
     0
  0
CLASS
  1
LONG_TRANSACTION
  2
AcDbLongTransaction
  3
AutoCAD 2000
 90
        0
280
     0
281
     0
  0
CLASS
  1
LWPOLYLINE
  2
AcDbPolyline
  3
AutoCAD 2000
 90
        0
280
     0
281
     1
  0
CLASS
  1
HATCH
  2
AcDbHatch
  3
AutoCAD 2000
 90
        0
280
     0
281
     1
  0
CLASS
  1
XRECORD
  2
AcDbXrecord
  3
AutoCAD 2000
 90
        0
280
     0
281
     0
  0
CLASS
  1
LONG_TRANSACTION
  2
AcDbLongTransaction
  3
AutoCAD 2000
 90
        0
280
     0
281
     0
  0
CLASS
  1
LWPOLYLINE
  2
AcDbPolyline
  3
AutoCAD 2000
 90
        0
280
     0
281
     1
  0
CLASS
  1
HATCH
  2
AcDbHatch
  3
AutoCAD 2000
 90
        0
280
     0
281
     1
  0
CLASS
  1
XRECORD
  2
AcDbXrecord
  3
AutoCAD 2000
 90
        0
280
     0
281
     0
  0
ENDSEC
  0
SECTION
  2
TABLES
  0
TABLE
  2
VPORT
  5
7
330
0
100
AcDbSymbolTable
 70
     3
  0
VPORT
  5
2F
330
7
100
AcDbSymbolTableRecord
100
AcDbViewportTableRecord
  2
DCADVPORT
 70
     0
 10
-16.84151487905137
 20
14.63556099324328
 11
-12.96625734993642
 21
16.49440431308115
 12
6.209999999999999
 22
9.019999999999999
 13
0.0
 23
0.0
 14
1.0
 24
1.0
 15
0.0
 25
0.0
 16
0.0
 26
0.0
 36
1.0
 17
0.0
 27
0.0
 37
0.0
 40
18.04
 41
0.688564
 42
50.0
 43
1.0
 44
1.0
 50
0.0
 51
0.0
 71
     0
 72
   100
 73
     1
 74
     1
 75
     0
 76
     0
 77
     0
 78
     0
  0
VPORT
  5
4C0
330
7
100
AcDbSymbolTableRecord
100
AcDbViewportTableRecord
  2
*ACTIVE
 70
     0
 10
0.0
 20
0.0
 11
1.0
 21
1.0
 12
-14.62740720064741
 22
15.14373217760942
 13
0.0
 23
0.0
 14
1.0
 24
1.0
 15
0.0
 25
0.0
 16
0.0
 26
0.0
 36
1.0
 17
0.0
 27
0.0
 37
0.0
 40
6.199926472029645
 41
1.570528967254408
 42
50.0
 43
0.0
 44
0.0
 50
0.0
 51
0.0
 71
     0
 72
   100
 73
     1
 74
     1
 75
     0
 76
     0
 77
     0
 78
     0
  0
ENDTAB
  0
TABLE
  2
LTYPE
  5
4
330
0
100
AcDbSymbolTable
 70
     3
  0
LTYPE
  5
11
330
4
100
AcDbSymbolTableRecord
100
AcDbLinetypeTableRecord
  2
BYBLOCK
 70
     0
  3

 72
    65
 73
     0
 40
0.0
  0
LTYPE
  5
12
330
4
100
AcDbSymbolTableRecord
100
AcDbLinetypeTableRecord
  2
BYLAYER
 70
     0
  3

 72
    65
 73
     0
 40
0.0
  0
LTYPE
  5
13
330
4
100
AcDbSymbolTableRecord
100
AcDbLinetypeTableRecord
  2
CONTINUOUS
 70
     0
  3
Solid line
 72
    65
 73
     0
 40
0.0
  0
LTYPE
  5
1E
330
4
100
AcDbSymbolTableRecord
100
AcDbLinetypeTableRecord
  2
CONTINUOUS
 70
     0
  3
Solid line
 72
    65
 73
     0
 40
0.0
  0
LTYPE
  5
28
330
4
100
AcDbSymbolTableRecord
100
AcDbLinetypeTableRecord
  2
HIDDEN
 70
     0
  3
__ __ __ __ __ __ __ __ __ __ __ __ __ __ __ __
 72
    65
 73
     2
 40
0.375
 49
0.25
 74
     0
 49
-0.125
 74
     0
  0
ENDTAB
  0
TABLE
  2
LAYER
  5
2
330
0
100
AcDbSymbolTable
 70
     6
  0
LAYER
  5
14
330
2
100
AcDbSymbolTableRecord
100
AcDbLayerTableRecord
  2
0
 70
     0
 62
     7
  6
CONTINUOUS
  0
LAYER
  5
2A
330
2
100
AcDbSymbolTableRecord
100
AcDbLayerTableRecord
  2
0
 70
     0
 62
   250
  6
CONTINUOUS
  0
LAYER
  5
2B
330
2
100
AcDbSymbolTableRecord
100
AcDbLayerTableRecord
  2
ADP2DETAIL
 70
     0
 62
   250
  6
CONTINUOUS
  0
LAYER
  5
2C
330
2
100
AcDbSymbolTableRecord
100
AcDbLayerTableRecord
  2
ADP1DETAIL
 70
     0
 62
   250
  6
CONTINUOUS
  0
LAYER
  5
2D
330
2
100
AcDbSymbolTableRecord
100
AcDbLayerTableRecord
  2
DEFPOINTS
 70
     0
 62
   250
  6
CONTINUOUS
  0
LAYER
  5
2E
330
2
100
AcDbSymbolTableRecord
100
AcDbLayerTableRecord
  2
ADPDIM
 70
     0
 62
     3
  6
CONTINUOUS
  0
ENDTAB
  0
TABLE
  2
STYLE
  5
3
330
0
100
AcDbSymbolTable
 70
     2
  0
STYLE
  5
17
330
3
100
AcDbSymbolTableRecord
100
AcDbTextStyleTableRecord
  2
STANDARD
 70
     0
 40
0.0
 41
1.0
 50
0.0
 71
     0
 42
0.0
  3
txt
  4

  0
STYLE
  5
357
330
3
100
AcDbSymbolTableRecord
100
AcDbTextStyleTableRecord
  2
ARIAL_WIDE
 70
     0
 40
0.0
 41
1.25
 50
0.0
 71
     0
 42
0.2
  3
ARIAL.TTF
  4

1001
ACAD
1000
Arial
1071
       34
  0
ENDTAB
  0
TABLE
  2
VIEW
  5
5
330
0
100
AcDbSymbolTable
 70
     0
  0
ENDTAB
  0
TABLE
  2
UCS
  5
6
330
0
100
AcDbSymbolTable
 70
     0
  0
ENDTAB
  0
TABLE
  2
APPID
  5
8
330
0
100
AcDbSymbolTable
 70
     1
  0
APPID
  5
16
330
8
100
AcDbSymbolTableRecord
100
AcDbRegAppTableRecord
  2
ACAD
 70
     0
  0
ENDTAB
  0
TABLE
  2
DIMSTYLE
  5
9
330
0
100
AcDbSymbolTable
 70
     1
  0
DIMSTYLE
105
18
330
9
100
AcDbSymbolTableRecord
100
AcDbDimStyleTableRecord
  2
STANDARD
 70
     0
  3

  4

  5

  6

  7

 40
1.0
 41
0.18
 42
0.0625
 43
0.38
 44
0.18
 45
0.0
 46
0.0
 47
0.0
 48
0.0
140
0.18
141
0.09
142
0.0
143
25.4
144
1.0
145
0.0
146
1.0
147
0.09
 71
     0
 72
     0
 73
     1
 74
     1
 75
     0
 76
     0
 77
     0
 78
     0
170
     0
171
     2
172
     0
173
     0
174
     0
175
     0
176
     0
177
     0
178
     0
270
     2
271
     4
272
     4
273
     2
274
     2
340
17
275
     0
280
     0
281
     0
282
     0
283
     1
284
     0
285
     0
286
     0
287
     0
288
     0
  0
ENDTAB
  0
TABLE
  2
BLOCK_RECORD
  5
1
330
0
100
AcDbSymbolTable
 70
     0
  0
BLOCK_RECORD
  5
A
102
{ACAD_XDICTIONARY
360
3B2
102
}
330
1
100
AcDbSymbolTableRecord
100
AcDbBlockTableRecord
  2
*MODEL_SPACE
  0
BLOCK_RECORD
  5
B
102
{ACAD_XDICTIONARY
360
3B4
102
}
330
1
100
AcDbSymbolTableRecord
100
AcDbBlockTableRecord
  2
*PAPER_SPACE
  0
ENDTAB
  0
ENDSEC
  0
SECTION
  2
BLOCKS
  0
BLOCK
  5
D
330
A
100
AcDbEntity
  8
0
100
AcDbBlockBegin
  2
*MODEL_SPACE
 70
     0
 10
0.0
 20
0.0
 30
0.0
  3
*MODEL_SPACE
  1

  0
ENDBLK
  5
E
330
A
100
AcDbEntity
  8
0
100
AcDbBlockEnd
  0
BLOCK
  5
F
330
B
100
AcDbEntity
 67
     1
  8
0
100
AcDbBlockBegin
  2
*PAPER_SPACE
 70
     0
 10
0.0
 20
0.0
 30
0.0
  3
*PAPER_SPACE
  1

  0
ENDBLK
  5
10
330
B
100
AcDbEntity
 67
     1
  8
0
100
AcDbBlockEnd
  0
ENDSEC
  0
SECTION
  2
ENTITIES
  0
LWPOLYLINE
  5
30
330
A
100
AcDbEntity
  8
ADP1DETAIL
  6
CONTINUOUS
 62
     7
100
AcDbPolyline
 90
        2
 70
   128
 43
0.0
 10
-15.50651487905137
 20
16.05222765990995
 10
-15.50651487905137
 20
15.05222765990995
  0
LWPOLYLINE
  5
34
330
A
100
AcDbEntity
  8
ADP1DETAIL
  6
CONTINUOUS
 62
     7
100
AcDbPolyline
 90
        2
 70
   128
 43
0.0
 10
-13.74877951009463
 20
15.05222765990995
 10
-13.74877951009463
 20
16.05222765990995
  0
LWPOLYLINE
  5
38
330
A
100
AcDbEntity
  8
ADP1DETAIL
  6
CONTINUOUS
 62
     7
100
AcDbPolyline
 90
        2
 70
   128
 43
0.0
 10
-15.50651487905137
 20
15.05222765990995
 10
-13.74877951009463
 20
15.05222765990995
  0
LWPOLYLINE
  5
3C
330
A
100
AcDbEntity
  8
ADP2DETAIL
  6
HIDDEN
 62
     5
100
AcDbPolyline
 90
        2
 70
   128
 43
0.0
 10
-13.77318154571804
 20
15.80222765990995
 10
-14.50651487905137
 20
15.80222765990995
  0
LWPOLYLINE
  5
40
330
A
100
AcDbEntity
  8
ADP2DETAIL
  6
HIDDEN
 62
     5
100
AcDbPolyline
 90
        2
 70
   128
 43
0.0
 10
-14.50651487905137
 20
15.30222765990995
 10
-13.77318154571804
 20
15.30222765990995
  0
LWPOLYLINE
  5
44
330
A
100
AcDbEntity
  8
ADP1DETAIL
  6
CONTINUOUS
 62
     7
100
AcDbPolyline
 90
        2
 70
   128
 43
0.0
 10
-13.74877951009463
 20
16.05222765990995
 10
-15.50651487905137
 20
16.05222765990995
  0
LWPOLYLINE
  5
48
330
A
100
AcDbEntity
  8
ADP1DETAIL
  6
CONTINUOUS
 62
     7
100
AcDbPolyline
 90
        2
 70
   128
 43
0.0
 10
-15.75984821238471
 20
15.74222765990995
 10
-15.69318154571804
 20
15.36889432657662
  0
LWPOLYLINE
  5
4C
330
A
100
AcDbEntity
  8
ADP1DETAIL
  6
CONTINUOUS
 62
     7
100
AcDbPolyline
 90
        2
 70
   128
 43
0.0
 10
-15.7398482123847
 20
15.80222765990995
 10
-15.75984821238471
 20
15.74222765990995
  0
LWPOLYLINE
  5
50
330
A
100
AcDbEntity
  8
ADP1DETAIL
  6
CONTINUOUS
 62
     7
100
AcDbPolyline
 90
        2
 70
   128
 43
0.0
 10
-15.7998482123847
 20
15.80222765990995
 10
-15.7198482123847
 20
15.30222765990995
  0
LWPOLYLINE
  5
54
330
A
100
AcDbEntity
  8
ADP1DETAIL
  6
CONTINUOUS
 62
     7
100
AcDbPolyline
 90
        2
 70
   128
 43
0.0
 10
-15.75984821238471
 20
15.36889432657662
 10
-15.7198482123847
 20
15.30222765990995
  0
LWPOLYLINE
  5
58
330
A
100
AcDbEntity
  8
ADP1DETAIL
  6
CONTINUOUS
 62
     7
100
AcDbPolyline
 90
        2
 70
   128
 43
0.0
 10
-16.07318154571804
 20
15.74222765990995
 10
-16.11318154571804
 20
15.80222765990995
  0
LWPOLYLINE
  5
5C
330
A
100
AcDbEntity
  8
ADP1DETAIL
  6
CONTINUOUS
 62
     7
100
AcDbPolyline
 90
        2
 70
   128
 43
0.0
 10
-16.13318154571804
 20
15.74222765990995
 10
-16.07318154571804
 20
15.36889432657662
  0
LWPOLYLINE
  5
60
330
A
100
AcDbEntity
  8
ADP1DETAIL
  6
CONTINUOUS
 62
     7
100
AcDbPolyline
 90
        2
 70
   128
 43
0.0
 10
-16.12651487905137
 20
15.36889432657662
 10
-16.09318154571804
 20
15.30222765990995
  0
LWPOLYLINE
  5
64
330
A
100
AcDbEntity
  8
ADP1DETAIL
  6
CONTINUOUS
 62
     7
100
AcDbPolyline
 90
        2
 70
   128
 43
0.0
 10
-16.11318154571804
 20
15.80222765990995
 10
-16.03318154571804
 20
15.30222765990995
  0
LWPOLYLINE
  5
68
330
A
100
AcDbEntity
  8
ADP1DETAIL
  6
CONTINUOUS
 62
     7
100
AcDbPolyline
 90
        2
 70
   128
 43
0.0
 10
-16.13318154571804
 20
15.53556099324328
 10
-16.09318154571804
 20
15.30222765990995
  0
LWPOLYLINE
  5
6C
330
A
100
AcDbEntity
  8
ADP1DETAIL
  6
CONTINUOUS
 62
     7
100
AcDbPolyline
 90
        2
 70
   128
 43
0.0
 10
-16.13318154571804
 20
15.74222765990995
 10
-16.13318154571804
 20
15.74222765990995
  0
LWPOLYLINE
  5
70
330
A
100
AcDbEntity
  8
ADP1DETAIL
  6
CONTINUOUS
 62
     7
100
AcDbPolyline
 90
        2
 70
   128
 43
0.0
 10
-16.11318154571804
 20
15.80222765990995
 10
-16.13318154571804
 20
15.74222765990995
  0
LWPOLYLINE
  5
74
330
A
100
AcDbEntity
  8
ADP1DETAIL
  6
CONTINUOUS
 62
     7
100
AcDbPolyline
 90
        2
 70
   128
 43
0.0
 10
-16.13318154571804
 20
15.36889432657662
 10
-16.12651487905137
 20
15.36889432657662
  0
LWPOLYLINE
  5
78
330
A
100
AcDbEntity
  8
ADP1DETAIL
  6
CONTINUOUS
 62
     7
100
AcDbPolyline
 90
        2
 70
   128
 43
0.0
 10
-16.13318154571804
 20
15.74222765990995
 10
-16.13318154571804
 20
15.36889432657662
  0
LWPOLYLINE
  5
7C
330
A
100
AcDbEntity
  8
ADP1DETAIL
  6
CONTINUOUS
 62
     7
100
AcDbPolyline
 90
        2
 70
   128
 43
0.0
 10
-15.88651487905137
 20
15.74222765990995
 10
-15.92651487905137
 20
15.80222765990995
  0
LWPOLYLINE
  5
80
330
A
100
AcDbEntity
  8
ADP1DETAIL
  6
CONTINUOUS
 62
     7
100
AcDbPolyline
 90
        2
 70
   128
 43
0.0
 10
-15.94651487905137
 20
15.74222765990995
 10
-15.88651487905137
 20
15.36889432657662
  0
LWPOLYLINE
  5
84
330
A
100
AcDbEntity
  8
ADP1DETAIL
  6
CONTINUOUS
 62
     7
100
AcDbPolyline
 90
        2
 70
   128
 43
0.0
 10
-15.94651487905137
 20
15.36889432657662
 10
-15.90651487905137
 20
15.30222765990995
  0
LWPOLYLINE
  5
88
330
A
100
AcDbEntity
  8
ADP1DETAIL
  6
CONTINUOUS
 62
     7
100
AcDbPolyline
 90
        2
 70
   128
 43
0.0
 10
-15.92651487905137
 20
15.80222765990995
 10
-15.84651487905137
 20
15.30222765990995
  0
LWPOLYLINE
  5
8C
330
A
100
AcDbEntity
  8
ADP1DETAIL
  6
CONTINUOUS
 62
     7
100
AcDbPolyline
 90
        2
 70
   128
 43
0.0
 10
-15.98651487905137
 20
15.80222765990995
 10
-15.90651487905137
 20
15.30222765990995
  0
LWPOLYLINE
  5
90
330
A
100
AcDbEntity
  8
ADP1DETAIL
  6
CONTINUOUS
 62
     7
100
AcDbPolyline
 90
        2
 70
   128
 43
0.0
 10
-16.01318154571804
 20
15.74222765990995
 10
-16.05318154571804
 20
15.80222765990995
  0
LWPOLYLINE
  5
94
330
A
100
AcDbEntity
  8
ADP1DETAIL
  6
CONTINUOUS
 62
     7
100
AcDbPolyline
 90
        2
 70
   128
 43
0.0
 10
-16.05318154571804
 20
15.80222765990995
 10
-16.07318154571804
 20
15.74222765990995
  0
LWPOLYLINE
  5
98
330
A
100
AcDbEntity
  8
ADP1DETAIL
  6
CONTINUOUS
 62
     7
100
AcDbPolyline
 90
        2
 70
   128
 43
0.0
 10
-15.98651487905137
 20
15.80222765990995
 10
-16.01318154571804
 20
15.74222765990995
  0
LWPOLYLINE
  5
9C
330
A
100
AcDbEntity
  8
ADP1DETAIL
  6
CONTINUOUS
 62
     7
100
AcDbPolyline
 90
        2
 70
   128
 43
0.0
 10
-15.94651487905137
 20
15.74222765990995
 10
-15.98651487905137
 20
15.80222765990995
  0
LWPOLYLINE
  5
A0
330
A
100
AcDbEntity
  8
ADP1DETAIL
  6
CONTINUOUS
 62
     7
100
AcDbPolyline
 90
        2
 70
   128
 43
0.0
 10
-15.92651487905137
 20
15.80222765990995
 10
-15.94651487905137
 20
15.74222765990995
  0
LWPOLYLINE
  5
A4
330
A
100
AcDbEntity
  8
ADP1DETAIL
  6
CONTINUOUS
 62
     7
100
AcDbPolyline
 90
        2
 70
   128
 43
0.0
 10
-16.00651487905137
 20
15.74222765990995
 10
-15.94651487905137
 20
15.36889432657662
  0
LWPOLYLINE
  5
A8
330
A
100
AcDbEntity
  8
ADP1DETAIL
  6
CONTINUOUS
 62
     7
100
AcDbPolyline
 90
        2
 70
   128
 43
0.0
 10
-16.07318154571804
 20
15.74222765990995
 10
-16.00651487905137
 20
15.36889432657662
  0
LWPOLYLINE
  5
AC
330
A
100
AcDbEntity
  8
ADP1DETAIL
  6
CONTINUOUS
 62
     7
100
AcDbPolyline
 90
        2
 70
   128
 43
0.0
 10
-16.07318154571804
 20
15.36889432657662
 10
-16.03318154571804
 20
15.30222765990995
  0
LWPOLYLINE
  5
B0
330
A
100
AcDbEntity
  8
ADP1DETAIL
  6
CONTINUOUS
 62
     7
100
AcDbPolyline
 90
        2
 70
   128
 43
0.0
 10
-15.96651487905137
 20
15.30222765990995
 10
-15.94651487905137
 20
15.36889432657662
  0
LWPOLYLINE
  5
B4
330
A
100
AcDbEntity
  8
ADP1DETAIL
  6
CONTINUOUS
 62
     7
100
AcDbPolyline
 90
        2
 70
   128
 43
0.0
 10
-16.00651487905137
 20
15.36889432657662
 10
-15.96651487905137
 20
15.30222765990995
  0
LWPOLYLINE
  5
B8
330
A
100
AcDbEntity
  8
ADP1DETAIL
  6
CONTINUOUS
 62
     7
100
AcDbPolyline
 90
        2
 70
   128
 43
0.0
 10
-16.03318154571804
 20
15.30222765990995
 10
-16.00651487905137
 20
15.36889432657662
  0
LWPOLYLINE
  5
BC
330
A
100
AcDbEntity
  8
ADP1DETAIL
  6
CONTINUOUS
 62
     7
100
AcDbPolyline
 90
        2
 70
   128
 43
0.0
 10
-16.09318154571804
 20
15.30222765990995
 10
-16.07318154571804
 20
15.36889432657662
  0
LWPOLYLINE
  5
C0
330
A
100
AcDbEntity
  8
ADP1DETAIL
  6
CONTINUOUS
 62
     7
100
AcDbPolyline
 90
        2
 70
   128
 43
0.0
 10
-16.05318154571804
 20
15.80222765990995
 10
-15.96651487905137
 20
15.30222765990995
  0
LWPOLYLINE
  5
C4
330
A
100
AcDbEntity
  8
ADP1DETAIL
  6
CONTINUOUS
 62
     7
100
AcDbPolyline
 90
        2
 70
   128
 43
0.0
 10
-15.7998482123847
 20
15.80222765990995
 10
-15.81984821238471
 20
15.74222765990995
  0
LWPOLYLINE
  5
C8
330
A
100
AcDbEntity
  8
ADP1DETAIL
  6
CONTINUOUS
 62
     7
100
AcDbPolyline
 90
        2
 70
   128
 43
0.0
 10
-15.81984821238471
 20
15.74222765990995
 10
-15.75984821238471
 20
15.36889432657662
  0
LWPOLYLINE
  5
CC
330
A
100
AcDbEntity
  8
ADP1DETAIL
  6
CONTINUOUS
 62
     7
100
AcDbPolyline
 90
        2
 70
   128
 43
0.0
 10
-15.8598482123847
 20
15.80222765990995
 10
-15.88651487905137
 20
15.74222765990995
  0
LWPOLYLINE
  5
D0
330
A
100
AcDbEntity
  8
ADP1DETAIL
  6
CONTINUOUS
 62
     7
100
AcDbPolyline
 90
        2
 70
   128
 43
0.0
 10
-15.81984821238471
 20
15.74222765990995
 10
-15.8598482123847
 20
15.80222765990995
  0
LWPOLYLINE
  5
D4
330
A
100
AcDbEntity
  8
ADP1DETAIL
  6
CONTINUOUS
 62
     7
100
AcDbPolyline
 90
        2
 70
   128
 43
0.0
 10
-15.88651487905137
 20
15.74222765990995
 10
-15.81984821238471
 20
15.36889432657662
  0
LWPOLYLINE
  5
D8
330
A
100
AcDbEntity
  8
ADP1DETAIL
  6
CONTINUOUS
 62
     7
100
AcDbPolyline
 90
        2
 70
   128
 43
0.0
 10
-15.75984821238471
 20
15.74222765990995
 10
-15.7998482123847
 20
15.80222765990995
  0
LWPOLYLINE
  5
DC
330
A
100
AcDbEntity
  8
ADP1DETAIL
  6
CONTINUOUS
 62
     7
100
AcDbPolyline
 90
        2
 70
   128
 43
0.0
 10
-15.7798482123847
 20
15.30222765990995
 10
-15.75984821238471
 20
15.36889432657662
  0
LWPOLYLINE
  5
E0
330
A
100
AcDbEntity
  8
ADP1DETAIL
  6
CONTINUOUS
 62
     7
100
AcDbPolyline
 90
        2
 70
   128
 43
0.0
 10
-15.81984821238471
 20
15.36889432657662
 10
-15.7798482123847
 20
15.30222765990995
  0
LWPOLYLINE
  5
E4
330
A
100
AcDbEntity
  8
ADP1DETAIL
  6
CONTINUOUS
 62
     7
100
AcDbPolyline
 90
        2
 70
   128
 43
0.0
 10
-15.84651487905137
 20
15.30222765990995
 10
-15.81984821238471
 20
15.36889432657662
  0
LWPOLYLINE
  5
E8
330
A
100
AcDbEntity
  8
ADP1DETAIL
  6
CONTINUOUS
 62
     7
100
AcDbPolyline
 90
        2
 70
   128
 43
0.0
 10
-15.8798482123847
 20
15.36889432657662
 10
-15.84651487905137
 20
15.30222765990995
  0
LWPOLYLINE
  5
EC
330
A
100
AcDbEntity
  8
ADP1DETAIL
  6
CONTINUOUS
 62
     7
100
AcDbPolyline
 90
        2
 70
   128
 43
0.0
 10
-15.90651487905137
 20
15.30222765990995
 10
-15.8798482123847
 20
15.36889432657662
  0
LWPOLYLINE
  5
F0
330
A
100
AcDbEntity
  8
ADP1DETAIL
  6
CONTINUOUS
 62
     7
100
AcDbPolyline
 90
        2
 70
   128
 43
0.0
 10
-15.8598482123847
 20
15.80222765990995
 10
-15.7798482123847
 20
15.30222765990995
  0
LWPOLYLINE
  5
F4
330
A
100
AcDbEntity
  8
ADP1DETAIL
  6
CONTINUOUS
 62
     7
100
AcDbPolyline
 90
        2
 70
   128
 43
0.0
 10
-15.6998482123847
 20
15.74222765990995
 10
-15.7398482123847
 20
15.80222765990995
  0
LWPOLYLINE
  5
F8
330
A
100
AcDbEntity
  8
ADP1DETAIL
  6
CONTINUOUS
 62
     7
100
AcDbPolyline
 90
        2
 70
   128
 43
0.0
 10
-15.7198482123847
 20
15.30222765990995
 10
-15.69318154571804
 20
15.36889432657662
  0
LWPOLYLINE
  5
FC
330
A
100
AcDbEntity
  8
ADP1DETAIL
  6
CONTINUOUS
 62
     7
100
AcDbPolyline
 90
        2
 70
   128
 43
0.0
 10
-15.7398482123847
 20
15.80222765990995
 10
-15.65318154571804
 20
15.30222765990995
  0
LWPOLYLINE
  5
100
330
A
100
AcDbEntity
  8
ADP2DETAIL
  6
HIDDEN
 62
     5
100
AcDbPolyline
 90
        2
 70
   128
 43
0.0
 10
-14.44651487905137
 20
15.74222765990995
 10
-14.44651487905137
 20
15.36889432657662
  0
LWPOLYLINE
  5
104
330
A
100
AcDbEntity
  8
ADP2DETAIL
  6
HIDDEN
 62
     5
100
AcDbPolyline
 90
        2
 70
   128
 43
0.0
 10
-14.50651487905137
 20
15.80222765990995
 10
-14.50651487905137
 20
15.30222765990995
  0
LWPOLYLINE
  5
108
330
A
100
AcDbEntity
  8
ADP2DETAIL
  6
HIDDEN
 62
     5
100
AcDbPolyline
 90
        2
 70
   128
 43
0.0
 10
-13.8398482123847
 20
15.74222765990995
 10
-13.8398482123847
 20
15.36889432657662
  0
LWPOLYLINE
  5
10C
330
A
100
AcDbEntity
  8
ADP2DETAIL
  6
HIDDEN
 62
     5
100
AcDbPolyline
 90
        2
 70
   128
 43
0.0
 10
-13.9598482123847
 20
15.74222765990995
 10
-13.9598482123847
 20
15.36889432657662
  0
LWPOLYLINE
  5
110
330
A
100
AcDbEntity
  8
ADP2DETAIL
  6
HIDDEN
 62
     5
100
AcDbPolyline
 90
        2
 70
   128
 43
0.0
 10
-13.89984821238471
 20
15.80222765990995
 10
-13.89984821238471
 20
15.30222765990995
  0
LWPOLYLINE
  5
114
330
A
100
AcDbEntity
  8
ADP2DETAIL
  6
HIDDEN
 62
     5
100
AcDbPolyline
 90
        2
 70
   128
 43
0.0
 10
-14.0798482123847
 20
15.74222765990995
 10
-14.0798482123847
 20
15.36889432657662
  0
LWPOLYLINE
  5
118
330
A
100
AcDbEntity
  8
ADP2DETAIL
  6
HIDDEN
 62
     5
100
AcDbPolyline
 90
        2
 70
   128
 43
0.0
 10
-14.1998482123847
 20
15.74222765990995
 10
-14.1998482123847
 20
15.36889432657662
  0
LWPOLYLINE
  5
11C
330
A
100
AcDbEntity
  8
ADP2DETAIL
  6
HIDDEN
 62
     5
100
AcDbPolyline
 90
        2
 70
   128
 43
0.0
 10
-14.0198482123847
 20
15.80222765990995
 10
-14.0198482123847
 20
15.30222765990995
  0
LWPOLYLINE
  5
120
330
A
100
AcDbEntity
  8
ADP2DETAIL
  6
HIDDEN
 62
     5
100
AcDbPolyline
 90
        2
 70
   128
 43
0.0
 10
-14.1398482123847
 20
15.80222765990995
 10
-14.1398482123847
 20
15.30222765990995
  0
LWPOLYLINE
  5
124
330
A
100
AcDbEntity
  8
ADP2DETAIL
  6
HIDDEN
 62
     5
100
AcDbPolyline
 90
        2
 70
   128
 43
0.0
 10
-14.2598482123847
 20
15.80222765990995
 10
-14.2598482123847
 20
15.30222765990995
  0
LWPOLYLINE
  5
128
330
A
100
AcDbEntity
  8
ADP2DETAIL
  6
HIDDEN
 62
     5
100
AcDbPolyline
 90
        2
 70
   128
 43
0.0
 10
-14.3198482123847
 20
15.74222765990995
 10
-14.3198482123847
 20
15.36889432657662
  0
LWPOLYLINE
  5
12C
330
A
100
AcDbEntity
  8
ADP2DETAIL
  6
HIDDEN
 62
     5
100
AcDbPolyline
 90
        2
 70
   128
 43
0.0
 10
-14.38651487905137
 20
15.80222765990995
 10
-14.38651487905137
 20
15.30222765990995
  0
LWPOLYLINE
  5
130
330
A
100
AcDbEntity
  8
ADPDIM
  6
CONTINUOUS
 62
     3
 48
0.125
100
AcDbPolyline
 90
        2
 70
   128
 43
0.0
 10
-15.50651487905137
 20
16.11472765990995
 10
-15.50651487905137
 20
16.49182718564245
  0
LWPOLYLINE
  5
134
330
A
100
AcDbEntity
  8
ADPDIM
  6
CONTINUOUS
 62
     3
 48
0.125
100
AcDbPolyline
 90
        2
 70
   128
 43
0.0
 10
-16.13318154571804
 20
15.80472765990995
 10
-16.13318154571804
 20
16.49182718564245
  0
LWPOLYLINE
  5
138
330
A
100
AcDbEntity
  8
ADPDIM
  6
CONTINUOUS
 62
     3
 48
0.125
100
AcDbPolyline
 90
        2
 70
   128
 43
0.0
 10
-15.50651487905137
 20
16.31182718564245
 10
-15.25651487905137
 20
16.31182718564245
  0
LWPOLYLINE
  5
13C
330
A
100
AcDbEntity
  8
ADPDIM
  6
CONTINUOUS
 62
     3
 48
0.125
100
AcDbPolyline
 90
        2
 70
   128
 43
0.0
 10
-16.13318154571804
 20
16.31182718564245
 10
-16.38318154571804
 20
16.31182718564245
  0
LWPOLYLINE
  5
140
330
A
100
AcDbEntity
  8
ADPDIM
  6
CONTINUOUS
 62
     3
 48
0.125
100
AcDbPolyline
 90
        2
 70
   128
 43
0.0
 10
-15.63151487905137
 20
16.18682718564245
 10
-15.38151487905137
 20
16.43682718564245
  0
LWPOLYLINE
  5
144
330
A
100
AcDbEntity
  8
ADPDIM
  6
CONTINUOUS
 62
     3
 48
0.125
100
AcDbPolyline
 90
        2
 70
   128
 43
0.0
 10
-16.25818154571804
 20
16.18682718564245
 10
-16.00818154571804
 20
16.43682718564245
  0
TEXT
  5
148
330
A
100
AcDbEntity
  8
ADPDIM
 62
     3
 48
0.0
100
AcDbText
 10
-16.84151487905137
 20
16.24932718564244
 30
0.0
 40
0.125
  1
5/8
 72
     5
 11
-16.50818154571804
 21
16.24932718564244
 31
0.0
100
AcDbText
  0
LWPOLYLINE
  5
149
330
A
100
AcDbEntity
  8
ADPDIM
  6
CONTINUOUS
 62
     3
 48
0.125
100
AcDbPolyline
 90
        2
 70
   128
 43
0.0
 10
-13.68627951009463
 20
15.05222765990995
 10
-12.96625734993642
 20
15.05222765990995
  0
LWPOLYLINE
  5
14D
330
A
100
AcDbEntity
  8
ADPDIM
  6
CONTINUOUS
 62
     3
 48
0.125
100
AcDbPolyline
 90
        2
 70
   128
 43
0.0
 10
-13.68627951009463
 20
16.05222765990995
 10
-12.96625734993642
 20
16.05222765990995
  0
LWPOLYLINE
  5
151
330
A
100
AcDbEntity
  8
ADPDIM
  6
CONTINUOUS
 62
     3
 48
0.125
100
AcDbPolyline
 90
        2
 70
   128
 43
0.0
 10
-13.14625734993642
 20
15.05222765990995
 10
-13.14625734993642
 20
15.40639432657662
  0
LWPOLYLINE
  5
155
330
A
100
AcDbEntity
  8
ADPDIM
  6
CONTINUOUS
 62
     3
 48
0.125
100
AcDbPolyline
 90
        2
 70
   128
 43
0.0
 10
-13.14625734993642
 20
16.05222765990995
 10
-13.14625734993642
 20
15.69806099324328
  0
LWPOLYLINE
  5
159
330
A
100
AcDbEntity
  8
ADPDIM
  6
CONTINUOUS
 62
     3
 48
0.125
100
AcDbPolyline
 90
        2
 70
   128
 43
0.0
 10
-13.02125734993643
 20
14.92722765990995
 10
-13.27125734993642
 20
15.17722765990995
  0
LWPOLYLINE
  5
15D
330
A
100
AcDbEntity
  8
ADPDIM
  6
CONTINUOUS
 62
     3
 48
0.125
100
AcDbPolyline
 90
        2
 70
   128
 43
0.0
 10
-13.02125734993643
 20
15.92722765990995
 10
-13.27125734993642
 20
16.17722765990995
  0
TEXT
  5
161
330
A
100
AcDbEntity
  8
ADPDIM
 62
     3
 48
0.0
100
AcDbText
 10
-13.08375734993642
 20
15.53139432657661
 30
0.0
 40
0.125
  1
1
 50
90.0
 72
     5
 11
-13.08375734993642
 21
15.57306099324328
 31
0.0
100
AcDbText
  0
LWPOLYLINE
  5
162
330
A
100
AcDbEntity
  8
ADPDIM
  6
CONTINUOUS
 62
     3
 48
0.125
100
AcDbPolyline
 90
        2
 70
   128
 43
0.0
 10
-13.69401487905137
 20
15.30222765990995
 10
-13.34789019377449
 20
15.30222765990995
  0
LWPOLYLINE
  5
166
330
A
100
AcDbEntity
  8
ADPDIM
  6
CONTINUOUS
 62
     3
 48
0.125
100
AcDbPolyline
 90
        2
 70
   128
 43
0.0
 10
-13.69401487905137
 20
15.80222765990995
 10
-13.34789019377449
 20
15.80222765990995
  0
LWPOLYLINE
  5
16A
330
A
100
AcDbEntity
  8
ADPDIM
  6
CONTINUOUS
 62
     3
 48
0.125
100
AcDbPolyline
 90
        2
 70
   128
 43
0.0
 10
-13.52789019377449
 20
15.30222765990995
 10
-13.52789019377449
 20
15.05222765990995
  0
LWPOLYLINE
  5
16E
330
A
100
AcDbEntity
  8
ADPDIM
  6
CONTINUOUS
 62
     3
 48
0.125
100
AcDbPolyline
 90
        2
 70
   128
 43
0.0
 10
-13.52789019377449
 20
15.80222765990995
 10
-13.52789019377449
 20
16.05222765990995
  0
LWPOLYLINE
  5
172
330
A
100
AcDbEntity
  8
ADPDIM
  6
CONTINUOUS
 62
     3
 48
0.125
100
AcDbPolyline
 90
        2
 70
   128
 43
0.0
 10
-13.40289019377449
 20
15.17722765990995
 10
-13.65289019377449
 20
15.42722765990995
  0
LWPOLYLINE
  5
176
330
A
100
AcDbEntity
  8
ADPDIM
  6
CONTINUOUS
 62
     3
 48
0.125
100
AcDbPolyline
 90
        2
 70
   128
 43
0.0
 10
-13.40289019377449
 20
15.67722765990995
 10
-13.65289019377449
 20
15.92722765990995
  0
TEXT
  5
17A
330
A
100
AcDbEntity
  8
ADPDIM
 62
     3
 48
0.0
100
AcDbText
 10
-13.46539019377449
 20
16.17722765990995
 30
0.0
 40
0.125
  1
1/2
 50
90.0
 72
     5
 11
-13.46539019377449
 21
16.46889432657661
 31
0.0
100
AcDbText
  0
LWPOLYLINE
  5
17B
330
A
100
AcDbEntity
  8
ADPDIM
  6
CONTINUOUS
 62
     3
 48
0.125
100
AcDbPolyline
 90
        2
 70
   128
 43
0.0
 10
-16.17568154571804
 20
15.80222765990995
 10
-16.5445417855063
 20
15.80222765990995
  0
LWPOLYLINE
  5
17F
330
A
100
AcDbEntity
  8
ADPDIM
  6
CONTINUOUS
 62
     3
 48
0.125
100
AcDbPolyline
 90
        2
 70
   128
 43
0.0
 10
-16.15568154571804
 20
15.30222765990995
 10
-16.5445417855063
 20
15.30222765990995
  0
LWPOLYLINE
  5
183
330
A
100
AcDbEntity
  8
ADPDIM
  6
CONTINUOUS
 62
     3
 48
0.125
100
AcDbPolyline
 90
        2
 70
   128
 43
0.0
 10
-16.3645417855063
 20
15.80222765990995
 10
-16.3645417855063
 20
16.05222765990995
  0
LWPOLYLINE
  5
187
330
A
100
AcDbEntity
  8
ADPDIM
  6
CONTINUOUS
 62
     3
 48
0.125
100
AcDbPolyline
 90
        2
 70
   128
 43
0.0
 10
-16.3645417855063
 20
15.30222765990995
 10
-16.3645417855063
 20
15.05222765990995
  0
LWPOLYLINE
  5
18B
330
A
100
AcDbEntity
  8
ADPDIM
  6
CONTINUOUS
 62
     3
 48
0.125
100
AcDbPolyline
 90
        2
 70
   128
 43
0.0
 10
-16.2395417855063
 20
15.67722765990995
 10
-16.4895417855063
 20
15.92722765990995
  0
LWPOLYLINE
  5
18F
330
A
100
AcDbEntity
  8
ADPDIM
  6
CONTINUOUS
 62
     3
 48
0.125
100
AcDbPolyline
 90
        2
 70
   128
 43
0.0
 10
-16.2395417855063
 20
15.17722765990995
 10
-16.4895417855063
 20
15.42722765990995
  0
TEXT
  5
193
330
A
100
AcDbEntity
  8
ADPDIM
 62
     3
 48
0.0
100
AcDbText
 10
-16.3020417855063
 20
14.63556099324328
 30
0.0
 40
0.125
  1
1/2
 50
90.0
 72
     5
 11
-16.3020417855063
 21
14.92722765990995
 31
0.0
100
AcDbText
  0
LWPOLYLINE
  5
194
330
A
100
AcDbEntity
  8
ADPDIM
  6
CONTINUOUS
 62
     3
 48
0.125
100
AcDbPolyline
 90
        2
 70
   128
 43
0.0
 10
-15.50586793250112
 20
16.0723498424059
 10
-15.50586793250112
 20
16.49440431308115
  0
LWPOLYLINE
  5
198
330
A
100
AcDbEntity
  8
ADPDIM
  6
CONTINUOUS
 62
     3
 48
0.125
100
AcDbPolyline
 90
        2
 70
   128
 43
0.0
 10
-13.74877951009463
 20
16.11472765990995
 10
-13.74877951009463
 20
16.49440431308115
  0
LWPOLYLINE
  5
19C
330
A
100
AcDbEntity
  8
ADPDIM
  6
CONTINUOUS
 62
     3
 48
0.125
100
AcDbPolyline
 90
        2
 70
   128
 43
0.0
 10
-15.50586793250112
 20
16.31440431308115
 10
-15.02315705463121
 20
16.31440431308115
  0
LWPOLYLINE
  5
1A0
330
A
100
AcDbEntity
  8
ADPDIM
  6
CONTINUOUS
 62
     3
 48
0.125
100
AcDbPolyline
 90
        2
 70
   128
 43
0.0
 10
-13.74877951009463
 20
16.31440431308115
 10
-14.23149038796454
 20
16.31440431308115
  0
LWPOLYLINE
  5
1A4
330
A
100
AcDbEntity
  8
ADPDIM
  6
CONTINUOUS
 62
     3
 48
0.125
100
AcDbPolyline
 90
        2
 70
   128
 43
0.0
 10
-15.63086793250112
 20
16.18940431308115
 10
-15.38086793250112
 20
16.43940431308116
  0
LWPOLYLINE
  5
1A8
330
A
100
AcDbEntity
  8
ADPDIM
  6
CONTINUOUS
 62
     3
 48
0.125
100
AcDbPolyline
 90
        2
 70
   128
 43
0.0
 10
-13.87377951009463
 20
16.18940431308115
 10
-13.62377951009463
 20
16.43940431308116
  0
TEXT
  5
1AC
330
A
100
AcDbEntity
  8
ADPDIM
 62
     3
 48
0.0
100
AcDbText
 10
-14.89815705463121
 20
16.25190431308116
 30
0.0
 40
0.125
  1
1 3/4
 72
     5
 11
-14.35649038796454
 21
16.25190431308116
 31
0.0
100
AcDbText
  0
LWPOLYLINE
  5
1AD
330
A
100
AcDbEntity
  8
ADP2DETAIL
  6
HIDDEN
 62
     5
100
AcDbPolyline
 90
        2
 70
   128
 43
0.0
 10
-14.59525305048811
 20
15.80534156712499
 10
-15.32858638382144
 20
15.80534156712499
  0
LWPOLYLINE
  5
1B1
330
A
100
AcDbEntity
  8
ADP2DETAIL
  6
HIDDEN
 62
     5
100
AcDbPolyline
 90
        2
 70
   128
 43
0.0
 10
-14.66191971715477
 20
15.74534156712499
 10
-14.66191971715477
 20
15.37200823379165
  0
LWPOLYLINE
  5
1B5
330
A
100
AcDbEntity
  8
ADP2DETAIL
  6
HIDDEN
 62
     5
100
AcDbPolyline
 90
        2
 70
   128
 43
0.0
 10
-14.78191971715477
 20
15.74534156712499
 10
-14.78191971715477
 20
15.37200823379165
  0
LWPOLYLINE
  5
1B9
330
A
100
AcDbEntity
  8
ADP2DETAIL
  6
HIDDEN
 62
     5
100
AcDbPolyline
 90
        2
 70
   128
 43
0.0
 10
-14.72191971715477
 20
15.80534156712499
 10
-14.72191971715477
 20
15.30534156712499
  0
LWPOLYLINE
  5
1BD
330
A
100
AcDbEntity
  8
ADP2DETAIL
  6
HIDDEN
 62
     5
100
AcDbPolyline
 90
        2
 70
   128
 43
0.0
 10
-14.90191971715477
 20
15.74534156712499
 10
-14.90191971715477
 20
15.37200823379165
  0
LWPOLYLINE
  5
1C1
330
A
100
AcDbEntity
  8
ADP2DETAIL
  6
HIDDEN
 62
     5
100
AcDbPolyline
 90
        2
 70
   128
 43
0.0
 10
-15.02191971715477
 20
15.74534156712499
 10
-15.02191971715477
 20
15.37200823379165
  0
LWPOLYLINE
  5
1C5
330
A
100
AcDbEntity
  8
ADP2DETAIL
  6
HIDDEN
 62
     5
100
AcDbPolyline
 90
        2
 70
   128
 43
0.0
 10
-14.84191971715477
 20
15.80534156712499
 10
-14.84191971715477
 20
15.30534156712499
  0
LWPOLYLINE
  5
1C9
330
A
100
AcDbEntity
  8
ADP2DETAIL
  6
HIDDEN
 62
     5
100
AcDbPolyline
 90
        2
 70
   128
 43
0.0
 10
-14.96191971715477
 20
15.80534156712499
 10
-14.96191971715477
 20
15.30534156712499
  0
LWPOLYLINE
  5
1CD
330
A
100
AcDbEntity
  8
ADP1DETAIL
  6
CONTINUOUS
 62
     7
100
AcDbPolyline
 90
        2
 70
   128
 43
0.0
 10
-15.64034844282774
 20
15.73911375269491
 10
-15.68034844282774
 20
15.79911375269491
  0
LWPOLYLINE
  5
1D1
330
A
100
AcDbEntity
  8
ADP1DETAIL
  6
CONTINUOUS
 62
     7
100
AcDbPolyline
 90
        2
 70
   128
 43
0.0
 10
-15.70034844282774
 20
15.73911375269491
 10
-15.64034844282774
 20
15.36578041936158
  0
LWPOLYLINE
  5
1D5
330
A
100
AcDbEntity
  8
ADP1DETAIL
  6
CONTINUOUS
 62
     7
100
AcDbPolyline
 90
        2
 70
   128
 43
0.0
 10
-15.69368177616107
 20
15.36578041936158
 10
-15.66034844282774
 20
15.29911375269491
  0
LWPOLYLINE
  5
1D9
330
A
100
AcDbEntity
  8
ADP1DETAIL
  6
CONTINUOUS
 62
     7
100
AcDbPolyline
 90
        2
 70
   128
 43
0.0
 10
-15.68034844282774
 20
15.79911375269491
 10
-15.60034844282774
 20
15.29911375269491
  0
LWPOLYLINE
  5
1DD
330
A
100
AcDbEntity
  8
ADP1DETAIL
  6
CONTINUOUS
 62
     7
100
AcDbPolyline
 90
        2
 70
   128
 43
0.0
 10
-15.70034844282774
 20
15.53244708602824
 10
-15.66034844282774
 20
15.29911375269491
  0
LWPOLYLINE
  5
1E1
330
A
100
AcDbEntity
  8
ADP1DETAIL
  6
CONTINUOUS
 62
     7
100
AcDbPolyline
 90
        2
 70
   128
 43
0.0
 10
-15.70034844282774
 20
15.73911375269491
 10
-15.70034844282774
 20
15.73911375269491
  0
LWPOLYLINE
  5
1E5
330
A
100
AcDbEntity
  8
ADP1DETAIL
  6
CONTINUOUS
 62
     7
100
AcDbPolyline
 90
        2
 70
   128
 43
0.0
 10
-15.68034844282774
 20
15.79911375269491
 10
-15.70034844282774
 20
15.73911375269491
  0
LWPOLYLINE
  5
1E9
330
A
100
AcDbEntity
  8
ADP1DETAIL
  6
CONTINUOUS
 62
     7
100
AcDbPolyline
 90
        2
 70
   128
 43
0.0
 10
-15.70034844282774
 20
15.36578041936158
 10
-15.69368177616107
 20
15.36578041936158
  0
LWPOLYLINE
  5
1ED
330
A
100
AcDbEntity
  8
ADP1DETAIL
  6
CONTINUOUS
 62
     7
100
AcDbPolyline
 90
        2
 70
   128
 43
0.0
 10
-15.70034844282774
 20
15.73911375269491
 10
-15.70034844282774
 20
15.36578041936158
  0
LWPOLYLINE
  5
1F1
330
A
100
AcDbEntity
  8
ADP1DETAIL
  6
CONTINUOUS
 62
     7
100
AcDbPolyline
 90
        2
 70
   128
 43
0.0
 10
-15.51368177616107
 20
15.73911375269491
 10
-15.45368177616107
 20
15.36578041936158
  0
LWPOLYLINE
  5
1F5
330
A
100
AcDbEntity
  8
ADP1DETAIL
  6
CONTINUOUS
 62
     7
100
AcDbPolyline
 90
        2
 70
   128
 43
0.0
 10
-15.51368177616107
 20
15.36578041936158
 10
-15.47368177616107
 20
15.29911375269491
  0
LWPOLYLINE
  5
1F9
330
A
100
AcDbEntity
  8
ADP1DETAIL
  6
CONTINUOUS
 62
     7
100
AcDbPolyline
 90
        2
 70
   128
 43
0.0
 10
-15.55368177616107
 20
15.79911375269491
 10
-15.47368177616107
 20
15.29911375269491
  0
LWPOLYLINE
  5
1FD
330
A
100
AcDbEntity
  8
ADP1DETAIL
  6
CONTINUOUS
 62
     7
100
AcDbPolyline
 90
        2
 70
   128
 43
0.0
 10
-15.58034844282774
 20
15.73911375269491
 10
-15.62034844282774
 20
15.79911375269491
  0
LWPOLYLINE
  5
201
330
A
100
AcDbEntity
  8
ADP1DETAIL
  6
CONTINUOUS
 62
     7
100
AcDbPolyline
 90
        2
 70
   128
 43
0.0
 10
-15.62034844282774
 20
15.79911375269491
 10
-15.64034844282774
 20
15.73911375269491
  0
LWPOLYLINE
  5
205
330
A
100
AcDbEntity
  8
ADP1DETAIL
  6
CONTINUOUS
 62
     7
100
AcDbPolyline
 90
        2
 70
   128
 43
0.0
 10
-15.55368177616107
 20
15.79911375269491
 10
-15.58034844282774
 20
15.73911375269491
  0
LWPOLYLINE
  5
209
330
A
100
AcDbEntity
  8
ADP1DETAIL
  6
CONTINUOUS
 62
     7
100
AcDbPolyline
 90
        2
 70
   128
 43
0.0
 10
-15.51368177616107
 20
15.73911375269491
 10
-15.55368177616107
 20
15.79911375269491
  0
LWPOLYLINE
  5
20D
330
A
100
AcDbEntity
  8
ADP1DETAIL
  6
CONTINUOUS
 62
     7
100
AcDbPolyline
 90
        2
 70
   128
 43
0.0
 10
-15.49368177616107
 20
15.79911375269491
 10
-15.51368177616107
 20
15.73911375269491
  0
LWPOLYLINE
  5
211
330
A
100
AcDbEntity
  8
ADP1DETAIL
  6
CONTINUOUS
 62
     7
100
AcDbPolyline
 90
        2
 70
   128
 43
0.0
 10
-15.57368177616107
 20
15.73911375269491
 10
-15.51368177616107
 20
15.36578041936158
  0
LWPOLYLINE
  5
215
330
A
100
AcDbEntity
  8
ADP1DETAIL
  6
CONTINUOUS
 62
     7
100
AcDbPolyline
 90
        2
 70
   128
 43
0.0
 10
-15.64034844282774
 20
15.73911375269491
 10
-15.57368177616107
 20
15.36578041936158
  0
LWPOLYLINE
  5
219
330
A
100
AcDbEntity
  8
ADP1DETAIL
  6
CONTINUOUS
 62
     7
100
AcDbPolyline
 90
        2
 70
   128
 43
0.0
 10
-15.64034844282774
 20
15.36578041936158
 10
-15.60034844282774
 20
15.29911375269491
  0
LWPOLYLINE
  5
21D
330
A
100
AcDbEntity
  8
ADP1DETAIL
  6
CONTINUOUS
 62
     7
100
AcDbPolyline
 90
        2
 70
   128
 43
0.0
 10
-15.53368177616107
 20
15.29911375269491
 10
-15.51368177616107
 20
15.36578041936158
  0
LWPOLYLINE
  5
221
330
A
100
AcDbEntity
  8
ADP1DETAIL
  6
CONTINUOUS
 62
     7
100
AcDbPolyline
 90
        2
 70
   128
 43
0.0
 10
-15.57368177616107
 20
15.36578041936158
 10
-15.53368177616107
 20
15.29911375269491
  0
LWPOLYLINE
  5
225
330
A
100
AcDbEntity
  8
ADP1DETAIL
  6
CONTINUOUS
 62
     7
100
AcDbPolyline
 90
        2
 70
   128
 43
0.0
 10
-15.60034844282774
 20
15.29911375269491
 10
-15.57368177616107
 20
15.36578041936158
  0
LWPOLYLINE
  5
229
330
A
100
AcDbEntity
  8
ADP1DETAIL
  6
CONTINUOUS
 62
     7
100
AcDbPolyline
 90
        2
 70
   128
 43
0.0
 10
-15.66034844282774
 20
15.29911375269491
 10
-15.64034844282774
 20
15.36578041936158
  0
LWPOLYLINE
  5
22D
330
A
100
AcDbEntity
  8
ADP1DETAIL
  6
CONTINUOUS
 62
     7
100
AcDbPolyline
 90
        2
 70
   128
 43
0.0
 10
-15.62034844282774
 20
15.79911375269491
 10
-15.53368177616107
 20
15.29911375269491
  0
LWPOLYLINE
  5
231
330
A
100
AcDbEntity
  8
ADP2DETAIL
  6
HIDDEN
 62
     5
100
AcDbPolyline
 90
        2
 70
   128
 43
0.0
 10
-15.19007070676683
 20
15.75156938155506
 10
-15.19007070676683
 20
15.37823604822173
  0
LWPOLYLINE
  5
235
330
A
100
AcDbEntity
  8
ADP2DETAIL
  6
HIDDEN
 62
     5
100
AcDbPolyline
 90
        2
 70
   128
 43
0.0
 10
-15.10317617625634
 20
15.79541178707504
 10
-15.11563180511649
 20
15.31587007595917
  0
LWPOLYLINE
  5
239
330
A
100
AcDbEntity
  8
ADP1DETAIL
  6
CONTINUOUS
 62
     7
100
AcDbPolyline
 90
        2
 70
   128
 43
0.0
 10
-15.3054207890003
 20
15.81027399615361
 10
-15.3254207890003
 20
15.75027399615361
  0
LWPOLYLINE
  5
23D
330
A
100
AcDbEntity
  8
ADP1DETAIL
  6
CONTINUOUS
 62
     7
100
AcDbPolyline
 90
        2
 70
   128
 43
0.0
 10
-15.3654207890003
 20
15.81027399615361
 10
-15.2854207890003
 20
15.31027399615361
  0
LWPOLYLINE
  5
241
330
A
100
AcDbEntity
  8
ADP1DETAIL
  6
CONTINUOUS
 62
     7
100
AcDbPolyline
 90
        2
 70
   128
 43
0.0
 10
-15.3254207890003
 20
15.37694066282027
 10
-15.2854207890003
 20
15.31027399615361
  0
LWPOLYLINE
  5
245
330
A
100
AcDbEntity
  8
ADP1DETAIL
  6
CONTINUOUS
 62
     7
100
AcDbPolyline
 90
        2
 70
   128
 43
0.0
 10
-15.45208745566697
 20
15.75027399615361
 10
-15.49208745566697
 20
15.81027399615361
  0
LWPOLYLINE
  5
249
330
A
100
AcDbEntity
  8
ADP1DETAIL
  6
CONTINUOUS
 62
     7
100
AcDbPolyline
 90
        2
 70
   128
 43
0.0
 10
-15.49208745566697
 20
15.81027399615361
 10
-15.41208745566697
 20
15.31027399615361
  0
LWPOLYLINE
  5
24D
330
A
100
AcDbEntity
  8
ADP1DETAIL
  6
CONTINUOUS
 62
     7
100
AcDbPolyline
 90
        2
 70
   128
 43
0.0
 10
-15.3654207890003
 20
15.81027399615361
 10
-15.38542078900031
 20
15.75027399615361
  0
LWPOLYLINE
  5
251
330
A
100
AcDbEntity
  8
ADP1DETAIL
  6
CONTINUOUS
 62
     7
100
AcDbPolyline
 90
        2
 70
   128
 43
0.0
 10
-15.38542078900031
 20
15.75027399615361
 10
-15.3254207890003
 20
15.37694066282027
  0
LWPOLYLINE
  5
255
330
A
100
AcDbEntity
  8
ADP1DETAIL
  6
CONTINUOUS
 62
     7
100
AcDbPolyline
 90
        2
 70
   128
 43
0.0
 10
-15.4254207890003
 20
15.81027399615361
 10
-15.45208745566697
 20
15.75027399615361
  0
LWPOLYLINE
  5
259
330
A
100
AcDbEntity
  8
ADP1DETAIL
  6
CONTINUOUS
 62
     7
100
AcDbPolyline
 90
        2
 70
   128
 43
0.0
 10
-15.38542078900031
 20
15.75027399615361
 10
-15.4254207890003
 20
15.81027399615361
  0
LWPOLYLINE
  5
25D
330
A
100
AcDbEntity
  8
ADP1DETAIL
  6
CONTINUOUS
 62
     7
100
AcDbPolyline
 90
        2
 70
   128
 43
0.0
 10
-15.45208745566697
 20
15.75027399615361
 10
-15.38542078900031
 20
15.37694066282027
  0
LWPOLYLINE
  5
261
330
A
100
AcDbEntity
  8
ADP1DETAIL
  6
CONTINUOUS
 62
     7
100
AcDbPolyline
 90
        2
 70
   128
 43
0.0
 10
-15.3254207890003
 20
15.75027399615361
 10
-15.3654207890003
 20
15.81027399615361
  0
LWPOLYLINE
  5
265
330
A
100
AcDbEntity
  8
ADP1DETAIL
  6
CONTINUOUS
 62
     7
100
AcDbPolyline
 90
        2
 70
   128
 43
0.0
 10
-15.3454207890003
 20
15.31027399615361
 10
-15.3254207890003
 20
15.37694066282027
  0
LWPOLYLINE
  5
269
330
A
100
AcDbEntity
  8
ADP1DETAIL
  6
CONTINUOUS
 62
     7
100
AcDbPolyline
 90
        2
 70
   128
 43
0.0
 10
-15.38542078900031
 20
15.37694066282027
 10
-15.3454207890003
 20
15.31027399615361
  0
LWPOLYLINE
  5
26D
330
A
100
AcDbEntity
  8
ADP1DETAIL
  6
CONTINUOUS
 62
     7
100
AcDbPolyline
 90
        2
 70
   128
 43
0.0
 10
-15.41208745566697
 20
15.31027399615361
 10
-15.38542078900031
 20
15.37694066282027
  0
LWPOLYLINE
  5
271
330
A
100
AcDbEntity
  8
ADP1DETAIL
  6
CONTINUOUS
 62
     7
100
AcDbPolyline
 90
        2
 70
   128
 43
0.0
 10
-15.4454207890003
 20
15.37694066282027
 10
-15.41208745566697
 20
15.31027399615361
  0
LWPOLYLINE
  5
275
330
A
100
AcDbEntity
  8
ADP1DETAIL
  6
CONTINUOUS
 62
     7
100
AcDbPolyline
 90
        2
 70
   128
 43
0.0
 10
-15.47208745566697
 20
15.31027399615361
 10
-15.4454207890003
 20
15.37694066282027
  0
LWPOLYLINE
  5
279
330
A
100
AcDbEntity
  8
ADP1DETAIL
  6
CONTINUOUS
 62
     7
100
AcDbPolyline
 90
        2
 70
   128
 43
0.0
 10
-15.4254207890003
 20
15.81027399615361
 10
-15.3454207890003
 20
15.31027399615361
  0
LWPOLYLINE
  5
27D
330
A
100
AcDbEntity
  8
ADP1DETAIL
  6
CONTINUOUS
 62
     7
100
AcDbPolyline
 90
        2
 70
   128
 43
0.0
 10
-15.2654207890003
 20
15.75027399615361
 10
-15.3054207890003
 20
15.81027399615361
  0
LWPOLYLINE
  5
281
330
A
100
AcDbEntity
  8
ADP2DETAIL
  6
HIDDEN
 62
     5
100
AcDbPolyline
 90
        2
 70
   128
 43
0.0
 10
-15.32858638382144
 20
15.30534156712499
 10
-15.26624526929345
 20
15.30534156712499
  0
LWPOLYLINE
  5
285
330
A
100
AcDbEntity
  8
ADP2DETAIL
  6
HIDDEN
 62
     5
100
AcDbPolyline
 90
        2
 70
   128
 43
0.0
 10
-15.23117021842327
 20
15.30534156712499
 10
-14.59525305048811
 20
15.30534156712499
  0
LWPOLYLINE
  5
289
330
A
100
AcDbEntity
  8
ADP1DETAIL
  6
CONTINUOUS
 62
     7
100
AcDbPolyline
 90
        2
 70
   128
 43
0.0
 10
-15.3254207890003
 20
15.75027399615361
 10
-15.25967261093354
 20
15.38208419897974
  0
LWPOLYLINE
  5
28D
330
A
100
AcDbEntity
  8
ADP1DETAIL
  6
CONTINUOUS
 62
     7
100
AcDbPolyline
 90
        2
 70
   128
 43
0.0
 10
-15.2854207890003
 20
15.31027399615361
 10
-15.26624526929345
 20
15.35821279542073
  0
LWPOLYLINE
  5
291
330
A
100
AcDbEntity
  8
ADP1DETAIL
  6
CONTINUOUS
 62
     7
100
AcDbPolyline
 90
        2
 70
   128
 43
0.0
 10
-15.3054207890003
 20
15.81027399615361
 10
-15.23120122415683
 20
15.38208419897974
  0
LWPOLYLINE
  5
295
330
A
100
AcDbEntity
  8
ADP1DETAIL
  6
CONTINUOUS
 62
     7
100
AcDbPolyline
 90
        2
 70
   128
 43
0.0
 10
-15.23117021842327
 20
15.38190531974762
 10
-15.21875412233364
 20
15.31027399615361
  0
LWPOLYLINE
  5
299
330
A
100
AcDbEntity
  8
0
  6
CONTINUOUS
 62
   250
 48
2.0
100
AcDbPolyline
 90
        2
 70
   128
 43
0.0
 10
-15.22613814436377
 20
15.30211906169756
 10
-15.23117021842327
 20
15.37357451334243
  0
LWPOLYLINE
  5
29D
330
A
100
AcDbEntity
  8
0
  6
CONTINUOUS
 62
   250
 48
2.0
100
AcDbPolyline
 90
        2
 70
   128
 43
0.0
 10
-15.2317694920597
 20
15.38208419897974
 10
-15.25727721651415
 20
15.74429388623298
  0
LWPOLYLINE
  5
2A1
330
A
100
AcDbEntity
  8
0
  6
CONTINUOUS
 62
     6
 48
2.0
100
AcDbPolyline
 90
        2
 70
   128
 43
0.0
 10
-15.23117021842327
 20
15.31689420544322
 10
-15.22957589792917
 20
15.31352841773346
  0
LWPOLYLINE
  5
2A5
330
A
100
AcDbEntity
  8
0
  6
CONTINUOUS
 62
   250
 48
2.0
100
AcDbPolyline
 90
        4
 70
   128
 43
0.0
 10
-15.26305662830526
 20
15.37570691700334
 10
-15.22160429545867
 20
15.31193409723936
 10
-15.23754750039966
 20
15.74240063064623
 10
-15.25030206435246
 20
15.74240063064623
  0
LWPOLYLINE
  5
2AB
330
A
100
AcDbEntity
  8
DEFPOINTS
  6
CONTINUOUS
 62
     3
 48
0.125
100
AcDbPolyline
 90
        2
 70
   128
 43
0.0
 10
-15.50651487905137
 20
16.05222765990995
 10
-15.50651487905137
 20
16.05222765990995
  0
LWPOLYLINE
  5
2AF
330
A
100
AcDbEntity
  8
DEFPOINTS
  6
CONTINUOUS
 62
     3
 48
0.125
100
AcDbPolyline
 90
        2
 70
   128
 43
0.0
 10
-15.50651487905137
 20
16.05222765990995
 10
-15.50651487905137
 20
16.05222765990995
  0
LWPOLYLINE
  5
2B3
330
A
100
AcDbEntity
  8
DEFPOINTS
  6
CONTINUOUS
 62
     3
 48
0.125
100
AcDbPolyline
 90
        2
 70
   128
 43
0.0
 10
-16.13318154571804
 20
15.74222765990995
 10
-16.13318154571804
 20
15.74222765990995
  0
LWPOLYLINE
  5
2B7
330
A
100
AcDbEntity
  8
DEFPOINTS
  6
CONTINUOUS
 62
     3
 48
0.125
100
AcDbPolyline
 90
        2
 70
   128
 43
0.0
 10
-16.13318154571804
 20
15.74222765990995
 10
-16.13318154571804
 20
15.74222765990995
  0
LWPOLYLINE
  5
2BB
330
A
100
AcDbEntity
  8
DEFPOINTS
  6
CONTINUOUS
 62
     3
 48
0.125
100
AcDbPolyline
 90
        2
 70
   128
 43
0.0
 10
-16.13318154571804
 20
16.31182718564245
 10
-16.13318154571804
 20
16.31182718564245
  0
LWPOLYLINE
  5
2BF
330
A
100
AcDbEntity
  8
DEFPOINTS
  6
CONTINUOUS
 62
     3
 48
0.125
100
AcDbPolyline
 90
        2
 70
   128
 43
0.0
 10
-16.13318154571804
 20
16.31182718564245
 10
-16.13318154571804
 20
16.31182718564245
  0
LWPOLYLINE
  5
2C3
330
A
100
AcDbEntity
  8
DEFPOINTS
  6
CONTINUOUS
 62
     3
 48
0.125
100
AcDbPolyline
 90
        2
 70
   128
 43
0.0
 10
-13.74877951009463
 20
15.05222765990995
 10
-13.74877951009463
 20
15.05222765990995
  0
LWPOLYLINE
  5
2C7
330
A
100
AcDbEntity
  8
DEFPOINTS
  6
CONTINUOUS
 62
     3
 48
0.125
100
AcDbPolyline
 90
        2
 70
   128
 43
0.0
 10
-13.74877951009463
 20
15.05222765990995
 10
-13.74877951009463
 20
15.05222765990995
  0
LWPOLYLINE
  5
2CB
330
A
100
AcDbEntity
  8
DEFPOINTS
  6
CONTINUOUS
 62
     3
 48
0.125
100
AcDbPolyline
 90
        2
 70
   128
 43
0.0
 10
-13.74877951009463
 20
16.05222765990995
 10
-13.74877951009463
 20
16.05222765990995
  0
LWPOLYLINE
  5
2CF
330
A
100
AcDbEntity
  8
DEFPOINTS
  6
CONTINUOUS
 62
     3
 48
0.125
100
AcDbPolyline
 90
        2
 70
   128
 43
0.0
 10
-13.74877951009463
 20
16.05222765990995
 10
-13.74877951009463
 20
16.05222765990995
  0
LWPOLYLINE
  5
2D3
330
A
100
AcDbEntity
  8
DEFPOINTS
  6
CONTINUOUS
 62
     3
 48
0.125
100
AcDbPolyline
 90
        2
 70
   128
 43
0.0
 10
-13.14625734993642
 20
16.05222765990995
 10
-13.14625734993642
 20
16.05222765990995
  0
LWPOLYLINE
  5
2D7
330
A
100
AcDbEntity
  8
DEFPOINTS
  6
CONTINUOUS
 62
     3
 48
0.125
100
AcDbPolyline
 90
        2
 70
   128
 43
0.0
 10
-13.14625734993642
 20
16.05222765990995
 10
-13.14625734993642
 20
16.05222765990995
  0
LWPOLYLINE
  5
2DB
330
A
100
AcDbEntity
  8
DEFPOINTS
  6
CONTINUOUS
 62
     3
 48
0.125
100
AcDbPolyline
 90
        2
 70
   128
 43
0.0
 10
-13.75651487905137
 20
15.30222765990995
 10
-13.75651487905137
 20
15.30222765990995
  0
LWPOLYLINE
  5
2DF
330
A
100
AcDbEntity
  8
DEFPOINTS
  6
CONTINUOUS
 62
     3
 48
0.125
100
AcDbPolyline
 90
        2
 70
   128
 43
0.0
 10
-13.75651487905137
 20
15.30222765990995
 10
-13.75651487905137
 20
15.30222765990995
  0
LWPOLYLINE
  5
2E3
330
A
100
AcDbEntity
  8
DEFPOINTS
  6
CONTINUOUS
 62
     3
 48
0.125
100
AcDbPolyline
 90
        2
 70
   128
 43
0.0
 10
-13.75651487905137
 20
15.80222765990995
 10
-13.75651487905137
 20
15.80222765990995
  0
LWPOLYLINE
  5
2E7
330
A
100
AcDbEntity
  8
DEFPOINTS
  6
CONTINUOUS
 62
     3
 48
0.125
100
AcDbPolyline
 90
        2
 70
   128
 43
0.0
 10
-13.75651487905137
 20
15.80222765990995
 10
-13.75651487905137
 20
15.80222765990995
  0
LWPOLYLINE
  5
2EB
330
A
100
AcDbEntity
  8
DEFPOINTS
  6
CONTINUOUS
 62
     3
 48
0.125
100
AcDbPolyline
 90
        2
 70
   128
 43
0.0
 10
-13.52789019377449
 20
15.80222765990995
 10
-13.52789019377449
 20
15.80222765990995
  0
LWPOLYLINE
  5
2EF
330
A
100
AcDbEntity
  8
DEFPOINTS
  6
CONTINUOUS
 62
     3
 48
0.125
100
AcDbPolyline
 90
        2
 70
   128
 43
0.0
 10
-13.52789019377449
 20
15.80222765990995
 10
-13.52789019377449
 20
15.80222765990995
  0
LWPOLYLINE
  5
2F3
330
A
100
AcDbEntity
  8
DEFPOINTS
  6
CONTINUOUS
 62
     3
 48
0.125
100
AcDbPolyline
 90
        2
 70
   128
 43
0.0
 10
-16.11318154571804
 20
15.80222765990995
 10
-16.11318154571804
 20
15.80222765990995
  0
LWPOLYLINE
  5
2F7
330
A
100
AcDbEntity
  8
DEFPOINTS
  6
CONTINUOUS
 62
     3
 48
0.125
100
AcDbPolyline
 90
        2
 70
   128
 43
0.0
 10
-16.11318154571804
 20
15.80222765990995
 10
-16.11318154571804
 20
15.80222765990995
  0
LWPOLYLINE
  5
2FB
330
A
100
AcDbEntity
  8
DEFPOINTS
  6
CONTINUOUS
 62
     3
 48
0.125
100
AcDbPolyline
 90
        2
 70
   128
 43
0.0
 10
-16.09318154571804
 20
15.30222765990995
 10
-16.09318154571804
 20
15.30222765990995
  0
LWPOLYLINE
  5
2FF
330
A
100
AcDbEntity
  8
DEFPOINTS
  6
CONTINUOUS
 62
     3
 48
0.125
100
AcDbPolyline
 90
        2
 70
   128
 43
0.0
 10
-16.09318154571804
 20
15.30222765990995
 10
-16.09318154571804
 20
15.30222765990995
  0
LWPOLYLINE
  5
303
330
A
100
AcDbEntity
  8
DEFPOINTS
  6
CONTINUOUS
 62
     3
 48
0.125
100
AcDbPolyline
 90
        2
 70
   128
 43
0.0
 10
-16.3645417855063
 20
15.30222765990995
 10
-16.3645417855063
 20
15.30222765990995
  0
LWPOLYLINE
  5
307
330
A
100
AcDbEntity
  8
DEFPOINTS
  6
CONTINUOUS
 62
     3
 48
0.125
100
AcDbPolyline
 90
        2
 70
   128
 43
0.0
 10
-16.3645417855063
 20
15.30222765990995
 10
-16.3645417855063
 20
15.30222765990995
  0
LWPOLYLINE
  5
30B
330
A
100
AcDbEntity
  8
DEFPOINTS
  6
CONTINUOUS
 62
     3
 48
0.125
100
AcDbPolyline
 90
        2
 70
   128
 43
0.0
 10
-15.50586793250112
 20
16.0098498424059
 10
-15.50586793250112
 20
16.0098498424059
  0
LWPOLYLINE
  5
30F
330
A
100
AcDbEntity
  8
DEFPOINTS
  6
CONTINUOUS
 62
     3
 48
0.125
100
AcDbPolyline
 90
        2
 70
   128
 43
0.0
 10
-15.50586793250112
 20
16.0098498424059
 10
-15.50586793250112
 20
16.0098498424059
  0
LWPOLYLINE
  5
313
330
A
100
AcDbEntity
  8
DEFPOINTS
  6
CONTINUOUS
 62
     3
 48
0.125
100
AcDbPolyline
 90
        2
 70
   128
 43
0.0
 10
-13.74877951009463
 20
16.05222765990995
 10
-13.74877951009463
 20
16.05222765990995
  0
LWPOLYLINE
  5
317
330
A
100
AcDbEntity
  8
DEFPOINTS
  6
CONTINUOUS
 62
     3
 48
0.125
100
AcDbPolyline
 90
        2
 70
   128
 43
0.0
 10
-13.74877951009463
 20
16.05222765990995
 10
-13.74877951009463
 20
16.05222765990995
  0
LWPOLYLINE
  5
31B
330
A
100
AcDbEntity
  8
DEFPOINTS
  6
CONTINUOUS
 62
     3
 48
0.125
100
AcDbPolyline
 90
        2
 70
   128
 43
0.0
 10
-13.74877951009463
 20
16.31440431308115
 10
-13.74877951009463
 20
16.31440431308115
  0
LWPOLYLINE
  5
31F
330
A
100
AcDbEntity
  8
DEFPOINTS
  6
CONTINUOUS
 62
     3
 48
0.125
100
AcDbPolyline
 90
        2
 70
   128
 43
0.0
 10
-13.74877951009463
 20
16.31440431308115
 10
-13.74877951009463
 20
16.31440431308115
  0
LWPOLYLINE
  5
323
330
A
100
AcDbEntity
  8
DEFPOINTS
  6
CONTINUOUS
 62
     3
 48
0.125
100
AcDbPolyline
 90
        2
 70
   128
 43
0.0
 10
-14.57858638382144
 20
15.30534156712499
 10
-14.57858638382144
 20
15.30534156712499
  0
LWPOLYLINE
  5
327
330
A
100
AcDbEntity
  8
DEFPOINTS
  6
CONTINUOUS
 62
     3
 48
0.125
100
AcDbPolyline
 90
        2
 70
   128
 43
0.0
 10
-14.57858638382144
 20
15.30534156712499
 10
-14.57858638382144
 20
15.30534156712499
  0
LWPOLYLINE
  5
32B
330
A
100
AcDbEntity
  8
DEFPOINTS
  6
CONTINUOUS
 62
     3
 48
0.125
100
AcDbPolyline
 90
        2
 70
   128
 43
0.0
 10
-14.57858638382144
 20
15.80534156712499
 10
-14.57858638382144
 20
15.80534156712499
  0
LWPOLYLINE
  5
32F
330
A
100
AcDbEntity
  8
DEFPOINTS
  6
CONTINUOUS
 62
     3
 48
0.125
100
AcDbPolyline
 90
        2
 70
   128
 43
0.0
 10
-14.57858638382144
 20
15.80534156712499
 10
-14.57858638382144
 20
15.80534156712499
  0
LWPOLYLINE
  5
333
330
A
100
AcDbEntity
  8
DEFPOINTS
  6
CONTINUOUS
 62
     3
 48
0.125
100
AcDbPolyline
 90
        2
 70
   128
 43
0.0
 10
-15.70034844282774
 20
15.73911375269491
 10
-15.70034844282774
 20
15.73911375269491
  0
LWPOLYLINE
  5
337
330
A
100
AcDbEntity
  8
DEFPOINTS
  6
CONTINUOUS
 62
     3
 48
0.125
100
AcDbPolyline
 90
        2
 70
   128
 43
0.0
 10
-15.70034844282774
 20
15.73911375269491
 10
-15.70034844282774
 20
15.73911375269491
  0
LWPOLYLINE
  5
33B
330
A
100
AcDbEntity
  8
DEFPOINTS
  6
CONTINUOUS
 62
     3
 48
0.125
100
AcDbPolyline
 90
        2
 70
   128
 43
0.0
 10
-15.68034844282774
 20
15.79911375269491
 10
-15.68034844282774
 20
15.79911375269491
  0
LWPOLYLINE
  5
33F
330
A
100
AcDbEntity
  8
DEFPOINTS
  6
CONTINUOUS
 62
     3
 48
0.125
100
AcDbPolyline
 90
        2
 70
   128
 43
0.0
 10
-15.68034844282774
 20
15.79911375269491
 10
-15.68034844282774
 20
15.79911375269491
  0
LWPOLYLINE
  5
343
330
A
100
AcDbEntity
  8
DEFPOINTS
  6
CONTINUOUS
 62
     3
 48
0.125
100
AcDbPolyline
 90
        2
 70
   128
 43
0.0
 10
-15.66034844282774
 20
15.29911375269491
 10
-15.66034844282774
 20
15.29911375269491
  0
LWPOLYLINE
  5
347
330
A
100
AcDbEntity
  8
DEFPOINTS
  6
CONTINUOUS
 62
     3
 48
0.125
100
AcDbPolyline
 90
        2
 70
   128
 43
0.0
 10
-15.66034844282774
 20
15.29911375269491
 10
-15.66034844282774
 20
15.29911375269491
  0
TEXT
  5
3F7
330
A
100
AcDbEntity
  8
ADPDIM
100
AcDbText
 10
-19.47182352472307
 20
13.8215965312643
 30
0.0
 40
0.09375
  1
J U L I U S  B L U M  &  C O . ,  I N C .      ( 8 0 0 )  5 2 6 - 6 2 9 3        W W W . J U L I U S B L U M . C O M        P A R T  N O .  2 4 5
 41
1.25
  7
ARIAL_WIDE
 72
     1
 11
-14.627647194573
 21
13.9153465312643
 31
0.0
100
AcDbText
 73
     3
  0
ENDSEC
  0
SECTION
  2
OBJECTS
  0
DICTIONARY
  5
19
330
0
100
AcDbDictionary
  3
ACAD_GROUP
350
1A
  3
ACAD_LAYOUT
350
350
  3
ACAD_MLINESTYLE
350
1B
  3
ACAD_PLOTSETTINGS
350
351
  3
ACAD_PLOTSTYLENAME
350
34E
  3
ACDBHEADERROUNDTRIPXREC
350
4C1
  3
ACDBVARIABLEDICTIONARY
350
3BE
  0
DICTIONARY
  5
3B2
330
A
100
AcDbDictionary
280
     1
  3
ACAD_LAYOUTSELFREF
360
4E1
  0
DICTIONARY
  5
3B4
330
B
100
AcDbDictionary
280
     1
  3
ACAD_LAYOUTSELFREF
360
4E2
  0
DICTIONARY
  5
1A
102
{ACAD_REACTORS
330
19
102
}
330
19
100
AcDbDictionary
  0
DICTIONARY
  5
350
102
{ACAD_REACTORS
330
19
102
}
330
19
100
AcDbDictionary
  0
DICTIONARY
  5
1B
102
{ACAD_REACTORS
330
19
102
}
330
19
100
AcDbDictionary
  3
STANDARD
350
1C
  0
DICTIONARY
  5
351
102
{ACAD_REACTORS
330
19
102
}
330
19
100
AcDbDictionary
  0
ACDBDICTIONARYWDFLT
  5
34E
102
{ACAD_REACTORS
330
19
102
}
330
19
100
AcDbDictionary
281
     1
  3
Normal
350
34F
100
AcDbDictionaryWithDefault
340
34F
  0
DICTIONARY
  5
4C1
102
{ACAD_REACTORS
330
19
102
}
330
19
100
AcDbDictionary
  3
CEPSNTYPE
350
4CB
  3
FINGERPRINTGUID
350
4CC
  3
HYPERLINKBASE
350
4C4
  3
INSUNITS
350
4CA
  3
LAYOUTDICT
350
4C6
  3
LWETCUNION
350
4C9
  3
PLOTSETDICT
350
4C7
  3
PLOTSTYLNAMDICT
350
4C8
  3
PSVPSCALE
350
4CE
  3
PUCSBASE
350
4D1
  3
PUCSORGBACK
350
4D7
  3
PUCSORGBOTTOM
350
4D3
  3
PUCSORGFRONT
350
4D6
  3
PUCSORGLEFT
350
4D4
  3
PUCSORGRIGHT
350
4D5
  3
PUCSORGTOP
350
4D2
  3
PUCSORTHOREF
350
4CF
  3
PUCSORTHOVIEW
350
4D0
  3
STYLESHEET
350
4C5
  3
TSTACKALIGN
350
4C2
  3
TSTACKSIZE
350
4C3
  3
UCSBASE
350
4DA
  3
UCSORGBACK
350
4E0
  3
UCSORGBOTTOM
350
4DC
  3
UCSORGFRONT
350
4DF
  3
UCSORGLEFT
350
4DD
  3
UCSORGRIGHT
350
4DE
  3
UCSORGTOP
350
4DB
  3
UCSORTHOREF
350
4D8
  3
UCSORTHOVIEW
350
4D9
  3
VERSIONGUID
350
4CD
  0
DICTIONARY
  5
3BE
102
{ACAD_REACTORS
330
19
102
}
330
19
100
AcDbDictionary
  3
DIMASSOC
350
3BF
  0
XRECORD
  5
4E1
102
{ACAD_REACTORS
330
3B2
102
}
330
3B2
100
AcDbXrecord
340
A
  0
XRECORD
  5
4E2
102
{ACAD_REACTORS
330
3B4
102
}
330
3B4
100
AcDbXrecord
340
B
  0
MLINESTYLE
  5
1C
102
{ACAD_REACTORS
330
1B
102
}
330
1B
100
AcDbMlineStyle
  2
STANDARD
 70
     0
  3

 62
     0
 51
90.00000000000019
 52
90.00000000000019
 71
     2
 49
0.5
 62
   256
  6
BYLAYER
 49
-0.5
 62
   256
  6
BYLAYER
  0
ACDBPLACEHOLDER
  5
34F
102
{ACAD_REACTORS
330
34E
102
}
330
34E
100
AcDbPlaceHolder
280
     0
  0
XRECORD
  5
4CB
102
{ACAD_REACTORS
330
4C1
102
}
330
4C1
100
AcDbXrecord
 90
        0
  0
XRECORD
  5
4CC
102
{ACAD_REACTORS
330
4C1
102
}
330
4C1
100
AcDbXrecord
  1
{12BE98B6-8054-436D-9D16-64A5A39A177D}
  0
XRECORD
  5
4C4
102
{ACAD_REACTORS
330
4C1
102
}
330
4C1
100
AcDbXrecord
  1

  0
XRECORD
  5
4CA
102
{ACAD_REACTORS
330
4C1
102
}
330
4C1
100
AcDbXrecord
 90
        0
  0
XRECORD
  5
4C6
102
{ACAD_REACTORS
330
4C1
102
}
330
4C1
100
AcDbXrecord
340
350
  0
XRECORD
  5
4C9
102
{ACAD_REACTORS
330
4C1
102
}
330
4C1
100
AcDbXrecord
 90
    14877
  0
XRECORD
  5
4C7
102
{ACAD_REACTORS
330
4C1
102
}
330
4C1
100
AcDbXrecord
340
351
  0
XRECORD
  5
4C8
102
{ACAD_REACTORS
330
4C1
102
}
330
4C1
100
AcDbXrecord
340
34E
  0
XRECORD
  5
4CE
102
{ACAD_REACTORS
330
4C1
102
}
330
4C1
100
AcDbXrecord
 40
0.0
  0
XRECORD
  5
4D1
102
{ACAD_REACTORS
330
4C1
102
}
330
4C1
100
AcDbXrecord
340
0
  0
XRECORD
  5
4D7
102
{ACAD_REACTORS
330
4C1
102
}
330
4C1
100
AcDbXrecord
 10
0.0
 20
0.0
 30
0.0
  0
XRECORD
  5
4D3
102
{ACAD_REACTORS
330
4C1
102
}
330
4C1
100
AcDbXrecord
 10
0.0
 20
0.0
 30
0.0
  0
XRECORD
  5
4D6
102
{ACAD_REACTORS
330
4C1
102
}
330
4C1
100
AcDbXrecord
 10
0.0
 20
0.0
 30
0.0
  0
XRECORD
  5
4D4
102
{ACAD_REACTORS
330
4C1
102
}
330
4C1
100
AcDbXrecord
 10
0.0
 20
0.0
 30
0.0
  0
XRECORD
  5
4D5
102
{ACAD_REACTORS
330
4C1
102
}
330
4C1
100
AcDbXrecord
 10
0.0
 20
0.0
 30
0.0
  0
XRECORD
  5
4D2
102
{ACAD_REACTORS
330
4C1
102
}
330
4C1
100
AcDbXrecord
 10
0.0
 20
0.0
 30
0.0
  0
XRECORD
  5
4CF
102
{ACAD_REACTORS
330
4C1
102
}
330
4C1
100
AcDbXrecord
340
0
  0
XRECORD
  5
4D0
102
{ACAD_REACTORS
330
4C1
102
}
330
4C1
100
AcDbXrecord
 70
     0
  0
XRECORD
  5
4C5
102
{ACAD_REACTORS
330
4C1
102
}
330
4C1
100
AcDbXrecord
  1

  0
XRECORD
  5
4C2
102
{ACAD_REACTORS
330
4C1
102
}
330
4C1
100
AcDbXrecord
 90
        1
  0
XRECORD
  5
4C3
102
{ACAD_REACTORS
330
4C1
102
}
330
4C1
100
AcDbXrecord
 90
       70
  0
XRECORD
  5
4DA
102
{ACAD_REACTORS
330
4C1
102
}
330
4C1
100
AcDbXrecord
340
0
  0
XRECORD
  5
4E0
102
{ACAD_REACTORS
330
4C1
102
}
330
4C1
100
AcDbXrecord
 10
0.0
 20
0.0
 30
0.0
  0
XRECORD
  5
4DC
102
{ACAD_REACTORS
330
4C1
102
}
330
4C1
100
AcDbXrecord
 10
0.0
 20
0.0
 30
0.0
  0
XRECORD
  5
4DF
102
{ACAD_REACTORS
330
4C1
102
}
330
4C1
100
AcDbXrecord
 10
0.0
 20
0.0
 30
0.0
  0
XRECORD
  5
4DD
102
{ACAD_REACTORS
330
4C1
102
}
330
4C1
100
AcDbXrecord
 10
0.0
 20
0.0
 30
0.0
  0
XRECORD
  5
4DE
102
{ACAD_REACTORS
330
4C1
102
}
330
4C1
100
AcDbXrecord
 10
0.0
 20
0.0
 30
0.0
  0
XRECORD
  5
4DB
102
{ACAD_REACTORS
330
4C1
102
}
330
4C1
100
AcDbXrecord
 10
0.0
 20
0.0
 30
0.0
  0
XRECORD
  5
4D8
102
{ACAD_REACTORS
330
4C1
102
}
330
4C1
100
AcDbXrecord
340
0
  0
XRECORD
  5
4D9
102
{ACAD_REACTORS
330
4C1
102
}
330
4C1
100
AcDbXrecord
 70
     0
  0
XRECORD
  5
4CD
102
{ACAD_REACTORS
330
4C1
102
}
330
4C1
100
AcDbXrecord
  1
{0692FCDA-1D9F-4A33-96A8-348ABF541C92}
  0
DICTIONARYVAR
  5
3BF
102
{ACAD_REACTORS
330
3BE
102
}
330
3BE
100
DictionaryVariables
280
     0
  1
1
  0
ENDSEC
  0
EOF
