  0
SECTION
  2
HEADER
  9
$ACADVER
  1
AC1014
  9
$ACADMAINTVER
 70
     9
  9
$DWGCODEPAGE
  3
ANSI_1252
  9
$INSBASE
 10
0.0
 20
0.0
 30
0.0
  9
$EXTMIN
 10
18.3492157505833
 20
12.81904327261851
 30
0.0
  9
$EXTMAX
 10
31.26701929765015
 20
17.79164576788192
 30
0.0
  9
$LIMMIN
 10
0.0
 20
0.0
  9
$LIMMAX
 10
0.0
 20
0.0
  9
$ORTHOMODE
 70
     1
  9
$REGENMODE
 70
     1
  9
$FILLMODE
 70
     1
  9
$QTEXTMODE
 70
     0
  9
$MIRRTEXT
 70
     1
  9
$DRAGMODE
 70
     0
  9
$LTSCALE
 40
1.0
  9
$OSMODE
 70
    37
  9
$ATTMODE
 70
     1
  9
$TEXTSIZE
 40
0.0
  9
$TRACEWID
 40
0.05
  9
$TEXTSTYLE
  7
STANDARD
  9
$CLAYER
  8
0
  9
$CELTYPE
  6
CONTINUOUS
  9
$CECOLOR
 62
   256
  9
$CELTSCALE
 40
1.0
  9
$DELOBJ
 70
     1
  9
$DISPSILH
 70
     0
  9
$DIMSCALE
 40
1.0
  9
$DIMASZ
 40
0.18
  9
$DIMEXO
 40
0.0625
  9
$DIMDLI
 40
0.38
  9
$DIMRND
 40
0.0
  9
$DIMDLE
 40
0.0
  9
$DIMEXE
 40
0.18
  9
$DIMTP
 40
0.0
  9
$DIMTM
 40
0.0
  9
$DIMTXT
 40
0.18
  9
$DIMCEN
 40
0.09
  9
$DIMTSZ
 40
0.0
  9
$DIMTOL
 70
     0
  9
$DIMLIM
 70
     0
  9
$DIMTIH
 70
     1
  9
$DIMTOH
 70
     1
  9
$DIMSE1
 70
     0
  9
$DIMSE2
 70
     0
  9
$DIMTAD
 70
     0
  9
$DIMZIN
 70
     0
  9
$DIMBLK
  1

  9
$DIMASO
 70
     1
  9
$DIMSHO
 70
     1
  9
$DIMPOST
  1

  9
$DIMAPOST
  1

  9
$DIMALT
 70
     0
  9
$DIMALTD
 70
     2
  9
$DIMALTF
 40
25.4
  9
$DIMLFAC
 40
1.0
  9
$DIMTOFL
 70
     0
  9
$DIMTVP
 40
0.0
  9
$DIMTIX
 70
     0
  9
$DIMSOXD
 70
     0
  9
$DIMSAH
 70
     0
  9
$DIMBLK1
  1

  9
$DIMBLK2
  1

  9
$DIMSTYLE
  2
STANDARD
  9
$DIMCLRD
 70
     0
  9
$DIMCLRE
 70
     0
  9
$DIMCLRT
 70
     0
  9
$DIMTFAC
 40
1.0
  9
$DIMGAP
 40
0.09
  9
$DIMJUST
 70
     0
  9
$DIMSD1
 70
     0
  9
$DIMSD2
 70
     0
  9
$DIMTOLJ
 70
     1
  9
$DIMTZIN
 70
     0
  9
$DIMALTZ
 70
     0
  9
$DIMALTTZ
 70
     0
  9
$DIMFIT
 70
     3
  9
$DIMUPT
 70
     0
  9
$DIMUNIT
 70
     2
  9
$DIMDEC
 70
     4
  9
$DIMTDEC
 70
     4
  9
$DIMALTU
 70
     2
  9
$DIMALTTD
 70
     2
  9
$DIMTXSTY
  7
STANDARD
  9
$DIMAUNIT
 70
     0
  9
$LUNITS
 70
     2
  9
$LUPREC
 70
     4
  9
$SKETCHINC
 40
0.1
  9
$FILLETRAD
 40
0.0
  9
$AUNITS
 70
     0
  9
$AUPREC
 70
     0
  9
$MENU
  1
acad
  9
$ELEVATION
 40
0.0
  9
$PELEVATION
 40
0.0
  9
$THICKNESS
 40
0.0
  9
$LIMCHECK
 70
     0
  9
$BLIPMODE
 70
     0
  9
$CHAMFERA
 40
0.0
  9
$CHAMFERB
 40
0.0
  9
$CHAMFERC
 40
0.0
  9
$CHAMFERD
 40
0.0
  9
$SKPOLY
 70
     0
  9
$TDCREATE
 40
2444971.791666666
  9
$TDUPDATE
 40
2452297.065819224
  9
$TDINDWG
 40
0.0187024306
  9
$TDUSRTIMER
 40
0.0187024306
  9
$USRTIMER
 70
     1
  9
$ANGBASE
 50
0.0
  9
$ANGDIR
 70
     0
  9
$PDMODE
 70
     0
  9
$PDSIZE
 40
0.0
  9
$PLINEWID
 40
0.0
  9
$COORDS
 70
     2
  9
$SPLFRAME
 70
     0
  9
$SPLINETYPE
 70
     6
  9
$SPLINESEGS
 70
     8
  9
$ATTDIA
 70
     0
  9
$ATTREQ
 70
     1
  9
$HANDLING
 70
 22529
  9
$HANDSEED
  5
416
  9
$SURFTAB1
 70
     6
  9
$SURFTAB2
 70
     6
  9
$SURFTYPE
 70
     6
  9
$SURFU
 70
     6
  9
$SURFV
 70
     6
  9
$UCSNAME
  2

  9
$UCSORG
 10
0.0
 20
0.0
 30
0.0
  9
$UCSXDIR
 10
1.0
 20
0.0
 30
0.0
  9
$UCSYDIR
 10
0.0
 20
1.0
 30
0.0
  9
$PUCSNAME
  2

  9
$PUCSORG
 10
0.0
 20
0.0
 30
0.0
  9
$PUCSXDIR
 10
1.0
 20
0.0
 30
0.0
  9
$PUCSYDIR
 10
0.0
 20
1.0
 30
0.0
  9
$USERI1
 70
     0
  9
$USERI2
 70
     0
  9
$USERI3
 70
     0
  9
$USERI4
 70
     0
  9
$USERI5
 70
     0
  9
$USERR1
 40
0.0
  9
$USERR2
 40
0.0
  9
$USERR3
 40
0.0
  9
$USERR4
 40
0.0
  9
$USERR5
 40
0.0
  9
$WORLDVIEW
 70
     1
  9
$SHADEDGE
 70
     3
  9
$SHADEDIF
 70
    70
  9
$TILEMODE
 70
     1
  9
$MAXACTVP
 70
    16
  9
$PINSBASE
 10
0.0
 20
0.0
 30
0.0
  9
$PLIMCHECK
 70
     0
  9
$PEXTMIN
 10
1.000000000000000E+20
 20
1.000000000000000E+20
 30
1.000000000000000E+20
  9
$PEXTMAX
 10
-1.000000000000000E+20
 20
-1.000000000000000E+20
 30
-1.000000000000000E+20
  9
$PLIMMIN
 10
0.0
 20
0.0
  9
$PLIMMAX
 10
12.0
 20
9.0
  9
$UNITMODE
 70
     0
  9
$VISRETAIN
 70
     0
  9
$PLINEGEN
 70
     0
  9
$PSLTSCALE
 70
     0
  9
$TREEDEPTH
 70
  3020
  9
$PICKSTYLE
 70
     1
  9
$CMLSTYLE
  2
STANDARD
  9
$CMLJUST
 70
     0
  9
$CMLSCALE
 40
1.0
  9
$PROXYGRAPHICS
 70
     1
  9
$MEASUREMENT
 70
     0
  0
ENDSEC
  0
SECTION
  2
CLASSES
  0
CLASS
  1
LWPOLYLINE
  2
AcDbPolyline
  3
AutoCAD 2000
 90
        0
280
     0
281
     1
  0
CLASS
  1
IMAGE
  2
AcDbRasterImage
  3
ISM
 90
      127
280
     0
281
     1
  0
CLASS
  1
OLE2FRAME
  2
AcDbOle2Frame
  3
AutoCAD 2000
 90
        0
280
     0
281
     1
  0
CLASS
  1
HATCH
  2
AcDbHatch
  3
AutoCAD 2000
 90
        0
280
     0
281
     1
  0
CLASS
  1
DICTIONARYVAR
  2
AcDbDictionaryVar
  3
AutoCAD 2000
 90
        0
280
     0
281
     0
  0
CLASS
  1
RASTERVARIABLES
  2
AcDbRasterVariables
  3
ISM
 90
        0
280
     0
281
     0
  0
CLASS
  1
IMAGEDEF
  2
AcDbRasterImageDef
  3
ISM
 90
        0
280
     0
281
     0
  0
CLASS
  1
IMAGEDEF_REACTOR
  2
AcDbRasterImageDefReactor
  3
ISM
 90
        1
280
     0
281
     0
  0
CLASS
  1
IDBUFFER
  2
AcDbIdBuffer
  3
AutoCAD 2000
 90
        0
280
     0
281
     0
  0
CLASS
  1
SPATIAL_FILTER
  2
AcDbSpatialFilter
  3
AutoCAD 2000
 90
        0
280
     0
281
     0
  0
CLASS
  1
XRECORD
  2
AcDbXrecord
  3
AutoCAD 2000
 90
        0
280
     0
281
     0
  0
CLASS
  1
SORTENTSTABLE
  2
AcDbSortentsTable
  3
AutoCAD 2000
 90
        0
280
     0
281
     0
  0
CLASS
  1
LAYER_INDEX
  2
AcDbLayerIndex
  3
AutoCAD 2000
 90
        0
280
     0
281
     0
  0
CLASS
  1
SPATIAL_INDEX
  2
AcDbSpatialIndex
  3
AutoCAD 2000
 90
        0
280
     0
281
     0
  0
CLASS
  1
OBJECT_PTR
  2
CAseDLPNTableRecord
  3
ASE-LPNTableRecord
 90
        1
280
     0
281
     0
  0
CLASS
  1
ACDBDICTIONARYWDFLT
  2
AcDbDictionaryWithDefault
  3
AutoCAD 2000
 90
        0
280
     0
281
     0
  0
CLASS
  1
ACDBPLACEHOLDER
  2
AcDbPlaceHolder
  3
AutoCAD 2000
 90
        0
280
     0
281
     0
  0
CLASS
  1
LAYOUT
  2
AcDbLayout
  3
AutoCAD 2000
 90
        0
280
     0
281
     0
  0
CLASS
  1
LONG_TRANSACTION
  2
AcDbLongTransaction
  3
AutoCAD 2000
 90
        0
280
     0
281
     0
  0
CLASS
  1
LWPOLYLINE
  2
AcDbPolyline
  3
AutoCAD 2000
 90
        0
280
     0
281
     1
  0
CLASS
  1
HATCH
  2
AcDbHatch
  3
AutoCAD 2000
 90
        0
280
     0
281
     1
  0
CLASS
  1
XRECORD
  2
AcDbXrecord
  3
AutoCAD 2000
 90
        0
280
     0
281
     0
  0
CLASS
  1
LONG_TRANSACTION
  2
AcDbLongTransaction
  3
AutoCAD 2000
 90
        0
280
     0
281
     0
  0
CLASS
  1
LWPOLYLINE
  2
AcDbPolyline
  3
AutoCAD 2000
 90
        0
280
     0
281
     1
  0
CLASS
  1
HATCH
  2
AcDbHatch
  3
AutoCAD 2000
 90
        0
280
     0
281
     1
  0
CLASS
  1
XRECORD
  2
AcDbXrecord
  3
AutoCAD 2000
 90
        0
280
     0
281
     0
  0
CLASS
  1
LONG_TRANSACTION
  2
AcDbLongTransaction
  3
AutoCAD 2000
 90
        0
280
     0
281
     0
  0
CLASS
  1
LWPOLYLINE
  2
AcDbPolyline
  3
AutoCAD 2000
 90
        0
280
     0
281
     1
  0
CLASS
  1
HATCH
  2
AcDbHatch
  3
AutoCAD 2000
 90
        0
280
     0
281
     1
  0
CLASS
  1
XRECORD
  2
AcDbXrecord
  3
AutoCAD 2000
 90
        0
280
     0
281
     0
  0
CLASS
  1
LONG_TRANSACTION
  2
AcDbLongTransaction
  3
AutoCAD 2000
 90
        0
280
     0
281
     0
  0
CLASS
  1
LWPOLYLINE
  2
AcDbPolyline
  3
AutoCAD 2000
 90
        0
280
     0
281
     1
  0
CLASS
  1
HATCH
  2
AcDbHatch
  3
AutoCAD 2000
 90
        0
280
     0
281
     1
  0
CLASS
  1
XRECORD
  2
AcDbXrecord
  3
AutoCAD 2000
 90
        0
280
     0
281
     0
  0
CLASS
  1
LONG_TRANSACTION
  2
AcDbLongTransaction
  3
AutoCAD 2000
 90
        0
280
     0
281
     0
  0
CLASS
  1
LWPOLYLINE
  2
AcDbPolyline
  3
AutoCAD 2000
 90
        0
280
     0
281
     1
  0
CLASS
  1
HATCH
  2
AcDbHatch
  3
AutoCAD 2000
 90
        0
280
     0
281
     1
  0
CLASS
  1
XRECORD
  2
AcDbXrecord
  3
AutoCAD 2000
 90
        0
280
     0
281
     0
  0
CLASS
  1
LONG_TRANSACTION
  2
AcDbLongTransaction
  3
AutoCAD 2000
 90
        0
280
     0
281
     0
  0
CLASS
  1
LWPOLYLINE
  2
AcDbPolyline
  3
AutoCAD 2000
 90
        0
280
     0
281
     1
  0
CLASS
  1
HATCH
  2
AcDbHatch
  3
AutoCAD 2000
 90
        0
280
     0
281
     1
  0
CLASS
  1
XRECORD
  2
AcDbXrecord
  3
AutoCAD 2000
 90
        0
280
     0
281
     0
  0
ENDSEC
  0
SECTION
  2
TABLES
  0
TABLE
  2
VPORT
  5
7
330
0
100
AcDbSymbolTable
 70
     3
  0
VPORT
  5
2E
330
7
100
AcDbSymbolTableRecord
100
AcDbViewportTableRecord
  2
DCADVPORT
 70
     0
 10
19.87340094617803
 20
13.98776432414923
 11
28.8629787681224
 21
17.79164576788192
 12
6.209999999999999
 22
9.019999999999999
 13
0.0
 23
0.0
 14
1.0
 24
1.0
 15
0.0
 25
0.0
 16
0.0
 26
0.0
 36
1.0
 17
0.0
 27
0.0
 37
0.0
 40
18.04
 41
0.688564
 42
50.0
 43
1.0
 44
1.0
 50
0.0
 51
0.0
 71
     0
 72
   100
 73
     1
 74
     1
 75
     0
 76
     0
 77
     0
 78
     0
  0
VPORT
  5
3F3
330
7
100
AcDbSymbolTableRecord
100
AcDbViewportTableRecord
  2
*ACTIVE
 70
     0
 10
0.0
 20
0.0
 11
1.0
 21
1.0
 12
24.80715680491092
 22
15.30508924247265
 13
0.0
 23
0.0
 14
1.0
 24
1.0
 15
0.0
 25
0.0
 16
0.0
 26
0.0
 36
1.0
 17
0.0
 27
0.0
 37
0.0
 40
8.26640774429757
 41
1.570528967254408
 42
50.0
 43
0.0
 44
0.0
 50
0.0
 51
0.0
 71
     0
 72
   100
 73
     1
 74
     1
 75
     0
 76
     0
 77
     0
 78
     0
  0
ENDTAB
  0
TABLE
  2
LTYPE
  5
4
330
0
100
AcDbSymbolTable
 70
     2
  0
LTYPE
  5
11
330
4
100
AcDbSymbolTableRecord
100
AcDbLinetypeTableRecord
  2
BYBLOCK
 70
     0
  3

 72
    65
 73
     0
 40
0.0
  0
LTYPE
  5
12
330
4
100
AcDbSymbolTableRecord
100
AcDbLinetypeTableRecord
  2
BYLAYER
 70
     0
  3

 72
    65
 73
     0
 40
0.0
  0
LTYPE
  5
13
330
4
100
AcDbSymbolTableRecord
100
AcDbLinetypeTableRecord
  2
CONTINUOUS
 70
     0
  3
Solid line
 72
    65
 73
     0
 40
0.0
  0
LTYPE
  5
1E
330
4
100
AcDbSymbolTableRecord
100
AcDbLinetypeTableRecord
  2
CONTINUOUS
 70
     0
  3
Solid line
 72
    65
 73
     0
 40
0.0
  0
ENDTAB
  0
TABLE
  2
LAYER
  5
2
330
0
100
AcDbSymbolTable
 70
     5
  0
LAYER
  5
14
330
2
100
AcDbSymbolTableRecord
100
AcDbLayerTableRecord
  2
0
 70
     0
 62
     7
  6
CONTINUOUS
  0
LAYER
  5
2A
330
2
100
AcDbSymbolTableRecord
100
AcDbLayerTableRecord
  2
ADP1DETAIL
 70
     0
 62
   250
  6
CONTINUOUS
  0
LAYER
  5
2B
330
2
100
AcDbSymbolTableRecord
100
AcDbLayerTableRecord
  2
DEFPOINTS
 70
     0
 62
   250
  6
CONTINUOUS
  0
LAYER
  5
2C
330
2
100
AcDbSymbolTableRecord
100
AcDbLayerTableRecord
  2
ADPDIM
 70
     0
 62
     3
  6
CONTINUOUS
  0
LAYER
  5
2D
330
2
100
AcDbSymbolTableRecord
100
AcDbLayerTableRecord
  2
ADP2DETAIL
 70
     0
 62
   250
  6
CONTINUOUS
  0
ENDTAB
  0
TABLE
  2
STYLE
  5
3
330
0
100
AcDbSymbolTable
 70
     2
  0
STYLE
  5
17
330
3
100
AcDbSymbolTableRecord
100
AcDbTextStyleTableRecord
  2
STANDARD
 70
     0
 40
0.0
 41
1.0
 50
0.0
 71
     0
 42
0.0
  3
txt
  4

  0
STYLE
  5
28A
330
3
100
AcDbSymbolTableRecord
100
AcDbTextStyleTableRecord
  2
ARIAL_WIDE
 70
     0
 40
0.0
 41
1.25
 50
0.0
 71
     0
 42
0.2
  3
ARIAL.TTF
  4

1001
ACAD
1000
Arial
1071
       34
  0
ENDTAB
  0
TABLE
  2
VIEW
  5
5
330
0
100
AcDbSymbolTable
 70
     0
  0
ENDTAB
  0
TABLE
  2
UCS
  5
6
330
0
100
AcDbSymbolTable
 70
     0
  0
ENDTAB
  0
TABLE
  2
APPID
  5
8
330
0
100
AcDbSymbolTable
 70
     1
  0
APPID
  5
16
330
8
100
AcDbSymbolTableRecord
100
AcDbRegAppTableRecord
  2
ACAD
 70
     0
  0
ENDTAB
  0
TABLE
  2
DIMSTYLE
  5
9
330
0
100
AcDbSymbolTable
 70
     1
  0
DIMSTYLE
105
18
330
9
100
AcDbSymbolTableRecord
100
AcDbDimStyleTableRecord
  2
STANDARD
 70
     0
  3

  4

  5

  6

  7

 40
1.0
 41
0.18
 42
0.0625
 43
0.38
 44
0.18
 45
0.0
 46
0.0
 47
0.0
 48
0.0
140
0.18
141
0.09
142
0.0
143
25.4
144
1.0
145
0.0
146
1.0
147
0.09
 71
     0
 72
     0
 73
     1
 74
     1
 75
     0
 76
     0
 77
     0
 78
     0
170
     0
171
     2
172
     0
173
     0
174
     0
175
     0
176
     0
177
     0
178
     0
270
     2
271
     4
272
     4
273
     2
274
     2
340
17
275
     0
280
     0
281
     0
282
     0
283
     1
284
     0
285
     0
286
     0
287
     0
288
     0
  0
ENDTAB
  0
TABLE
  2
BLOCK_RECORD
  5
1
330
0
100
AcDbSymbolTable
 70
     0
  0
BLOCK_RECORD
  5
A
102
{ACAD_XDICTIONARY
360
2E5
102
}
330
1
100
AcDbSymbolTableRecord
100
AcDbBlockTableRecord
  2
*MODEL_SPACE
  0
BLOCK_RECORD
  5
B
102
{ACAD_XDICTIONARY
360
2E7
102
}
330
1
100
AcDbSymbolTableRecord
100
AcDbBlockTableRecord
  2
*PAPER_SPACE
  0
ENDTAB
  0
ENDSEC
  0
SECTION
  2
BLOCKS
  0
BLOCK
  5
D
330
A
100
AcDbEntity
  8
0
100
AcDbBlockBegin
  2
*MODEL_SPACE
 70
     0
 10
0.0
 20
0.0
 30
0.0
  3
*MODEL_SPACE
  1

  0
ENDBLK
  5
E
330
A
100
AcDbEntity
  8
0
100
AcDbBlockEnd
  0
BLOCK
  5
F
330
B
100
AcDbEntity
 67
     1
  8
0
100
AcDbBlockBegin
  2
*PAPER_SPACE
 70
     0
 10
0.0
 20
0.0
 30
0.0
  3
*PAPER_SPACE
  1

  0
ENDBLK
  5
10
330
B
100
AcDbEntity
 67
     1
  8
0
100
AcDbBlockEnd
  0
ENDSEC
  0
SECTION
  2
ENTITIES
  0
LWPOLYLINE
  5
2F
330
A
100
AcDbEntity
  8
ADP1DETAIL
  6
CONTINUOUS
 62
     7
100
AcDbPolyline
 90
        2
 70
   128
 43
0.0
 10
28.61648623096897
 20
16.64585347574576
 10
28.61648623096897
 20
16.44675688069274
  0
LWPOLYLINE
  5
33
330
A
100
AcDbEntity
  8
ADP2DETAIL
  6
CONTINUOUS
 62
     5
100
AcDbPolyline
 90
        2
 70
   128
 43
0.0
 10
28.41269901472514
 20
16.64206729123218
 10
28.41269901472514
 20
16.51706729123218
  0
LWPOLYLINE
  5
37
330
A
100
AcDbEntity
  8
ADP2DETAIL
  6
CONTINUOUS
 62
     5
100
AcDbPolyline
 90
        2
 70
   128
 43
0.0
 10
28.41269901472514
 20
16.51706729123218
 10
28.47469901472513
 20
16.45506729123218
  0
ARC
  5
3B
330
A
100
AcDbEntity
  8
ADP1DETAIL
  6
CONTINUOUS
 62
     7
100
AcDbCircle
 10
-27.86648623096896
 20
16.32175688069274
 30
0.0
 40
0.125
210
0.0
220
0.0
230
-1.0
100
AcDbArc
 50
0.0
 51
90.0
  0
LWPOLYLINE
  5
3C
330
A
100
AcDbEntity
  8
ADP1DETAIL
  6
CONTINUOUS
 62
     7
100
AcDbPolyline
 90
        2
 70
   128
 43
0.0
 10
27.5528409638147
 20
15.81871372116885
 10
27.5528409638147
 20
16.66483534660957
  0
LWPOLYLINE
  5
40
330
A
100
AcDbEntity
  8
ADP2DETAIL
  6
CONTINUOUS
 62
     5
100
AcDbPolyline
 90
        2
 70
   128
 43
0.0
 10
28.22469901472513
 20
16.64206729123218
 10
28.22469901472513
 20
16.51706729123218
  0
LWPOLYLINE
  5
44
330
A
100
AcDbEntity
  8
ADP2DETAIL
  6
CONTINUOUS
 62
     5
100
AcDbPolyline
 90
        2
 70
   128
 43
0.0
 10
28.22469901472513
 20
16.51706729123218
 10
28.16269901472514
 20
16.45506729123218
  0
ARC
  5
48
330
A
100
AcDbEntity
  8
ADP1DETAIL
  6
CONTINUOUS
 62
     7
100
AcDbCircle
 10
-26.86648623096896
 20
16.32175688069274
 30
0.0
 40
0.125
210
0.0
220
0.0
230
-1.0
100
AcDbArc
 50
90.0
 51
180.0
  0
LWPOLYLINE
  5
49
330
A
100
AcDbEntity
  8
ADP1DETAIL
  6
CONTINUOUS
 62
     7
100
AcDbPolyline
 90
        2
 70
   128
 43
0.0
 10
27.17898623096896
 20
15.81871372116885
 10
27.17898623096896
 20
16.66483534660957
  0
ARC
  5
4D
330
A
100
AcDbEntity
  8
ADP1DETAIL
  6
CONTINUOUS
 62
     7
100
AcDbCircle
 10
-26.86648623096896
 20
16.33335347574576
 30
0.0
 40
0.3125
210
0.0
220
0.0
230
-1.0
100
AcDbArc
 50
90.0
 51
180.0
  0
ARC
  5
4E
330
A
100
AcDbEntity
  8
ADP1DETAIL
  6
CONTINUOUS
 62
     7
100
AcDbCircle
 10
-27.86648623096896
 20
16.33444049457372
 30
0.0
 40
0.3124999999999995
210
0.0
220
0.0
230
-1.0
100
AcDbArc
 50
0.0
 51
90.08306715294011
  0
LWPOLYLINE
  5
4F
330
A
100
AcDbEntity
  8
ADP1DETAIL
  6
CONTINUOUS
 62
     7
100
AcDbPolyline
 90
        2
 70
   128
 43
0.0
 10
27.18609843191432
 20
16.66483534660957
 10
27.5528409638147
 20
16.66483534660957
  0
LWPOLYLINE
  5
53
330
A
100
AcDbEntity
  8
ADP1DETAIL
  6
CONTINUOUS
 62
     7
100
AcDbPolyline
 90
        2
 70
   128
 43
0.0
 10
27.36698623096896
 20
15.19775688069274
 10
27.36598623096896
 20
15.19775688069274
  0
ARC
  5
57
330
A
100
AcDbEntity
  8
ADP1DETAIL
  6
CONTINUOUS
 62
     7
100
AcDbCircle
 10
-27.36598623096896
 20
15.57225688069274
 30
0.0
 40
0.3745000000000012
210
0.0
220
0.0
230
-1.0
100
AcDbArc
 50
270.0000000000008
 51
360.0000000000008
  0
ARC
  5
58
330
A
100
AcDbEntity
  8
ADP1DETAIL
  6
CONTINUOUS
 62
     7
100
AcDbCircle
 10
-27.36698623096896
 20
15.57225688069274
 30
0.0
 40
0.3744999999999994
210
0.0
220
0.0
230
-1.0
100
AcDbArc
 50
180.0
 51
270.0000000000008
  0
ARC
  5
59
330
A
100
AcDbEntity
  8
ADP1DETAIL
  6
CONTINUOUS
 62
     7
100
AcDbCircle
 10
-27.36698623096896
 20
15.56908950359371
 30
0.0
 40
0.4999999999999988
210
0.0
220
0.0
230
-1.0
100
AcDbArc
 50
138.5038289027595
 51
41.32292462379911
  0
LWPOLYLINE
  5
5A
330
A
100
AcDbEntity
  8
ADP1DETAIL
  6
CONTINUOUS
 62
     7
100
AcDbPolyline
 90
        2
 70
   128
 43
0.0
 10
27.74148623096897
 20
16.32175688069274
 10
27.74148623096897
 20
15.57225688069274
  0
LWPOLYLINE
  5
5E
330
A
100
AcDbEntity
  8
ADP1DETAIL
  6
CONTINUOUS
 62
     7
100
AcDbPolyline
 90
        2
 70
   128
 43
0.0
 10
26.99148623096896
 20
15.57225688069274
 10
26.99148623096896
 20
16.32175688069274
  0
CIRCLE
  5
62
330
A
100
AcDbEntity
  8
ADP1DETAIL
  6
CONTINUOUS
 62
     7
100
AcDbCircle
 10
-27.36698623096896
 20
15.56908950359371
 30
0.0
 40
0.2859512779740925
210
0.0
220
0.0
230
-1.0
  0
CIRCLE
  5
63
330
A
100
AcDbEntity
  8
ADP1DETAIL
  6
CONTINUOUS
 62
     7
100
AcDbCircle
 10
-27.36698623096896
 20
15.56908950359371
 30
0.0
 40
0.3125
210
0.0
220
0.0
230
-1.0
  0
LWPOLYLINE
  5
64
330
A
100
AcDbEntity
  8
ADP2DETAIL
  6
CONTINUOUS
 62
     5
100
AcDbPolyline
 90
        2
 70
   128
 43
0.0
 10
26.59379612827426
 20
16.63964350515154
 10
26.59379612827426
 20
16.51464350515154
  0
LWPOLYLINE
  5
68
330
A
100
AcDbEntity
  8
ADP2DETAIL
  6
CONTINUOUS
 62
     5
100
AcDbPolyline
 90
        2
 70
   128
 43
0.0
 10
26.59379612827426
 20
16.51464350515154
 10
26.65579612827426
 20
16.45264350515154
  0
LWPOLYLINE
  5
6C
330
A
100
AcDbEntity
  8
ADP2DETAIL
  6
CONTINUOUS
 62
     5
100
AcDbPolyline
 90
        2
 70
   128
 43
0.0
 10
26.40579612827426
 20
16.63964350515154
 10
26.40579612827426
 20
16.51464350515154
  0
LWPOLYLINE
  5
70
330
A
100
AcDbEntity
  8
ADP2DETAIL
  6
CONTINUOUS
 62
     5
100
AcDbPolyline
 90
        2
 70
   128
 43
0.0
 10
26.40579612827426
 20
16.51464350515154
 10
26.34379612827427
 20
16.45264350515154
  0
LWPOLYLINE
  5
74
330
A
100
AcDbEntity
  8
ADP1DETAIL
  6
CONTINUOUS
 62
     7
100
AcDbPolyline
 90
        2
 70
   128
 43
0.0
 10
26.11648623096896
 20
16.44675688069274
 10
26.11648623096896
 20
16.64585347574576
  0
ARC
  5
78
330
A
100
AcDbEntity
  8
ADP1DETAIL
  6
CONTINUOUS
 62
     7
100
AcDbCircle
 10
-27.36698623096896
 20
15.56908950359371
 30
0.0
 40
0.6249999999999982
210
0.0
220
0.0
230
-1.0
100
AcDbArc
 50
126.8126233266156
 51
53.0727850630306
  0
LWPOLYLINE
  5
79
330
A
100
AcDbEntity
  8
ADP1DETAIL
  6
CONTINUOUS
 62
     7
100
AcDbPolyline
 90
        2
 70
   128
 43
0.0
 10
26.86648623096896
 20
16.44675688069274
 10
26.11648623096896
 20
16.44675688069274
  0
LWPOLYLINE
  5
7D
330
A
100
AcDbEntity
  8
ADP1DETAIL
  6
CONTINUOUS
 62
     7
100
AcDbPolyline
 90
        2
 70
   128
 43
0.0
 10
26.11648623096896
 20
16.64585347574576
 10
26.86648623096896
 20
16.64585347574576
  0
LWPOLYLINE
  5
81
330
A
100
AcDbEntity
  8
ADP1DETAIL
  6
CONTINUOUS
 62
     7
100
AcDbPolyline
 90
        2
 70
   128
 43
0.0
 10
28.61648623096897
 20
16.44675688069274
 10
27.86648623096896
 20
16.44675688069274
  0
LWPOLYLINE
  5
85
330
A
100
AcDbEntity
  8
ADP1DETAIL
  6
CONTINUOUS
 62
     7
100
AcDbPolyline
 90
        2
 70
   128
 43
0.0
 10
28.61648623096897
 20
16.64585347574576
 10
27.86693929184745
 20
16.64694016615089
  0
ARC
  5
89
330
A
100
AcDbEntity
  8
ADP1DETAIL
  6
CONTINUOUS
 62
     7
100
AcDbCircle
 10
-27.36698623096896
 20
15.56908950359371
 30
0.0
 40
1.5
210
0.0
220
0.0
230
-1.0
100
AcDbArc
 50
45.8766515105984
 51
134.1070000974165
  0
ARC
  5
8A
330
A
100
AcDbEntity
  8
ADP1DETAIL
  6
CONTINUOUS
 62
     7
100
AcDbCircle
 10
-27.36698623096896
 20
15.56908950359371
 30
0.0
 40
1.415949078414777
210
0.0
220
0.0
230
-1.0
100
AcDbArc
 50
49.50422739862836
 51
130.4659014340017
  0
LWPOLYLINE
  5
8B
330
A
100
AcDbEntity
  8
ADP1DETAIL
  6
CONTINUOUS
 62
     7
100
AcDbPolyline
 90
        2
 70
   128
 43
0.0
 10
23.72448100107579
 20
15.91245656008519
 10
23.84522172936192
 20
15.88010417944737
  0
LWPOLYLINE
  5
8F
330
A
100
AcDbEntity
  8
ADP1DETAIL
  6
CONTINUOUS
 62
     7
100
AcDbPolyline
 90
        2
 70
   128
 43
0.0
 10
23.72448100107579
 20
15.91245656008519
 10
23.84522172936192
 20
15.88010417944737
  0
LWPOLYLINE
  5
93
330
A
100
AcDbEntity
  8
ADP1DETAIL
  6
CONTINUOUS
 62
     7
100
AcDbPolyline
 90
        2
 70
   128
 43
0.0
 10
23.72448100107579
 20
15.78745656008519
 10
23.72448100107579
 20
15.91245656008519
  0
LWPOLYLINE
  5
97
330
A
100
AcDbEntity
  8
ADP1DETAIL
  6
CONTINUOUS
 62
     7
100
AcDbPolyline
 90
        2
 70
   128
 43
0.0
 10
23.72448100107579
 20
15.78745656008519
 10
23.72448100107579
 20
15.91245656008519
  0
LWPOLYLINE
  5
9B
330
A
100
AcDbEntity
  8
ADP1DETAIL
  6
CONTINUOUS
 62
     7
100
AcDbPolyline
 90
        2
 70
   128
 43
0.0
 10
23.84522172936192
 20
15.88010417944737
 10
23.84522172936192
 20
15.88010417944737
  0
LWPOLYLINE
  5
9F
330
A
100
AcDbEntity
  8
ADP1DETAIL
  6
CONTINUOUS
 62
     7
100
AcDbPolyline
 90
        2
 70
   128
 43
0.0
 10
23.84522172936192
 20
15.88010417944737
 10
23.84522172936192
 20
15.88010417944737
  0
ARC
  5
A3
330
A
100
AcDbEntity
  8
ADP2DETAIL
  6
CONTINUOUS
 62
     5
100
AcDbCircle
 10
-24.54594145925355
 20
15.59995656008519
 30
0.0
 40
0.750000000000001
210
0.0
220
0.0
230
-1.0
100
AcDbArc
 50
0.0
 51
21.78022512532524
  0
LWPOLYLINE
  5
A4
330
A
100
AcDbEntity
  8
ADP1DETAIL
  6
CONTINUOUS
 62
     7
100
AcDbPolyline
 90
        2
 70
   128
 43
0.0
 10
23.84948100107579
 20
15.87824207928234
 10
23.84948100107579
 20
15.59995656008519
  0
LWPOLYLINE
  5
A8
330
A
100
AcDbEntity
  8
ADP1DETAIL
  6
CONTINUOUS
 62
     7
100
AcDbPolyline
 90
        2
 70
   128
 43
0.0
 10
23.84948100107579
 20
15.87824207928234
 10
23.84948100107579
 20
15.59995656008519
  0
ARC
  5
AC
330
A
100
AcDbEntity
  8
ADP2DETAIL
  6
CONTINUOUS
 62
     5
100
AcDbCircle
 10
-24.54594145925355
 20
15.59995656008519
 30
0.0
 40
0.750000000000001
210
0.0
220
0.0
230
-1.0
100
AcDbArc
 50
0.0
 51
21.78022512532524
  0
LWPOLYLINE
  5
AD
330
A
100
AcDbEntity
  8
ADP2DETAIL
  6
CONTINUOUS
 62
     5
100
AcDbPolyline
 90
        2
 70
   128
 43
0.0
 10
23.44348100107579
 20
16.53495315902201
 10
23.50548100107579
 20
16.47295315902201
  0
LWPOLYLINE
  5
B1
330
A
100
AcDbEntity
  8
ADP2DETAIL
  6
CONTINUOUS
 62
     5
100
AcDbPolyline
 90
        2
 70
   128
 43
0.0
 10
23.25548100107579
 20
16.53495315902201
 10
23.19348100107579
 20
16.47295315902201
  0
LWPOLYLINE
  5
B5
330
A
100
AcDbEntity
  8
ADP2DETAIL
  6
CONTINUOUS
 62
     5
100
AcDbPolyline
 90
        2
 70
   128
 43
0.0
 10
23.25548100107579
 20
16.65995315902201
 10
23.25548100107579
 20
16.53495315902201
  0
LWPOLYLINE
  5
B9
330
A
100
AcDbEntity
  8
ADP2DETAIL
  6
CONTINUOUS
 62
     5
100
AcDbPolyline
 90
        2
 70
   128
 43
0.0
 10
23.44348100107579
 20
16.65995315902201
 10
23.44348100107579
 20
16.53495315902201
  0
LWPOLYLINE
  5
BD
330
A
100
AcDbEntity
  8
ADP1DETAIL
  6
CONTINUOUS
 62
     7
100
AcDbPolyline
 90
        2
 70
   128
 43
0.0
 10
23.72448100107579
 20
16.47395656008519
 10
22.97448100107579
 20
16.47395656008519
  0
LWPOLYLINE
  5
C1
330
A
100
AcDbEntity
  8
ADP1DETAIL
  6
CONTINUOUS
 62
     7
100
AcDbPolyline
 90
        2
 70
   128
 43
0.0
 10
23.72448100107579
 20
15.28745656008519
 10
23.84522172936192
 20
15.319808940723
  0
LWPOLYLINE
  5
C5
330
A
100
AcDbEntity
  8
ADP1DETAIL
  6
CONTINUOUS
 62
     7
100
AcDbPolyline
 90
        2
 70
   128
 43
0.0
 10
23.72448100107579
 20
15.28745656008519
 10
23.84522172936192
 20
15.319808940723
  0
LWPOLYLINE
  5
C9
330
A
100
AcDbEntity
  8
ADP1DETAIL
  6
CONTINUOUS
 62
     7
100
AcDbPolyline
 90
        2
 70
   128
 43
0.0
 10
23.72448100107579
 20
15.41245656008519
 10
23.72448100107579
 20
15.28745656008519
  0
LWPOLYLINE
  5
CD
330
A
100
AcDbEntity
  8
ADP1DETAIL
  6
CONTINUOUS
 62
     7
100
AcDbPolyline
 90
        2
 70
   128
 43
0.0
 10
23.72448100107579
 20
15.41245656008519
 10
23.72448100107579
 20
15.28745656008519
  0
LWPOLYLINE
  5
D1
330
A
100
AcDbEntity
  8
ADP1DETAIL
  6
CONTINUOUS
 62
     7
100
AcDbPolyline
 90
        2
 70
   128
 43
0.0
 10
23.84522172936192
 20
15.319808940723
 10
23.84522172936192
 20
15.319808940723
  0
LWPOLYLINE
  5
D5
330
A
100
AcDbEntity
  8
ADP1DETAIL
  6
CONTINUOUS
 62
     7
100
AcDbPolyline
 90
        2
 70
   128
 43
0.0
 10
23.84522172936192
 20
15.319808940723
 10
23.84522172936192
 20
15.319808940723
  0
LWPOLYLINE
  5
D9
330
A
100
AcDbEntity
  8
ADP1DETAIL
  6
CONTINUOUS
 62
     7
100
AcDbPolyline
 90
        2
 70
   128
 43
0.0
 10
23.84948100107579
 20
15.32167104088803
 10
23.84948100107579
 20
15.59995656008519
  0
ARC
  5
DD
330
A
100
AcDbEntity
  8
ADP2DETAIL
  6
CONTINUOUS
 62
     5
100
AcDbCircle
 10
-24.54594145925355
 20
15.59995656008519
 30
0.0
 40
0.75
210
0.0
220
0.0
230
-1.0
100
AcDbArc
 50
338.2197748746755
 51
360.0000000000008
  0
LWPOLYLINE
  5
DE
330
A
100
AcDbEntity
  8
ADP1DETAIL
  6
CONTINUOUS
 62
     7
100
AcDbPolyline
 90
        2
 70
   128
 43
0.0
 10
23.84948100107579
 20
15.32167104088803
 10
23.84948100107579
 20
15.59995656008519
  0
LWPOLYLINE
  5
E2
330
A
100
AcDbEntity
  8
ADP1DETAIL
  6
CONTINUOUS
 62
     7
100
AcDbPolyline
 90
        2
 70
   128
 43
0.0
 10
23.72448100107579
 20
15.78745656008519
 10
23.72448100107579
 20
15.41245656008519
  0
LWPOLYLINE
  5
E6
330
A
100
AcDbEntity
  8
ADP1DETAIL
  6
CONTINUOUS
 62
     7
100
AcDbPolyline
 90
        2
 70
   128
 43
0.0
 10
23.72448100107579
 20
15.78745656008519
 10
23.72448100107579
 20
15.41245656008519
  0
LWPOLYLINE
  5
EA
330
A
100
AcDbEntity
  8
ADP1DETAIL
  6
CONTINUOUS
 62
     7
100
AcDbPolyline
 90
        2
 70
   128
 43
0.0
 10
22.97448100107579
 20
15.41245656008519
 10
22.97448100107579
 20
15.78745656008519
  0
LWPOLYLINE
  5
EE
330
A
100
AcDbEntity
  8
ADP1DETAIL
  6
CONTINUOUS
 62
     7
100
AcDbPolyline
 90
        2
 70
   128
 43
0.0
 10
22.97448100107579
 20
15.91245656008519
 10
22.97448100107579
 20
15.28745656008519
  0
LWPOLYLINE
  5
F2
330
A
100
AcDbEntity
  8
ADP1DETAIL
  6
CONTINUOUS
 62
     7
100
AcDbPolyline
 90
        2
 70
   128
 43
0.0
 10
22.97448100107579
 20
15.91245656008519
 10
22.97448100107579
 20
15.28745656008519
  0
LWPOLYLINE
  5
F6
330
A
100
AcDbEntity
  8
ADP1DETAIL
  6
CONTINUOUS
 62
     7
100
AcDbPolyline
 90
        2
 70
   128
 43
0.0
 10
22.97448100107579
 20
15.41245656008519
 10
22.97448100107579
 20
15.78745656008519
  0
LWPOLYLINE
  5
FA
330
A
100
AcDbEntity
  8
ADP1DETAIL
  6
CONTINUOUS
 62
     7
100
AcDbPolyline
 90
        5
 70
   128
 43
0.0
 10
22.97448100107579
 20
15.22445656008519
 10
22.97448100107579
 20
16.66195656008519
 10
23.72448100107579
 20
16.66195656008519
 10
23.72448100107579
 20
15.22445656008519
 10
22.97448100107579
 20
15.22445656008519
  0
ARC
  5
101
330
A
100
AcDbEntity
  8
ADP2DETAIL
  6
CONTINUOUS
 62
     5
100
AcDbCircle
 10
-24.54594145925355
 20
15.59995656008519
 30
0.0
 40
0.75
210
0.0
220
0.0
230
-1.0
100
AcDbArc
 50
338.2197748746755
 51
360.0000000000008
  0
ARC
  5
102
330
A
100
AcDbEntity
  8
ADP1DETAIL
  6
CONTINUOUS
 62
     7
100
AcDbCircle
 10
-20.53634130523681
 20
16.98904842288811
 30
0.0
 40
0.0620000000000012
210
0.0
220
0.0
230
-1.0
100
AcDbArc
 50
104.036243467928
 51
180.0
  0
ARC
  5
103
330
A
100
AcDbEntity
  8
ADP1DETAIL
  6
CONTINUOUS
 62
     7
100
AcDbCircle
 10
-20.35834130523681
 20
17.08714879602114
 30
0.0
 40
0.0099999999999991
210
0.0
220
0.0
230
-1.0
100
AcDbArc
 50
0.0
 51
104.0362434679264
  0
LWPOLYLINE
  5
104
330
A
100
AcDbEntity
  8
ADP1DETAIL
  6
CONTINUOUS
 62
     7
100
AcDbPolyline
 90
        2
 70
   128
 43
0.0
 10
20.36076666148717
 20
17.09685022102259
 10
20.55137851398906
 20
17.04919725789712
  0
LWPOLYLINE
  5
108
330
A
100
AcDbEntity
  8
ADP1DETAIL
  6
CONTINUOUS
 62
     7
100
AcDbPolyline
 90
        2
 70
   128
 43
0.0
 10
22.22044323393753
 20
15.35078937664666
 10
22.22044323393753
 20
15.84912374352372
  0
LWPOLYLINE
  5
10C
330
A
100
AcDbEntity
  8
ADP1DETAIL
  6
CONTINUOUS
 62
     7
100
AcDbPolyline
 90
        2
 70
   128
 43
0.0
 10
21.09834130523681
 20
16.03745656008519
 10
21.22324171128344
 20
16.00345410287276
  0
ARC
  5
110
330
A
100
AcDbEntity
  8
ADP1DETAIL
  6
CONTINUOUS
 62
     7
100
AcDbCircle
 10
-21.08834130523681
 20
16.09214879602114
 30
0.0
 40
0.0100000000000016
210
0.0
220
0.0
230
-1.0
100
AcDbArc
 50
104.0362434679264
 51
180.0
  0
LWPOLYLINE
  5
111
330
A
100
AcDbEntity
  8
ADP1DETAIL
  6
CONTINUOUS
 62
     7
100
AcDbPolyline
 90
        2
 70
   128
 43
0.0
 10
21.09834130523681
 20
15.59995656008519
 10
21.09834130523681
 20
16.03745656008519
  0
LWPOLYLINE
  5
115
330
A
100
AcDbEntity
  8
ADP1DETAIL
  6
CONTINUOUS
 62
     7
100
AcDbPolyline
 90
        2
 70
   128
 43
0.0
 10
21.22324171128344
 20
16.00345410287276
 10
21.22334130523681
 20
15.59995656008519
  0
ARC
  5
119
330
A
100
AcDbEntity
  8
ADP1DETAIL
  6
CONTINUOUS
 62
     7
100
AcDbCircle
 10
-20.66034130523681
 20
16.27336469728226
 30
0.0
 40
0.0620000000000012
210
0.0
220
0.0
230
-1.0
100
AcDbArc
 50
284.0362434679288
 51
360.0000000000008
  0
LWPOLYLINE
  5
11A
330
A
100
AcDbEntity
  8
ADP1DETAIL
  6
CONTINUOUS
 62
     7
100
AcDbPolyline
 90
        2
 70
   128
 43
0.0
 10
20.64530409648456
 20
16.21321586227325
 10
21.09076666148717
 20
16.10185022102259
  0
LWPOLYLINE
  5
11E
330
A
100
AcDbEntity
  8
ADP1DETAIL
  6
CONTINUOUS
 62
     7
100
AcDbPolyline
 90
        2
 70
   128
 43
0.0
 10
21.09834130523681
 20
15.16245656008519
 10
21.22324171128344
 20
15.19645901729761
  0
ARC
  5
122
330
A
100
AcDbEntity
  8
ADP1DETAIL
  6
CONTINUOUS
 62
     7
100
AcDbCircle
 10
-21.08834130523681
 20
15.10776432414923
 30
0.0
 40
0.0100000000000008
210
0.0
220
0.0
230
-1.0
100
AcDbArc
 50
180.0
 51
255.9637565320768
  0
ARC
  5
123
330
A
100
AcDbEntity
  8
ADP1DETAIL
  6
CONTINUOUS
 62
     7
100
AcDbCircle
 10
-20.66034130523681
 20
14.92654842288811
 30
0.0
 40
0.0620000000000009
210
0.0
220
0.0
230
-1.0
100
AcDbArc
 50
0.0
 51
75.96375653207234
  0
LWPOLYLINE
  5
124
330
A
100
AcDbEntity
  8
ADP1DETAIL
  6
CONTINUOUS
 62
     7
100
AcDbPolyline
 90
        2
 70
   128
 43
0.0
 10
21.09076666148717
 20
15.09806289914778
 10
20.64530409648456
 20
14.98669725789713
  0
LWPOLYLINE
  5
128
330
A
100
AcDbEntity
  8
ADP1DETAIL
  6
CONTINUOUS
 62
     7
100
AcDbPolyline
 90
        2
 70
   128
 43
0.0
 10
21.22324171128344
 20
15.19645901729761
 10
21.22334130523681
 20
15.59995656008519
  0
LWPOLYLINE
  5
12C
330
A
100
AcDbEntity
  8
ADP1DETAIL
  6
CONTINUOUS
 62
     7
100
AcDbPolyline
 90
        2
 70
   128
 43
0.0
 10
21.09834130523681
 20
15.59995656008519
 10
21.09834130523681
 20
15.16245656008519
  0
LWPOLYLINE
  5
130
330
A
100
AcDbEntity
  8
ADP1DETAIL
  6
CONTINUOUS
 62
     7
100
AcDbPolyline
 90
        2
 70
   128
 43
0.0
 10
21.09834130523681
 20
16.09214879602114
 10
21.09834130523681
 20
15.10776432414923
  0
LWPOLYLINE
  5
134
330
A
100
AcDbEntity
  8
ADP1DETAIL
  6
CONTINUOUS
 62
     7
100
AcDbPolyline
 90
        2
 70
   128
 43
0.0
 10
21.22334130523681
 20
15.97495656008518
 10
22.22044323393753
 20
15.84995656008518
  0
LWPOLYLINE
  5
138
330
A
100
AcDbEntity
  8
ADP1DETAIL
  6
CONTINUOUS
 62
     7
100
AcDbPolyline
 90
        2
 70
   128
 43
0.0
 10
22.22044323393753
 20
15.35078937664666
 10
21.22334130523681
 20
15.22495656008518
  0
LWPOLYLINE
  5
13C
330
A
100
AcDbEntity
  8
ADP1DETAIL
  6
CONTINUOUS
 62
     7
100
AcDbPolyline
 90
        2
 70
   128
 43
0.0
 10
20.59834130523681
 20
16.98904842288811
 10
20.59834130523681
 20
14.89880159910888
  0
LWPOLYLINE
  5
140
330
A
100
AcDbEntity
  8
ADP1DETAIL
  6
CONTINUOUS
 62
     7
100
AcDbPolyline
 90
        2
 70
   128
 43
0.0
 10
22.96793608213884
 20
15.28745656008519
 10
22.22044323393753
 20
15.35078937664666
  0
LWPOLYLINE
  5
144
330
A
100
AcDbEntity
  8
ADP1DETAIL
  6
CONTINUOUS
 62
     7
100
AcDbPolyline
 90
        2
 70
   128
 43
0.0
 10
22.22044323393753
 20
15.84995656008518
 10
22.96793608213884
 20
15.91245656008519
  0
ARC
  5
148
330
A
100
AcDbEntity
  8
ADP1DETAIL
  6
CONTINUOUS
 62
     7
100
AcDbCircle
 10
-20.53634130523681
 20
14.21086469728226
 30
0.0
 40
0.0620000000000009
210
0.0
220
0.0
230
-1.0
100
AcDbArc
 50
180.0
 51
255.9637565320731
  0
ARC
  5
149
330
A
100
AcDbEntity
  8
ADP1DETAIL
  6
CONTINUOUS
 62
     7
100
AcDbCircle
 10
-20.35834130523681
 20
14.11276432414923
 30
0.0
 40
0.0100000000000016
210
0.0
220
0.0
230
-1.0
100
AcDbArc
 50
255.9637565320768
 51
360.0000000000008
  0
LWPOLYLINE
  5
14A
330
A
100
AcDbEntity
  8
ADP1DETAIL
  6
CONTINUOUS
 62
     7
100
AcDbPolyline
 90
        2
 70
   128
 43
0.0
 10
20.55137851398906
 20
14.15071586227325
 10
20.36076666148717
 20
14.10306289914778
  0
ARC
  5
14E
330
A
100
AcDbEntity
  8
ADP1DETAIL
  6
CONTINUOUS
 62
     7
100
AcDbCircle
 10
-27.36698623096896
 20
15.56908950359371
 30
0.0
 40
1.415949078414777
210
0.0
220
0.0
230
-1.0
100
AcDbArc
 50
141.6952650067844
 51
38.30473499321562
  0
ARC
  5
14F
330
A
100
AcDbEntity
  8
ADP1DETAIL
  6
CONTINUOUS
 62
     7
100
AcDbCircle
 10
-27.36698623096896
 20
15.56908950359371
 30
0.0
 40
1.499999999999999
210
0.0
220
0.0
230
-1.0
100
AcDbArc
 50
144.1891266479681
 51
35.81087335203186
  0
LWPOLYLINE
  5
150
330
A
100
AcDbEntity
  8
ADP1DETAIL
  6
CONTINUOUS
 62
     7
100
AcDbPolyline
 90
        2
 70
   128
 43
0.0
 10
20.59834130523681
 20
14.92654842288811
 10
20.59834130523681
 20
14.21086469728226
  0
LWPOLYLINE
  5
154
330
A
100
AcDbEntity
  8
ADP1DETAIL
  6
CONTINUOUS
 62
     7
100
AcDbPolyline
 90
        2
 70
   128
 43
0.0
 10
20.34834130523681
 20
14.11276432414923
 10
20.34834130523681
 20
17.08714879602114
  0
LWPOLYLINE
  5
158
330
A
100
AcDbEntity
  8
ADPDIM
  6
CONTINUOUS
 62
     3
 48
0.125
100
AcDbPolyline
 90
        2
 70
   128
 43
0.0
 10
20.28584130523681
 20
17.08714879602114
 10
19.87340094617803
 20
17.08714879602114
  0
LWPOLYLINE
  5
15C
330
A
100
AcDbEntity
  8
ADPDIM
  6
CONTINUOUS
 62
     3
 48
0.125
100
AcDbPolyline
 90
        2
 70
   128
 43
0.0
 10
20.28584130523681
 20
14.11276432414923
 10
19.87340094617803
 20
14.11276432414923
  0
LWPOLYLINE
  5
160
330
A
100
AcDbEntity
  8
ADPDIM
  6
CONTINUOUS
 62
     3
 48
0.125
100
AcDbPolyline
 90
        2
 70
   128
 43
0.0
 10
20.05340094617803
 20
17.08714879602114
 10
20.05340094617803
 20
15.76662322675185
  0
LWPOLYLINE
  5
164
330
A
100
AcDbEntity
  8
ADPDIM
  6
CONTINUOUS
 62
     3
 48
0.125
100
AcDbPolyline
 90
        2
 70
   128
 43
0.0
 10
20.05340094617803
 20
14.11276432414923
 10
20.05340094617803
 20
15.43328989341852
  0
LWPOLYLINE
  5
168
330
A
100
AcDbEntity
  8
ADPDIM
  6
CONTINUOUS
 62
     3
 48
0.125
100
AcDbPolyline
 90
        2
 70
   128
 43
0.0
 10
20.17840094617803
 20
13.98776432414923
 10
19.92840094617803
 20
14.23776432414923
  0
LWPOLYLINE
  5
16C
330
A
100
AcDbEntity
  8
ADPDIM
  6
CONTINUOUS
 62
     3
 48
0.125
100
AcDbPolyline
 90
        2
 70
   128
 43
0.0
 10
20.17840094617803
 20
16.96214879602114
 10
19.92840094617803
 20
17.21214879602114
  0
TEXT
  5
170
330
A
100
AcDbEntity
  8
ADPDIM
 62
     3
 48
0.0
100
AcDbText
 10
19.99090094617803
 20
15.53745656008519
 30
0.0
 40
0.125
  1
3
 72
     5
 11
20.11590094617803
 21
15.53745656008519
 31
0.0
100
AcDbText
  0
LWPOLYLINE
  5
171
330
A
100
AcDbEntity
  8
ADPDIM
  6
CONTINUOUS
 62
     3
 48
0.125
100
AcDbPolyline
 90
        2
 70
   128
 43
0.0
 10
26.15513149812323
 20
16.84642541222434
 10
26.15513149812323
 20
17.79164576788192
  0
LWPOLYLINE
  5
175
330
A
100
AcDbEntity
  8
ADPDIM
  6
CONTINUOUS
 62
     3
 48
0.125
100
AcDbPolyline
 90
        2
 70
   128
 43
0.0
 10
28.65513149812322
 20
16.78988001059622
 10
28.65513149812322
 20
17.79164576788192
  0
LWPOLYLINE
  5
179
330
A
100
AcDbEntity
  8
ADPDIM
  6
CONTINUOUS
 62
     3
 48
0.125
100
AcDbPolyline
 90
        2
 70
   128
 43
0.0
 10
26.15513149812323
 20
17.61164576788192
 10
27.0092981647899
 20
17.61164576788192
  0
LWPOLYLINE
  5
17D
330
A
100
AcDbEntity
  8
ADPDIM
  6
CONTINUOUS
 62
     3
 48
0.125
100
AcDbPolyline
 90
        2
 70
   128
 43
0.0
 10
28.65513149812322
 20
17.61164576788192
 10
27.80096483145657
 20
17.61164576788192
  0
LWPOLYLINE
  5
181
330
A
100
AcDbEntity
  8
ADPDIM
  6
CONTINUOUS
 62
     3
 48
0.125
100
AcDbPolyline
 90
        2
 70
   128
 43
0.0
 10
28.53013149812323
 20
17.48664576788192
 10
28.78013149812323
 20
17.73664576788192
  0
LWPOLYLINE
  5
185
330
A
100
AcDbEntity
  8
ADPDIM
  6
CONTINUOUS
 62
     3
 48
0.125
100
AcDbPolyline
 90
        2
 70
   128
 43
0.0
 10
26.03013149812323
 20
17.48664576788192
 10
26.28013149812323
 20
17.73664576788192
  0
TEXT
  5
189
330
A
100
AcDbEntity
  8
ADPDIM
 62
     3
 48
0.0
100
AcDbText
 10
27.09263149812323
 20
17.54914576788192
 30
0.0
 40
0.125
  1
2 1/2
 72
     5
 11
27.71763149812323
 21
17.54914576788192
 31
0.0
100
AcDbText
  0
LWPOLYLINE
  5
18A
330
A
100
AcDbEntity
  8
ADPDIM
  6
CONTINUOUS
 62
     3
 48
0.125
100
AcDbPolyline
 90
        2
 70
   128
 43
0.0
 10
26.50387207422053
 20
16.56670264200341
 10
26.50422993206607
 20
17.46527850912175
  0
LWPOLYLINE
  5
18E
330
A
100
AcDbEntity
  8
ADPDIM
  6
CONTINUOUS
 62
     3
 48
0.125
100
AcDbPolyline
 90
        2
 70
   128
 43
0.0
 10
28.3241354207781
 20
16.58245725152754
 10
28.32192092547662
 20
17.44346443439603
  0
LWPOLYLINE
  5
192
330
A
100
AcDbEntity
  8
ADPDIM
  6
CONTINUOUS
 62
     3
 48
0.125
100
AcDbPolyline
 90
        2
 70
   128
 43
0.0
 10
26.50422993206607
 20
17.28527850912175
 10
26.92089659873274
 20
17.28527850912175
  0
LWPOLYLINE
  5
196
330
A
100
AcDbEntity
  8
ADPDIM
  6
CONTINUOUS
 62
     3
 48
0.125
100
AcDbPolyline
 90
        2
 70
   128
 43
0.0
 10
28.3241354207781
 20
17.2611173541056
 10
27.82405742510865
 20
17.26225254135571
  0
LWPOLYLINE
  5
19A
330
A
100
AcDbEntity
  8
ADPDIM
  6
CONTINUOUS
 62
     3
 48
0.125
100
AcDbPolyline
 90
        2
 70
   128
 43
0.0
 10
28.19692092547662
 20
17.13846443439603
 10
28.44692092547662
 20
17.38846443439603
  0
LWPOLYLINE
  5
19E
330
A
100
AcDbEntity
  8
ADPDIM
  6
CONTINUOUS
 62
     3
 48
0.125
100
AcDbPolyline
 90
        2
 70
   128
 43
0.0
 10
26.37922993206607
 20
17.16027850912175
 10
26.62922993206607
 20
17.41027850912175
  0
TEXT
  5
1A2
330
A
100
AcDbEntity
  8
ADPDIM
 62
     3
 48
0.0
100
AcDbText
 10
26.92573733104127
 20
17.2072547199314
 30
0.0
 40
0.125
  1
1 13/16
 72
     5
 11
27.80073733104127
 21
17.2072547199314
 31
0.0
100
AcDbText
  0
LWPOLYLINE
  5
1A3
330
A
100
AcDbEntity
  8
ADPDIM
  6
CONTINUOUS
 62
     3
 48
0.125
100
AcDbPolyline
 90
        2
 70
   128
 43
0.0
 10
22.97448100107579
 20
15.16195656008519
 10
22.97448100107579
 20
14.73199675202583
  0
LWPOLYLINE
  5
1A7
330
A
100
AcDbEntity
  8
ADPDIM
  6
CONTINUOUS
 62
     3
 48
0.125
100
AcDbPolyline
 90
        2
 70
   128
 43
0.0
 10
23.72448100107579
 20
15.16195656008519
 10
23.72448100107579
 20
14.73199675202583
  0
LWPOLYLINE
  5
1AB
330
A
100
AcDbEntity
  8
ADPDIM
  6
CONTINUOUS
 62
     3
 48
0.125
100
AcDbPolyline
 90
        2
 70
   128
 43
0.0
 10
22.97448100107579
 20
14.91199675202583
 10
22.72448100107579
 20
14.91199675202583
  0
LWPOLYLINE
  5
1AF
330
A
100
AcDbEntity
  8
ADPDIM
  6
CONTINUOUS
 62
     3
 48
0.125
100
AcDbPolyline
 90
        2
 70
   128
 43
0.0
 10
23.72448100107579
 20
14.91199675202583
 10
23.97448100107579
 20
14.91199675202583
  0
LWPOLYLINE
  5
1B3
330
A
100
AcDbEntity
  8
ADPDIM
  6
CONTINUOUS
 62
     3
 48
0.125
100
AcDbPolyline
 90
        2
 70
   128
 43
0.0
 10
23.59948100107579
 20
14.78699675202583
 10
23.84948100107579
 20
15.03699675202583
  0
LWPOLYLINE
  5
1B7
330
A
100
AcDbEntity
  8
ADPDIM
  6
CONTINUOUS
 62
     3
 48
0.125
100
AcDbPolyline
 90
        2
 70
   128
 43
0.0
 10
22.84948100107579
 20
14.78699675202583
 10
23.09948100107579
 20
15.03699675202583
  0
TEXT
  5
1BB
330
A
100
AcDbEntity
  8
ADPDIM
 62
     3
 48
0.0
100
AcDbText
 10
23.16198100107579
 20
14.84949675202583
 30
0.0
 40
0.125
  1
3/4
 72
     5
 11
23.53698100107579
 21
14.84949675202583
 31
0.0
100
AcDbText
  0
LWPOLYLINE
  5
1BC
330
A
100
AcDbEntity
  8
ADPDIM
  6
CONTINUOUS
 62
     3
 48
0.125
100
AcDbPolyline
 90
        2
 70
   128
 43
0.0
 10
23.36034130523681
 20
16.90236279930777
 10
23.36034130523681
 20
17.44079057990978
  0
LWPOLYLINE
  5
1C0
330
A
100
AcDbEntity
  8
ADPDIM
  6
CONTINUOUS
 62
     3
 48
0.125
100
AcDbPolyline
 90
        2
 70
   128
 43
0.0
 10
20.36076666148717
 20
17.18272233687163
 10
20.36076666148717
 20
17.44079057990978
  0
LWPOLYLINE
  5
1C4
330
A
100
AcDbEntity
  8
ADPDIM
  6
CONTINUOUS
 62
     3
 48
0.125
100
AcDbPolyline
 90
        2
 70
   128
 43
0.0
 10
23.36034130523681
 20
17.26079057990978
 10
22.02722065002866
 20
17.26079057990978
  0
LWPOLYLINE
  5
1C8
330
A
100
AcDbEntity
  8
ADPDIM
  6
CONTINUOUS
 62
     3
 48
0.125
100
AcDbPolyline
 90
        2
 70
   128
 43
0.0
 10
20.36076666148717
 20
17.26079057990978
 10
21.69388731669533
 20
17.26079057990978
  0
LWPOLYLINE
  5
1CC
330
A
100
AcDbEntity
  8
ADPDIM
  6
CONTINUOUS
 62
     3
 48
0.125
100
AcDbPolyline
 90
        2
 70
   128
 43
0.0
 10
20.23576666148718
 20
17.13579057990978
 10
20.48576666148718
 20
17.38579057990978
  0
LWPOLYLINE
  5
1D0
330
A
100
AcDbEntity
  8
ADPDIM
  6
CONTINUOUS
 62
     3
 48
0.125
100
AcDbPolyline
 90
        2
 70
   128
 43
0.0
 10
23.23534130523681
 20
17.13579057990978
 10
23.48534130523681
 20
17.38579057990978
  0
TEXT
  5
1D4
330
A
100
AcDbEntity
  8
ADPDIM
 62
     3
 48
0.0
100
AcDbText
 10
21.79805398336199
 20
17.19829057990978
 30
0.0
 40
0.125
  1
3
 72
     5
 11
21.92305398336199
 21
17.19829057990978
 31
0.0
100
AcDbText
  0
LWPOLYLINE
  5
1D5
330
A
100
AcDbEntity
  8
ADPDIM
  6
CONTINUOUS
 62
     3
 48
0.125
100
AcDbPolyline
 90
        2
 70
   128
 43
0.0
 10
26.05398623096896
 20
16.64585347574576
 10
25.21656428505176
 20
16.64585347574576
  0
LWPOLYLINE
  5
1D9
330
A
100
AcDbEntity
  8
ADPDIM
  6
CONTINUOUS
 62
     3
 48
0.125
100
AcDbPolyline
 90
        2
 70
   128
 43
0.0
 10
27.21448623096896
 20
15.56908950359371
 10
25.21656428505176
 20
15.56908950359371
  0
LWPOLYLINE
  5
1DD
330
A
100
AcDbEntity
  8
ADPDIM
  6
CONTINUOUS
 62
     3
 48
0.125
100
AcDbPolyline
 90
        2
 70
   128
 43
0.0
 10
25.39656428505177
 20
16.64585347574576
 10
25.39656428505177
 20
16.89585347574576
  0
LWPOLYLINE
  5
1E1
330
A
100
AcDbEntity
  8
ADPDIM
  6
CONTINUOUS
 62
     3
 48
0.125
100
AcDbPolyline
 90
        2
 70
   128
 43
0.0
 10
25.39656428505177
 20
15.56908950359371
 10
25.39656428505177
 20
15.31908950359371
  0
LWPOLYLINE
  5
1E5
330
A
100
AcDbEntity
  8
ADPDIM
  6
CONTINUOUS
 62
     3
 48
0.125
100
AcDbPolyline
 90
        2
 70
   128
 43
0.0
 10
25.52156428505176
 20
15.44408950359371
 10
25.27156428505176
 20
15.69408950359371
  0
LWPOLYLINE
  5
1E9
330
A
100
AcDbEntity
  8
ADPDIM
  6
CONTINUOUS
 62
     3
 48
0.125
100
AcDbPolyline
 90
        2
 70
   128
 43
0.0
 10
25.52156428505176
 20
16.52085347574576
 10
25.27156428505176
 20
16.77085347574576
  0
TEXT
  5
1ED
330
A
100
AcDbEntity
  8
ADPDIM
 62
     3
 48
0.0
100
AcDbText
 10
25.02156428505176
 20
16.04497148966974
 30
0.0
 40
0.125
  1
1 1/16
 72
     5
 11
25.77156428505176
 21
16.04497148966974
 31
0.0
100
AcDbText
  0
LWPOLYLINE
  5
1EE
330
A
100
AcDbEntity
  8
DEFPOINTS
  6
CONTINUOUS
 62
     3
 48
0.125
100
AcDbPolyline
 90
        2
 70
   128
 43
0.0
 10
20.34591751915618
 20
17.08714879602114
 10
20.35076509131745
 20
17.08714879602114
  0
LWPOLYLINE
  5
1F2
330
A
100
AcDbEntity
  8
DEFPOINTS
  6
CONTINUOUS
 62
     3
 48
0.125
100
AcDbPolyline
 90
        2
 70
   128
 43
0.0
 10
20.34834130523682
 20
17.08472500994051
 10
20.34834130523682
 20
17.08957258210178
  0
LWPOLYLINE
  5
1F6
330
A
100
AcDbEntity
  8
DEFPOINTS
  6
CONTINUOUS
 62
     3
 48
0.125
100
AcDbPolyline
 90
        2
 70
   128
 43
0.0
 10
20.34591751915618
 20
14.11276432414923
 10
20.35076509131745
 20
14.11276432414923
  0
LWPOLYLINE
  5
1FA
330
A
100
AcDbEntity
  8
DEFPOINTS
  6
CONTINUOUS
 62
     3
 48
0.125
100
AcDbPolyline
 90
        2
 70
   128
 43
0.0
 10
20.34834130523682
 20
14.1103405380686
 10
20.34834130523682
 20
14.11518811022987
  0
LWPOLYLINE
  5
1FE
330
A
100
AcDbEntity
  8
DEFPOINTS
  6
CONTINUOUS
 62
     3
 48
0.125
100
AcDbPolyline
 90
        2
 70
   128
 43
0.0
 10
20.0509771600974
 20
14.11276432414923
 10
20.05582473225867
 20
14.11276432414923
  0
LWPOLYLINE
  5
202
330
A
100
AcDbEntity
  8
DEFPOINTS
  6
CONTINUOUS
 62
     3
 48
0.125
100
AcDbPolyline
 90
        2
 70
   128
 43
0.0
 10
20.05340094617803
 20
14.1103405380686
 10
20.05340094617803
 20
14.11518811022987
  0
LWPOLYLINE
  5
206
330
A
100
AcDbEntity
  8
DEFPOINTS
  6
CONTINUOUS
 62
     3
 48
0.125
100
AcDbPolyline
 90
        2
 70
   128
 43
0.0
 10
26.1527077120426
 20
16.78392541222433
 10
26.15755528420387
 20
16.78392541222433
  0
LWPOLYLINE
  5
20A
330
A
100
AcDbEntity
  8
DEFPOINTS
  6
CONTINUOUS
 62
     3
 48
0.125
100
AcDbPolyline
 90
        2
 70
   128
 43
0.0
 10
26.15513149812323
 20
16.7815016261437
 10
26.15513149812323
 20
16.78634919830497
  0
LWPOLYLINE
  5
20E
330
A
100
AcDbEntity
  8
DEFPOINTS
  6
CONTINUOUS
 62
     3
 48
0.125
100
AcDbPolyline
 90
        2
 70
   128
 43
0.0
 10
28.65270771204259
 20
16.72738001059622
 10
28.65755528420386
 20
16.72738001059622
  0
LWPOLYLINE
  5
212
330
A
100
AcDbEntity
  8
DEFPOINTS
  6
CONTINUOUS
 62
     3
 48
0.125
100
AcDbPolyline
 90
        2
 70
   128
 43
0.0
 10
28.65513149812322
 20
16.72495622451558
 10
28.65513149812322
 20
16.72980379667685
  0
LWPOLYLINE
  5
216
330
A
100
AcDbEntity
  8
DEFPOINTS
  6
CONTINUOUS
 62
     3
 48
0.125
100
AcDbPolyline
 90
        2
 70
   128
 43
0.0
 10
28.65270771204259
 20
17.61164576788192
 10
28.65755528420386
 20
17.61164576788192
  0
LWPOLYLINE
  5
21A
330
A
100
AcDbEntity
  8
DEFPOINTS
  6
CONTINUOUS
 62
     3
 48
0.125
100
AcDbPolyline
 90
        2
 70
   128
 43
0.0
 10
28.65513149812322
 20
17.60922198180128
 10
28.65513149812322
 20
17.61406955396255
  0
LWPOLYLINE
  5
21E
330
A
100
AcDbEntity
  8
DEFPOINTS
  6
CONTINUOUS
 62
     3
 48
0.125
100
AcDbPolyline
 90
        2
 70
   128
 43
0.0
 10
26.49695857382416
 20
16.68472720367534
 10
26.50180614598544
 20
16.68472720367534
  0
LWPOLYLINE
  5
222
330
A
100
AcDbEntity
  8
DEFPOINTS
  6
CONTINUOUS
 62
     3
 48
0.125
100
AcDbPolyline
 90
        2
 70
   128
 43
0.0
 10
26.4993823599048
 20
16.6823034175947
 10
26.4993823599048
 20
16.68715098975597
  0
LWPOLYLINE
  5
226
330
A
100
AcDbEntity
  8
DEFPOINTS
  6
CONTINUOUS
 62
     3
 48
0.125
100
AcDbPolyline
 90
        2
 70
   128
 43
0.0
 10
28.4212961547827
 20
16.69442234799789
 10
28.42614372694397
 20
16.69442234799789
  0
LWPOLYLINE
  5
22A
330
A
100
AcDbEntity
  8
DEFPOINTS
  6
CONTINUOUS
 62
     3
 48
0.125
100
AcDbPolyline
 90
        2
 70
   128
 43
0.0
 10
28.42371994086333
 20
16.69199856191725
 10
28.42371994086333
 20
16.69684613407852
  0
LWPOLYLINE
  5
22E
330
A
100
AcDbEntity
  8
DEFPOINTS
  6
CONTINUOUS
 62
     3
 48
0.125
100
AcDbPolyline
 90
        2
 70
   128
 43
0.0
 10
28.31949713939598
 20
17.26346443439602
 10
28.32434471155726
 20
17.26346443439602
  0
LWPOLYLINE
  5
232
330
A
100
AcDbEntity
  8
DEFPOINTS
  6
CONTINUOUS
 62
     3
 48
0.125
100
AcDbPolyline
 90
        2
 70
   128
 43
0.0
 10
28.32192092547662
 20
17.26104064831539
 10
28.32192092547662
 20
17.26588822047666
  0
LWPOLYLINE
  5
236
330
A
100
AcDbEntity
  8
DEFPOINTS
  6
CONTINUOUS
 62
     3
 48
0.125
100
AcDbPolyline
 90
        2
 70
   128
 43
0.0
 10
22.97205721499515
 20
15.22445656008519
 10
22.97690478715642
 20
15.22445656008519
  0
LWPOLYLINE
  5
23A
330
A
100
AcDbEntity
  8
DEFPOINTS
  6
CONTINUOUS
 62
     3
 48
0.125
100
AcDbPolyline
 90
        2
 70
   128
 43
0.0
 10
22.97448100107579
 20
15.22203277400455
 10
22.97448100107579
 20
15.22688034616582
  0
LWPOLYLINE
  5
23E
330
A
100
AcDbEntity
  8
DEFPOINTS
  6
CONTINUOUS
 62
     3
 48
0.125
100
AcDbPolyline
 90
        2
 70
   128
 43
0.0
 10
23.72205721499515
 20
15.22445656008519
 10
23.72690478715643
 20
15.22445656008519
  0
LWPOLYLINE
  5
242
330
A
100
AcDbEntity
  8
DEFPOINTS
  6
CONTINUOUS
 62
     3
 48
0.125
100
AcDbPolyline
 90
        2
 70
   128
 43
0.0
 10
23.72448100107579
 20
15.22203277400455
 10
23.72448100107579
 20
15.22688034616582
  0
LWPOLYLINE
  5
246
330
A
100
AcDbEntity
  8
DEFPOINTS
  6
CONTINUOUS
 62
     3
 48
0.125
100
AcDbPolyline
 90
        2
 70
   128
 43
0.0
 10
23.72205721499515
 20
14.91199675202583
 10
23.72690478715643
 20
14.91199675202583
  0
LWPOLYLINE
  5
24A
330
A
100
AcDbEntity
  8
DEFPOINTS
  6
CONTINUOUS
 62
     3
 48
0.125
100
AcDbPolyline
 90
        2
 70
   128
 43
0.0
 10
23.72448100107579
 20
14.90957296594519
 10
23.72448100107579
 20
14.91442053810646
  0
LWPOLYLINE
  5
24E
330
A
100
AcDbEntity
  8
DEFPOINTS
  6
CONTINUOUS
 62
     3
 48
0.125
100
AcDbPolyline
 90
        2
 70
   128
 43
0.0
 10
23.35791751915617
 20
16.83986279930777
 10
23.36276509131745
 20
16.83986279930777
  0
LWPOLYLINE
  5
252
330
A
100
AcDbEntity
  8
DEFPOINTS
  6
CONTINUOUS
 62
     3
 48
0.125
100
AcDbPolyline
 90
        2
 70
   128
 43
0.0
 10
23.36034130523681
 20
16.83743901322713
 10
23.36034130523681
 20
16.8422865853884
  0
LWPOLYLINE
  5
256
330
A
100
AcDbEntity
  8
DEFPOINTS
  6
CONTINUOUS
 62
     3
 48
0.125
100
AcDbPolyline
 90
        2
 70
   128
 43
0.0
 10
20.35834287540654
 20
17.12022233687163
 10
20.36319044756781
 20
17.12022233687163
  0
LWPOLYLINE
  5
25A
330
A
100
AcDbEntity
  8
DEFPOINTS
  6
CONTINUOUS
 62
     3
 48
0.125
100
AcDbPolyline
 90
        2
 70
   128
 43
0.0
 10
20.36076666148717
 20
17.11779855079099
 10
20.36076666148717
 20
17.12264612295227
  0
LWPOLYLINE
  5
25E
330
A
100
AcDbEntity
  8
DEFPOINTS
  6
CONTINUOUS
 62
     3
 48
0.125
100
AcDbPolyline
 90
        2
 70
   128
 43
0.0
 10
20.35834287540654
 20
17.26079057990978
 10
20.36319044756781
 20
17.26079057990978
  0
LWPOLYLINE
  5
262
330
A
100
AcDbEntity
  8
DEFPOINTS
  6
CONTINUOUS
 62
     3
 48
0.125
100
AcDbPolyline
 90
        2
 70
   128
 43
0.0
 10
20.36076666148717
 20
17.25836679382915
 10
20.36076666148717
 20
17.26321436599042
  0
LWPOLYLINE
  5
266
330
A
100
AcDbEntity
  8
DEFPOINTS
  6
CONTINUOUS
 62
     3
 48
0.125
100
AcDbPolyline
 90
        2
 70
   128
 43
0.0
 10
26.11406244488833
 20
16.64585347574575
 10
26.1189100170496
 20
16.64585347574575
  0
LWPOLYLINE
  5
26A
330
A
100
AcDbEntity
  8
DEFPOINTS
  6
CONTINUOUS
 62
     3
 48
0.125
100
AcDbPolyline
 90
        2
 70
   128
 43
0.0
 10
26.11648623096896
 20
16.64342968966512
 10
26.11648623096896
 20
16.64827726182639
  0
LWPOLYLINE
  5
26E
330
A
100
AcDbEntity
  8
DEFPOINTS
  6
CONTINUOUS
 62
     3
 48
0.125
100
AcDbPolyline
 90
        2
 70
   128
 43
0.0
 10
27.27456244488832
 20
15.56908950359371
 10
27.27941001704959
 20
15.56908950359371
  0
LWPOLYLINE
  5
272
330
A
100
AcDbEntity
  8
DEFPOINTS
  6
CONTINUOUS
 62
     3
 48
0.125
100
AcDbPolyline
 90
        2
 70
   128
 43
0.0
 10
27.27698623096896
 20
15.56666571751308
 10
27.27698623096896
 20
15.57151328967435
  0
LWPOLYLINE
  5
276
330
A
100
AcDbEntity
  8
DEFPOINTS
  6
CONTINUOUS
 62
     3
 48
0.125
100
AcDbPolyline
 90
        2
 70
   128
 43
0.0
 10
25.39414049897112
 20
15.56908950359371
 10
25.3989880711324
 20
15.56908950359371
  0
LWPOLYLINE
  5
27A
330
A
100
AcDbEntity
  8
DEFPOINTS
  6
CONTINUOUS
 62
     3
 48
0.125
100
AcDbPolyline
 90
        2
 70
   128
 43
0.0
 10
25.39656428505177
 20
15.56666571751308
 10
25.39656428505177
 20
15.57151328967435
  0
TEXT
  5
32A
330
A
100
AcDbEntity
  8
ADPDIM
100
AcDbText
 10
18.3492157505833
 20
12.85604872964443
 30
0.0
 40
0.125
  1
J U L I U S  B L U M  &  C O . ,  I N C .      ( 8 0 0 )  5 2 6 - 6 2 9 3        W W W . J U L I U S B L U M . C O M        P A R T  N O .  2 4 3
 41
1.25
  7
ARIAL_WIDE
 72
     1
 11
24.80811752411672
 21
12.98104872964443
 31
0.0
100
AcDbText
 73
     3
  0
ENDSEC
  0
SECTION
  2
OBJECTS
  0
DICTIONARY
  5
19
330
0
100
AcDbDictionary
  3
ACAD_GROUP
350
1A
  3
ACAD_LAYOUT
350
283
  3
ACAD_MLINESTYLE
350
1B
  3
ACAD_PLOTSETTINGS
350
284
  3
ACAD_PLOTSTYLENAME
350
281
  3
ACDBHEADERROUNDTRIPXREC
350
3F4
  3
ACDBVARIABLEDICTIONARY
350
2F1
  0
DICTIONARY
  5
2E5
330
A
100
AcDbDictionary
280
     1
  3
ACAD_LAYOUTSELFREF
360
414
  0
DICTIONARY
  5
2E7
330
B
100
AcDbDictionary
280
     1
  3
ACAD_LAYOUTSELFREF
360
415
  0
DICTIONARY
  5
1A
102
{ACAD_REACTORS
330
19
102
}
330
19
100
AcDbDictionary
  0
DICTIONARY
  5
283
102
{ACAD_REACTORS
330
19
102
}
330
19
100
AcDbDictionary
  0
DICTIONARY
  5
1B
102
{ACAD_REACTORS
330
19
102
}
330
19
100
AcDbDictionary
  3
STANDARD
350
1C
  0
DICTIONARY
  5
284
102
{ACAD_REACTORS
330
19
102
}
330
19
100
AcDbDictionary
  0
ACDBDICTIONARYWDFLT
  5
281
102
{ACAD_REACTORS
330
19
102
}
330
19
100
AcDbDictionary
281
     1
  3
Normal
350
282
100
AcDbDictionaryWithDefault
340
282
  0
DICTIONARY
  5
3F4
102
{ACAD_REACTORS
330
19
102
}
330
19
100
AcDbDictionary
  3
CEPSNTYPE
350
3FE
  3
FINGERPRINTGUID
350
3FF
  3
HYPERLINKBASE
350
3F7
  3
INSUNITS
350
3FD
  3
LAYOUTDICT
350
3F9
  3
LWETCUNION
350
3FC
  3
PLOTSETDICT
350
3FA
  3
PLOTSTYLNAMDICT
350
3FB
  3
PSVPSCALE
350
401
  3
PUCSBASE
350
404
  3
PUCSORGBACK
350
40A
  3
PUCSORGBOTTOM
350
406
  3
PUCSORGFRONT
350
409
  3
PUCSORGLEFT
350
407
  3
PUCSORGRIGHT
350
408
  3
PUCSORGTOP
350
405
  3
PUCSORTHOREF
350
402
  3
PUCSORTHOVIEW
350
403
  3
STYLESHEET
350
3F8
  3
TSTACKALIGN
350
3F5
  3
TSTACKSIZE
350
3F6
  3
UCSBASE
350
40D
  3
UCSORGBACK
350
413
  3
UCSORGBOTTOM
350
40F
  3
UCSORGFRONT
350
412
  3
UCSORGLEFT
350
410
  3
UCSORGRIGHT
350
411
  3
UCSORGTOP
350
40E
  3
UCSORTHOREF
350
40B
  3
UCSORTHOVIEW
350
40C
  3
VERSIONGUID
350
400
  0
DICTIONARY
  5
2F1
102
{ACAD_REACTORS
330
19
102
}
330
19
100
AcDbDictionary
  3
DIMASSOC
350
2F2
  0
XRECORD
  5
414
102
{ACAD_REACTORS
330
2E5
102
}
330
2E5
100
AcDbXrecord
340
A
  0
XRECORD
  5
415
102
{ACAD_REACTORS
330
2E7
102
}
330
2E7
100
AcDbXrecord
340
B
  0
MLINESTYLE
  5
1C
102
{ACAD_REACTORS
330
1B
102
}
330
1B
100
AcDbMlineStyle
  2
STANDARD
 70
     0
  3

 62
     0
 51
90.00000000000019
 52
90.00000000000019
 71
     2
 49
0.5
 62
   256
  6
BYLAYER
 49
-0.5
 62
   256
  6
BYLAYER
  0
ACDBPLACEHOLDER
  5
282
102
{ACAD_REACTORS
330
281
102
}
330
281
100
AcDbPlaceHolder
280
     0
  0
XRECORD
  5
3FE
102
{ACAD_REACTORS
330
3F4
102
}
330
3F4
100
AcDbXrecord
 90
        0
  0
XRECORD
  5
3FF
102
{ACAD_REACTORS
330
3F4
102
}
330
3F4
100
AcDbXrecord
  1
{6927B09D-5ECA-40D1-9B00-95D2ED12BF6A}
  0
XRECORD
  5
3F7
102
{ACAD_REACTORS
330
3F4
102
}
330
3F4
100
AcDbXrecord
  1

  0
XRECORD
  5
3FD
102
{ACAD_REACTORS
330
3F4
102
}
330
3F4
100
AcDbXrecord
 90
        0
  0
XRECORD
  5
3F9
102
{ACAD_REACTORS
330
3F4
102
}
330
3F4
100
AcDbXrecord
340
283
  0
XRECORD
  5
3FC
102
{ACAD_REACTORS
330
3F4
102
}
330
3F4
100
AcDbXrecord
 90
    14877
  0
XRECORD
  5
3FA
102
{ACAD_REACTORS
330
3F4
102
}
330
3F4
100
AcDbXrecord
340
284
  0
XRECORD
  5
3FB
102
{ACAD_REACTORS
330
3F4
102
}
330
3F4
100
AcDbXrecord
340
281
  0
XRECORD
  5
401
102
{ACAD_REACTORS
330
3F4
102
}
330
3F4
100
AcDbXrecord
 40
0.0
  0
XRECORD
  5
404
102
{ACAD_REACTORS
330
3F4
102
}
330
3F4
100
AcDbXrecord
340
0
  0
XRECORD
  5
40A
102
{ACAD_REACTORS
330
3F4
102
}
330
3F4
100
AcDbXrecord
 10
0.0
 20
0.0
 30
0.0
  0
XRECORD
  5
406
102
{ACAD_REACTORS
330
3F4
102
}
330
3F4
100
AcDbXrecord
 10
0.0
 20
0.0
 30
0.0
  0
XRECORD
  5
409
102
{ACAD_REACTORS
330
3F4
102
}
330
3F4
100
AcDbXrecord
 10
0.0
 20
0.0
 30
0.0
  0
XRECORD
  5
407
102
{ACAD_REACTORS
330
3F4
102
}
330
3F4
100
AcDbXrecord
 10
0.0
 20
0.0
 30
0.0
  0
XRECORD
  5
408
102
{ACAD_REACTORS
330
3F4
102
}
330
3F4
100
AcDbXrecord
 10
0.0
 20
0.0
 30
0.0
  0
XRECORD
  5
405
102
{ACAD_REACTORS
330
3F4
102
}
330
3F4
100
AcDbXrecord
 10
0.0
 20
0.0
 30
0.0
  0
XRECORD
  5
402
102
{ACAD_REACTORS
330
3F4
102
}
330
3F4
100
AcDbXrecord
340
0
  0
XRECORD
  5
403
102
{ACAD_REACTORS
330
3F4
102
}
330
3F4
100
AcDbXrecord
 70
     0
  0
XRECORD
  5
3F8
102
{ACAD_REACTORS
330
3F4
102
}
330
3F4
100
AcDbXrecord
  1

  0
XRECORD
  5
3F5
102
{ACAD_REACTORS
330
3F4
102
}
330
3F4
100
AcDbXrecord
 90
        1
  0
XRECORD
  5
3F6
102
{ACAD_REACTORS
330
3F4
102
}
330
3F4
100
AcDbXrecord
 90
       70
  0
XRECORD
  5
40D
102
{ACAD_REACTORS
330
3F4
102
}
330
3F4
100
AcDbXrecord
340
0
  0
XRECORD
  5
413
102
{ACAD_REACTORS
330
3F4
102
}
330
3F4
100
AcDbXrecord
 10
0.0
 20
0.0
 30
0.0
  0
XRECORD
  5
40F
102
{ACAD_REACTORS
330
3F4
102
}
330
3F4
100
AcDbXrecord
 10
0.0
 20
0.0
 30
0.0
  0
XRECORD
  5
412
102
{ACAD_REACTORS
330
3F4
102
}
330
3F4
100
AcDbXrecord
 10
0.0
 20
0.0
 30
0.0
  0
XRECORD
  5
410
102
{ACAD_REACTORS
330
3F4
102
}
330
3F4
100
AcDbXrecord
 10
0.0
 20
0.0
 30
0.0
  0
XRECORD
  5
411
102
{ACAD_REACTORS
330
3F4
102
}
330
3F4
100
AcDbXrecord
 10
0.0
 20
0.0
 30
0.0
  0
XRECORD
  5
40E
102
{ACAD_REACTORS
330
3F4
102
}
330
3F4
100
AcDbXrecord
 10
0.0
 20
0.0
 30
0.0
  0
XRECORD
  5
40B
102
{ACAD_REACTORS
330
3F4
102
}
330
3F4
100
AcDbXrecord
340
0
  0
XRECORD
  5
40C
102
{ACAD_REACTORS
330
3F4
102
}
330
3F4
100
AcDbXrecord
 70
     0
  0
XRECORD
  5
400
102
{ACAD_REACTORS
330
3F4
102
}
330
3F4
100
AcDbXrecord
  1
{03646FC5-25AD-4C05-8351-B4AB09250749}
  0
DICTIONARYVAR
  5
2F2
102
{ACAD_REACTORS
330
2F1
102
}
330
2F1
100
DictionaryVariables
280
     0
  1
1
  0
ENDSEC
  0
EOF
