  0
SECTION
  2
HEADER
  9
$ACADVER
  1
AC1015
  9
$ACADMAINTVER
 70
    20
  9
$DWGCODEPAGE
  3
ANSI_1252
  9
$INSBASE
 10
0.0
 20
0.0
 30
0.0
  9
$EXTMIN
 10
11.91848022237366
 20
6.21287239161458
 30
0.0
  9
$EXTMAX
 10
24.83628376944051
 20
10.28004943845395
 30
0.0
  9
$LIMMIN
 10
0.0
 20
0.0
  9
$LIMMAX
 10
0.0
 20
0.0
  9
$ORTHOMODE
 70
     0
  9
$REGENMODE
 70
     1
  9
$FILLMODE
 70
     1
  9
$QTEXTMODE
 70
     0
  9
$MIRRTEXT
 70
     1
  9
$LTSCALE
 40
1.0
  9
$ATTMODE
 70
     1
  9
$TEXTSIZE
 40
0.0
  9
$TRACEWID
 40
0.05
  9
$TEXTSTYLE
  7
STANDARD
  9
$CLAYER
  8
0
  9
$CELTYPE
  6
CONTINUOUS
  9
$CECOLOR
 62
   256
  9
$CELTSCALE
 40
1.0
  9
$DISPSILH
 70
     0
  9
$DIMSCALE
 40
1.0
  9
$DIMASZ
 40
0.18
  9
$DIMEXO
 40
0.0625
  9
$DIMDLI
 40
0.38
  9
$DIMRND
 40
0.0
  9
$DIMDLE
 40
0.0
  9
$DIMEXE
 40
0.18
  9
$DIMTP
 40
0.0
  9
$DIMTM
 40
0.0
  9
$DIMTXT
 40
0.18
  9
$DIMCEN
 40
0.09
  9
$DIMTSZ
 40
0.0
  9
$DIMTOL
 70
     0
  9
$DIMLIM
 70
     0
  9
$DIMTIH
 70
     1
  9
$DIMTOH
 70
     1
  9
$DIMSE1
 70
     0
  9
$DIMSE2
 70
     0
  9
$DIMTAD
 70
     0
  9
$DIMZIN
 70
     0
  9
$DIMBLK
  1

  9
$DIMASO
 70
     1
  9
$DIMSHO
 70
     1
  9
$DIMPOST
  1

  9
$DIMAPOST
  1

  9
$DIMALT
 70
     0
  9
$DIMALTD
 70
     2
  9
$DIMALTF
 40
25.4
  9
$DIMLFAC
 40
1.0
  9
$DIMTOFL
 70
     0
  9
$DIMTVP
 40
0.0
  9
$DIMTIX
 70
     0
  9
$DIMSOXD
 70
     0
  9
$DIMSAH
 70
     0
  9
$DIMBLK1
  1

  9
$DIMBLK2
  1

  9
$DIMSTYLE
  2
STANDARD
  9
$DIMCLRD
 70
     0
  9
$DIMCLRE
 70
     0
  9
$DIMCLRT
 70
     0
  9
$DIMTFAC
 40
1.0
  9
$DIMGAP
 40
0.09
  9
$DIMJUST
 70
     0
  9
$DIMSD1
 70
     0
  9
$DIMSD2
 70
     0
  9
$DIMTOLJ
 70
     1
  9
$DIMTZIN
 70
     0
  9
$DIMALTZ
 70
     0
  9
$DIMALTTZ
 70
     0
  9
$DIMUPT
 70
     0
  9
$DIMDEC
 70
     4
  9
$DIMTDEC
 70
     4
  9
$DIMALTU
 70
     2
  9
$DIMALTTD
 70
     2
  9
$DIMTXSTY
  7
STANDARD
  9
$DIMAUNIT
 70
     0
  9
$DIMADEC
 70
     0
  9
$DIMALTRND
 40
0.0
  9
$DIMAZIN
 70
     0
  9
$DIMDSEP
 70
    46
  9
$DIMATFIT
 70
     3
  9
$DIMFRAC
 70
     0
  9
$DIMLDRBLK
  1

  9
$DIMLUNIT
 70
     2
  9
$DIMLWD
 70
    -2
  9
$DIMLWE
 70
    -2
  9
$DIMTMOVE
 70
     0
  9
$LUNITS
 70
     2
  9
$LUPREC
 70
     4
  9
$SKETCHINC
 40
0.1
  9
$FILLETRAD
 40
0.0
  9
$AUNITS
 70
     0
  9
$AUPREC
 70
     0
  9
$MENU
  1
acad
  9
$ELEVATION
 40
0.0
  9
$PELEVATION
 40
0.0
  9
$THICKNESS
 40
0.0
  9
$LIMCHECK
 70
     0
  9
$CHAMFERA
 40
0.0
  9
$CHAMFERB
 40
0.0
  9
$CHAMFERC
 40
0.0
  9
$CHAMFERD
 40
0.0
  9
$SKPOLY
 70
     0
  9
$TDCREATE
 40
2444971.791666667
  9
$TDUCREATE
 40
2444971.958333334
  9
$TDUPDATE
 40
2453950.020943032
  9
$TDUUPDATE
 40
2453950.187609699
  9
$TDINDWG
 40
0.0199637500
  9
$TDUSRTIMER
 40
0.0199637500
  9
$USRTIMER
 70
     1
  9
$ANGBASE
 50
0.0
  9
$ANGDIR
 70
     0
  9
$PDMODE
 70
     0
  9
$PDSIZE
 40
0.0
  9
$PLINEWID
 40
0.0
  9
$SPLFRAME
 70
     0
  9
$SPLINETYPE
 70
     6
  9
$SPLINESEGS
 70
     8
  9
$HANDSEED
  5
4BA
  9
$SURFTAB1
 70
     6
  9
$SURFTAB2
 70
     6
  9
$SURFTYPE
 70
     6
  9
$SURFU
 70
     6
  9
$SURFV
 70
     6
  9
$UCSBASE
  2

  9
$UCSNAME
  2

  9
$UCSORG
 10
0.0
 20
0.0
 30
0.0
  9
$UCSXDIR
 10
1.0
 20
0.0
 30
0.0
  9
$UCSYDIR
 10
0.0
 20
1.0
 30
0.0
  9
$UCSORTHOREF
  2

  9
$UCSORTHOVIEW
 70
     0
  9
$UCSORGTOP
 10
0.0
 20
0.0
 30
0.0
  9
$UCSORGBOTTOM
 10
0.0
 20
0.0
 30
0.0
  9
$UCSORGLEFT
 10
0.0
 20
0.0
 30
0.0
  9
$UCSORGRIGHT
 10
0.0
 20
0.0
 30
0.0
  9
$UCSORGFRONT
 10
0.0
 20
0.0
 30
0.0
  9
$UCSORGBACK
 10
0.0
 20
0.0
 30
0.0
  9
$PUCSBASE
  2

  9
$PUCSNAME
  2

  9
$PUCSORG
 10
0.0
 20
0.0
 30
0.0
  9
$PUCSXDIR
 10
1.0
 20
0.0
 30
0.0
  9
$PUCSYDIR
 10
0.0
 20
1.0
 30
0.0
  9
$PUCSORTHOREF
  2

  9
$PUCSORTHOVIEW
 70
     0
  9
$PUCSORGTOP
 10
0.0
 20
0.0
 30
0.0
  9
$PUCSORGBOTTOM
 10
0.0
 20
0.0
 30
0.0
  9
$PUCSORGLEFT
 10
0.0
 20
0.0
 30
0.0
  9
$PUCSORGRIGHT
 10
0.0
 20
0.0
 30
0.0
  9
$PUCSORGFRONT
 10
0.0
 20
0.0
 30
0.0
  9
$PUCSORGBACK
 10
0.0
 20
0.0
 30
0.0
  9
$USERI1
 70
     0
  9
$USERI2
 70
     0
  9
$USERI3
 70
     0
  9
$USERI4
 70
     0
  9
$USERI5
 70
     0
  9
$USERR1
 40
0.0
  9
$USERR2
 40
0.0
  9
$USERR3
 40
0.0
  9
$USERR4
 40
0.0
  9
$USERR5
 40
0.0
  9
$WORLDVIEW
 70
     1
  9
$SHADEDGE
 70
     3
  9
$SHADEDIF
 70
    70
  9
$TILEMODE
 70
     1
  9
$MAXACTVP
 70
    16
  9
$PINSBASE
 10
0.0
 20
0.0
 30
0.0
  9
$PLIMCHECK
 70
     0
  9
$PEXTMIN
 10
1.000000000000000E+20
 20
1.000000000000000E+20
 30
1.000000000000000E+20
  9
$PEXTMAX
 10
-1.000000000000000E+20
 20
-1.000000000000000E+20
 30
-1.000000000000000E+20
  9
$PLIMMIN
 10
0.0
 20
0.0
  9
$PLIMMAX
 10
12.0
 20
9.0
  9
$UNITMODE
 70
     0
  9
$VISRETAIN
 70
     0
  9
$PLINEGEN
 70
     0
  9
$PSLTSCALE
 70
     0
  9
$TREEDEPTH
 70
  3020
  9
$CMLSTYLE
  2
STANDARD
  9
$CMLJUST
 70
     0
  9
$CMLSCALE
 40
1.0
  9
$PROXYGRAPHICS
 70
     1
  9
$MEASUREMENT
 70
     0
  9
$CELWEIGHT
370
    -1
  9
$ENDCAPS
280
     0
  9
$JOINSTYLE
280
     0
  9
$LWDISPLAY
290
     0
  9
$INSUNITS
 70
     0
  9
$HYPERLINKBASE
  1

  9
$STYLESHEET
  1

  9
$XEDIT
290
     1
  9
$CEPSNTYPE
380
     0
  9
$PSTYLEMODE
290
     1
  9
$FINGERPRINTGUID
  2
{14D6E147-4693-4F07-B41B-DF6D5C2FE358}
  9
$VERSIONGUID
  2
{057C17BD-7ACC-4B11-A64C-752938DFBDBD}
  9
$EXTNAMES
290
     1
  9
$PSVPSCALE
 40
0.0
  9
$OLESTARTUP
290
     0
  0
ENDSEC
  0
SECTION
  2
CLASSES
  0
CLASS
  1
IMAGE
  2
AcDbRasterImage
  3
ISM
 90
    34943
280
     0
281
     1
  0
CLASS
  1
DICTIONARYVAR
  2
AcDbDictionaryVar
  3
ObjectDBX Classes
 90
        0
280
     0
281
     0
  0
CLASS
  1
RASTERVARIABLES
  2
AcDbRasterVariables
  3
ISM
 90
    32768
280
     0
281
     0
  0
CLASS
  1
IMAGEDEF
  2
AcDbRasterImageDef
  3
ISM
 90
    32768
280
     0
281
     0
  0
CLASS
  1
IMAGEDEF_REACTOR
  2
AcDbRasterImageDefReactor
  3
ISM
 90
    32769
280
     0
281
     0
  0
CLASS
  1
IDBUFFER
  2
AcDbIdBuffer
  3
ObjectDBX Classes
 90
    32768
280
     0
281
     0
  0
CLASS
  1
SPATIAL_FILTER
  2
AcDbSpatialFilter
  3
ObjectDBX Classes
 90
    32768
280
     0
281
     0
  0
CLASS
  1
SORTENTSTABLE
  2
AcDbSortentsTable
  3
ObjectDBX Classes
 90
    32768
280
     0
281
     0
  0
CLASS
  1
LAYER_INDEX
  2
AcDbLayerIndex
  3
ObjectDBX Classes
 90
    32768
280
     0
281
     0
  0
CLASS
  1
SPATIAL_INDEX
  2
AcDbSpatialIndex
  3
ObjectDBX Classes
 90
    32768
280
     0
281
     0
  0
CLASS
  1
OBJECT_PTR
  2
CAseDLPNTableRecord
  3
ASE-LPNTableRecord
 90
    32769
280
     0
281
     0
  0
CLASS
  1
ACDBDICTIONARYWDFLT
  2
AcDbDictionaryWithDefault
  3
ObjectDBX Classes
 90
        0
280
     0
281
     0
  0
CLASS
  1
ACDBPLACEHOLDER
  2
AcDbPlaceHolder
  3
ObjectDBX Classes
 90
        0
280
     0
281
     0
  0
CLASS
  1
LAYOUT
  2
AcDbLayout
  3
ObjectDBX Classes
 90
        0
280
     0
281
     0
  0
CLASS
  1
MATERIAL
  2
AcDbMaterial
  3
ObjectDBX Classes
 90
     1024
280
     0
281
     0
  0
CLASS
  1
VISUALSTYLE
  2
AcDbVisualStyle
  3
ObjectDBX Classes
 90
     4095
280
     0
281
     0
  0
CLASS
  1
TABLESTYLE
  2
AcDbTableStyle
  3
ObjectDBX Classes
 90
     4095
280
     0
281
     0
  0
ENDSEC
  0
SECTION
  2
TABLES
  0
TABLE
  2
VPORT
  5
7
330
0
100
AcDbSymbolTable
 70
     2
  0
VPORT
  5
2E
330
7
100
AcDbSymbolTableRecord
100
AcDbViewportTableRecord
  2
DCADVPORT
 70
     0
 10
14.30664564644233
 20
7.46811639404319
 11
21.99414564644234
 21
10.28004943845395
 12
6.209999999999999
 22
9.019999999999999
 13
0.0
 23
0.0
 14
1.0
 24
1.0
 15
0.0
 25
0.0
 16
0.0
 26
0.0
 36
1.0
 17
0.0
 27
0.0
 37
0.0
 40
18.04
 41
0.688564
 42
50.0
 43
1.0
 44
1.0
 50
0.0
 51
0.0
 71
     0
 72
   100
 73
     1
 74
     1
 75
     0
 76
     0
 77
     0
 78
     0
281
     0
 65
     1
110
0.0
120
0.0
130
0.0
111
1.0
121
0.0
131
0.0
112
0.0
122
1.0
132
0.0
 79
     0
146
0.0
  0
VPORT
  5
43F
330
7
100
AcDbSymbolTableRecord
100
AcDbViewportTableRecord
  2
*Active
 70
     0
 10
0.0
 20
0.0
 11
1.0
 21
1.0
 12
19.23548249994862
 22
9.304664263874665
 13
0.0
 23
0.0
 14
1.0
 24
1.0
 15
0.0
 25
0.0
 16
0.0
 26
0.0
 36
1.0
 17
0.0
 27
0.0
 37
0.0
 40
6.539585882623272
 41
2.023012552301255
 42
50.0
 43
0.0
 44
0.0
 50
0.0
 51
0.0
 71
     0
 72
   100
 73
     1
 74
     1
 75
     0
 76
     0
 77
     0
 78
     0
281
     0
 65
     1
110
0.0
120
0.0
130
0.0
111
1.0
121
0.0
131
0.0
112
0.0
122
1.0
132
0.0
 79
     0
146
0.0
  0
ENDTAB
  0
TABLE
  2
LTYPE
  5
4
330
0
100
AcDbSymbolTable
 70
     2
  0
LTYPE
  5
11
330
4
100
AcDbSymbolTableRecord
100
AcDbLinetypeTableRecord
  2
BYBLOCK
 70
     0
  3

 72
    65
 73
     0
 40
0.0
  0
LTYPE
  5
12
330
4
100
AcDbSymbolTableRecord
100
AcDbLinetypeTableRecord
  2
BYLAYER
 70
     0
  3

 72
    65
 73
     0
 40
0.0
  0
LTYPE
  5
13
330
4
100
AcDbSymbolTableRecord
100
AcDbLinetypeTableRecord
  2
CONTINUOUS
 70
     0
  3
Solid line
 72
    65
 73
     0
 40
0.0
  0
LTYPE
  5
1E
330
4
100
AcDbSymbolTableRecord
100
AcDbLinetypeTableRecord
  2
CONTINUOUS
 70
     0
  3
Solid line
 72
    65
 73
     0
 40
0.0
  0
ENDTAB
  0
TABLE
  2
LAYER
  5
2
330
0
100
AcDbSymbolTable
 70
     5
  0
LAYER
  5
14
330
2
100
AcDbSymbolTableRecord
100
AcDbLayerTableRecord
  2
0
 70
     0
 62
     7
  6
CONTINUOUS
370
    -3
390
2CE
  0
LAYER
  5
2A
330
2
100
AcDbSymbolTableRecord
100
AcDbLayerTableRecord
  2
0
 70
     0
 62
   250
  6
CONTINUOUS
370
    -3
390
2CE
  0
LAYER
  5
2B
330
2
100
AcDbSymbolTableRecord
100
AcDbLayerTableRecord
  2
DEFPOINTS
 70
     0
 62
   250
  6
CONTINUOUS
290
     0
370
    -3
390
2CE
  0
LAYER
  5
2C
330
2
100
AcDbSymbolTableRecord
100
AcDbLayerTableRecord
  2
ADP2DETAIL
 70
     0
 62
   250
  6
CONTINUOUS
370
    -3
390
2CE
  0
LAYER
  5
2D
330
2
100
AcDbSymbolTableRecord
100
AcDbLayerTableRecord
  2
ADPDIM
 70
     0
 62
     3
  6
CONTINUOUS
370
    -3
390
2CE
  0
ENDTAB
  0
TABLE
  2
STYLE
  5
3
330
0
100
AcDbSymbolTable
 70
     2
  0
STYLE
  5
17
330
3
100
AcDbSymbolTableRecord
100
AcDbTextStyleTableRecord
  2
STANDARD
 70
     0
 40
0.0
 41
1.0
 50
0.0
 71
     0
 42
0.0
  3
txt
  4

  0
STYLE
  5
2D6
330
3
100
AcDbSymbolTableRecord
100
AcDbTextStyleTableRecord
  2
ARIAL_WIDE
 70
     0
 40
0.0
 41
1.25
 50
0.0
 71
     0
 42
0.2
  3
ARIAL.TTF
  4

1001
ACAD
1000
Arial
1071
       34
  0
ENDTAB
  0
TABLE
  2
VIEW
  5
5
330
0
100
AcDbSymbolTable
 70
     0
  0
ENDTAB
  0
TABLE
  2
UCS
  5
6
330
0
100
AcDbSymbolTable
 70
     0
  0
ENDTAB
  0
TABLE
  2
APPID
  5
8
330
0
100
AcDbSymbolTable
 70
     2
  0
APPID
  5
16
330
8
100
AcDbSymbolTableRecord
100
AcDbRegAppTableRecord
  2
ACAD
 70
     0
  0
APPID
  5
48C
330
8
100
AcDbSymbolTableRecord
100
AcDbRegAppTableRecord
  2
DCO15
 70
     0
  0
ENDTAB
  0
TABLE
  2
DIMSTYLE
  5
9
330
0
100
AcDbSymbolTable
 70
     1
100
AcDbDimStyleTable
 71
     0
  0
DIMSTYLE
105
18
330
9
100
AcDbSymbolTableRecord
100
AcDbDimStyleTableRecord
  2
STANDARD
 70
     0
289
     0
340
17
  0
ENDTAB
  0
TABLE
  2
BLOCK_RECORD
  5
1
330
0
100
AcDbSymbolTable
 70
     0
  0
BLOCK_RECORD
  5
A
102
{ACAD_XDICTIONARY
360
331
102
}
330
1
100
AcDbSymbolTableRecord
100
AcDbBlockTableRecord
  2
*MODEL_SPACE
340
2D1
  0
BLOCK_RECORD
  5
B
102
{ACAD_XDICTIONARY
360
333
102
}
330
1
100
AcDbSymbolTableRecord
100
AcDbBlockTableRecord
  2
*PAPER_SPACE
340
2D2
  0
ENDTAB
  0
ENDSEC
  0
SECTION
  2
BLOCKS
  0
BLOCK
  5
D
330
A
100
AcDbEntity
  8
0
100
AcDbBlockBegin
  2
*MODEL_SPACE
 70
     0
 10
0.0
 20
0.0
 30
0.0
  3
*MODEL_SPACE
  1

  0
ENDBLK
  5
E
330
A
100
AcDbEntity
  8
0
100
AcDbBlockEnd
  0
BLOCK
  5
F
330
B
100
AcDbEntity
 67
     1
  8
0
100
AcDbBlockBegin
  2
*PAPER_SPACE
 70
     0
 10
0.0
 20
0.0
 30
0.0
  3
*PAPER_SPACE
  1

  0
ENDBLK
  5
10
330
B
100
AcDbEntity
 67
     1
  8
0
100
AcDbBlockEnd
  0
ENDSEC
  0
SECTION
  2
ENTITIES
  0
LWPOLYLINE
  5
2F
330
A
100
AcDbEntity
  8
0
  6
Continuous
 62
     7
100
AcDbPolyline
 90
        2
 70
   128
 43
0.0
 10
16.30664564644233
 20
8.162549438453956
 10
15.05664564644233
 20
8.037549438453956
  0
LWPOLYLINE
  5
33
330
A
100
AcDbEntity
  8
0
  6
Continuous
 62
     7
100
AcDbPolyline
 90
        2
 70
   128
 43
0.0
 10
15.05664564644233
 20
8.787549438453956
 10
16.30664564644233
 20
8.662549438453956
  0
LWPOLYLINE
  5
37
330
A
100
AcDbEntity
  8
0
  6
Continuous
 62
     7
100
AcDbPolyline
 90
        2
 70
   128
 43
0.0
 10
14.93164564644233
 20
8.412549438453956
 10
14.93164564644233
 20
7.975049438453956
  0
LWPOLYLINE
  5
3B
330
A
100
AcDbEntity
  8
0
  6
Continuous
 62
     7
100
AcDbPolyline
 90
        2
 70
   128
 43
0.0
 10
15.05654605248897
 20
8.009051895666379
 10
15.05664564644233
 20
8.412549438453956
  0
LWPOLYLINE
  5
3F
330
A
100
AcDbEntity
  8
0
  6
Continuous
 62
     7
100
AcDbPolyline
 90
        2
 70
   128
 43
0.0
 10
14.93164564644233
 20
7.975049438453956
 10
15.05654605248897
 20
8.009051895666379
  0
LWPOLYLINE
  5
43
330
A
100
AcDbEntity
  8
0
  6
Continuous
 62
     7
100
AcDbPolyline
 90
        2
 70
   128
 43
0.0
 10
14.93164564644233
 20
8.850049438453956
 10
15.05654605248897
 20
8.816046981241532
  0
LWPOLYLINE
  5
47
330
A
100
AcDbEntity
  8
0
  6
Continuous
 62
     7
100
AcDbPolyline
 90
        2
 70
   128
 43
0.0
 10
14.93164564644233
 20
8.412549438453956
 10
14.93164564644233
 20
8.850049438453956
  0
LWPOLYLINE
  5
4B
330
A
100
AcDbEntity
  8
0
  6
Continuous
 62
     7
100
AcDbPolyline
 90
        2
 70
   128
 43
0.0
 10
15.05654605248897
 20
8.816046981241532
 10
15.05664564644233
 20
8.412549438453956
  0
LWPOLYLINE
  5
4F
330
A
100
AcDbEntity
  8
0
  6
Continuous
 62
     7
100
AcDbPolyline
 90
        2
 70
   128
 43
0.0
 10
16.80664564644233
 20
8.100049438453956
 10
16.30664564644233
 20
8.162549438453956
  0
LWPOLYLINE
  5
53
330
A
100
AcDbEntity
  8
0
  6
Continuous
 62
     7
100
AcDbPolyline
 90
        2
 70
   128
 43
0.0
 10
16.30664564644233
 20
8.662549438453956
 10
16.80664564644233
 20
8.725049438453956
  0
LWPOLYLINE
  5
57
330
A
100
AcDbEntity
  8
0
  6
Continuous
 62
     7
100
AcDbPolyline
 90
        2
 70
   128
 43
0.0
 10
16.30260787930407
 20
8.163382255015422
 10
16.30260787930407
 20
8.661716621892486
  0
LWPOLYLINE
  5
5B
330
A
100
AcDbEntity
  8
ADP2DETAIL
  6
Continuous
 62
     5
100
AcDbPolyline
 90
        2
 70
   128
 43
0.0
 10
17.68164564644233
 20
8.134263919256801
 10
17.68164564644233
 20
8.412549438453956
  0
LWPOLYLINE
  5
5F
330
A
100
AcDbEntity
  8
0
  6
Continuous
 62
     7
100
AcDbPolyline
 90
        2
 70
   128
 43
0.0
 10
17.55664564644233
 20
8.225049438453956
 10
17.55664564644233
 20
8.100049438453956
  0
ARC
  5
63
330
A
100
AcDbEntity
  8
0
  6
Continuous
 62
     7
100
AcDbCircle
 10
-18.37810610462009
 20
8.412549438453956
 30
0.0
 40
0.75
210
0.0
220
0.0
230
-1.0
100
AcDbArc
 50
338.2197748746756
 51
360.0000000000008
  0
LWPOLYLINE
  5
64
330
A
100
AcDbEntity
  8
0
  6
Continuous
 62
     7
100
AcDbPolyline
 90
        2
 70
   128
 43
0.0
 10
16.80664564644233
 20
8.725049438453956
 10
16.80664564644233
 20
8.100049438453956
  0
LWPOLYLINE
  5
68
330
A
100
AcDbEntity
  8
0
  6
Continuous
 62
     7
100
AcDbPolyline
 90
        2
 70
   128
 43
0.0
 10
17.55664564644233
 20
8.003052625842363
 10
17.55664564644233
 20
9.503052625842363
  0
LWPOLYLINE
  5
6C
330
A
100
AcDbEntity
  8
0
  6
Continuous
 62
     7
100
AcDbPolyline
 90
        2
 70
   128
 43
0.0
 10
16.80664564644233
 20
9.503052625842363
 10
16.80664564644233
 20
8.003052625842363
  0
LWPOLYLINE
  5
70
330
A
100
AcDbEntity
  8
0
  6
Continuous
 62
     7
100
AcDbPolyline
 90
        2
 70
   128
 43
0.0
 10
16.80664564644233
 20
8.003052625842363
 10
17.55664564644233
 20
8.003052625842363
  0
LWPOLYLINE
  5
74
330
A
100
AcDbEntity
  8
0
  6
Continuous
 62
     7
100
AcDbPolyline
 90
        2
 70
   128
 43
0.0
 10
17.55664564644233
 20
8.101911538618987
 10
17.67738637472846
 20
8.134263919256801
  0
LWPOLYLINE
  5
78
330
A
100
AcDbEntity
  8
0
  6
Continuous
 62
     7
100
AcDbPolyline
 90
        2
 70
   128
 43
0.0
 10
17.67738637472846
 20
8.13240181909177
 10
17.67738637472846
 20
8.13240181909177
  0
LWPOLYLINE
  5
7C
330
A
100
AcDbEntity
  8
ADP2DETAIL
  6
Continuous
 62
     5
100
AcDbPolyline
 90
        2
 70
   128
 43
0.0
 10
17.27564564644233
 20
9.378052625842363
 10
17.33764564644233
 20
9.316052625842365
  0
LWPOLYLINE
  5
80
330
A
100
AcDbEntity
  8
0
  6
Continuous
 62
     7
100
AcDbPolyline
 90
        2
 70
   128
 43
0.0
 10
16.80664564644233
 20
9.503052625842363
 10
17.55664564644233
 20
9.503052625842363
  0
LWPOLYLINE
  5
84
330
A
100
AcDbEntity
  8
0
  6
Continuous
 62
     7
100
AcDbPolyline
 90
        2
 70
   128
 43
0.0
 10
16.80664564644233
 20
9.316052625842365
 10
17.55664564644233
 20
9.316052625842365
  0
LWPOLYLINE
  5
88
330
A
100
AcDbEntity
  8
0
  6
Continuous
 62
     7
100
AcDbPolyline
 90
        2
 70
   128
 43
0.0
 10
16.80664564644233
 20
8.225049438453956
 10
16.80664564644233
 20
8.600049438453956
  0
LWPOLYLINE
  5
8C
330
A
100
AcDbEntity
  8
ADP2DETAIL
  6
Continuous
 62
     5
100
AcDbPolyline
 90
        2
 70
   128
 43
0.0
 10
17.27564564644233
 20
9.503052625842363
 10
17.27564564644233
 20
9.378052625842363
  0
LWPOLYLINE
  5
90
330
A
100
AcDbEntity
  8
ADP2DETAIL
  6
Continuous
 62
     5
100
AcDbPolyline
 90
        2
 70
   128
 43
0.0
 10
17.08764564644233
 20
9.503052625842363
 10
17.08764564644233
 20
9.378052625842363
  0
LWPOLYLINE
  5
94
330
A
100
AcDbEntity
  8
ADP2DETAIL
  6
Continuous
 62
     5
100
AcDbPolyline
 90
        2
 70
   128
 43
0.0
 10
17.08764564644233
 20
9.378052625842363
 10
17.02564564644233
 20
9.316052625842365
  0
ARC
  5
98
330
A
100
AcDbEntity
  8
ADP2DETAIL
  6
Continuous
 62
     5
100
AcDbCircle
 10
-18.37810610462009
 20
8.412549438453956
 30
0.0
 40
0.750000000000001
210
0.0
220
0.0
230
-1.0
100
AcDbArc
 50
0.0
 51
21.78022512532525
  0
LWPOLYLINE
  5
99
330
A
100
AcDbEntity
  8
0
  6
Continuous
 62
     7
100
AcDbPolyline
 90
        2
 70
   128
 43
0.0
 10
17.55664564644233
 20
8.725049438453956
 10
17.67738637472846
 20
8.692697057816138
  0
LWPOLYLINE
  5
9D
330
A
100
AcDbEntity
  8
0
  6
Continuous
 62
     7
100
AcDbPolyline
 90
        2
 70
   128
 43
0.0
 10
17.55664564644233
 20
8.600049438453956
 10
17.55664564644233
 20
8.225049438453956
  0
LWPOLYLINE
  5
A1
330
A
100
AcDbEntity
  8
0
  6
Continuous
 62
     7
100
AcDbPolyline
 90
        2
 70
   128
 43
0.0
 10
17.55664564644233
 20
8.600049438453956
 10
17.55664564644233
 20
8.725049438453956
  0
LWPOLYLINE
  5
A5
330
A
100
AcDbEntity
  8
0
  6
Continuous
 62
     7
100
AcDbPolyline
 90
        2
 70
   128
 43
0.0
 10
17.67738637472846
 20
8.692697057816138
 10
17.67738637472846
 20
8.692697057816138
  0
LWPOLYLINE
  5
A9
330
A
100
AcDbEntity
  8
0
  6
Continuous
 62
     7
100
AcDbPolyline
 90
        2
 70
   128
 43
0.0
 10
17.68164564644233
 20
8.690834957651111
 10
17.68164564644233
 20
8.412549438453956
  0
CIRCLE
  5
AD
330
A
100
AcDbEntity
  8
0
  6
Continuous
 62
     7
100
AcDbCircle
 10
-20.60666853505975
 20
8.412236070653792
 30
0.0
 40
0.2859512779740925
210
0.0
220
0.0
230
-1.0
  0
CIRCLE
  5
AE
330
A
100
AcDbEntity
  8
0
  6
Continuous
 62
     7
100
AcDbCircle
 10
-20.60666853505975
 20
8.412236070653792
 30
0.0
 40
0.3125
210
0.0
220
0.0
230
-1.0
  0
ARC
  5
AF
330
A
100
AcDbEntity
  8
0
  6
Continuous
 62
     7
100
AcDbCircle
 10
-20.60666853505975
 20
8.415403447752821
 30
0.0
 40
0.3744999999999994
210
0.0
220
0.0
230
-1.0
100
AcDbArc
 50
180.0
 51
270.0000000000008
  0
ARC
  5
B0
330
A
100
AcDbEntity
  8
0
  6
Continuous
 62
     7
100
AcDbCircle
 10
-21.10616853505975
 20
9.177536746204479
 30
0.0
 40
0.3124999999999995
210
0.0
220
0.0
230
-1.0
100
AcDbArc
 50
0.0
 51
90.08306715294011
  0
LWPOLYLINE
  5
B1
330
A
100
AcDbEntity
  8
0
  6
Continuous
 62
     7
100
AcDbPolyline
 90
        2
 70
   128
 43
0.0
 10
20.10616853505974
 20
9.289903447752822
 10
19.35616853505974
 20
9.289903447752822
  0
LWPOLYLINE
  5
B5
330
A
100
AcDbEntity
  8
0
  6
Continuous
 62
     7
100
AcDbPolyline
 90
        2
 70
   128
 43
0.0
 10
19.35616853505974
 20
9.488949727376523
 10
20.10616853505974
 20
9.488949727376523
  0
LWPOLYLINE
  5
B9
330
A
100
AcDbEntity
  8
0
  6
Continuous
 62
     7
100
AcDbPolyline
 90
        2
 70
   128
 43
0.0
 10
19.35616853505974
 20
9.289903447752822
 10
19.35616853505974
 20
9.488949727376523
  0
ARC
  5
BD
330
A
100
AcDbEntity
  8
0
  6
Continuous
 62
     7
100
AcDbCircle
 10
-20.60566853505974
 20
8.415403447752821
 30
0.0
 40
0.3745000000000012
210
0.0
220
0.0
230
-1.0
100
AcDbArc
 50
270.0000000000008
 51
360.0000000000008
  0
LWPOLYLINE
  5
BE
330
A
100
AcDbEntity
  8
0
  6
Continuous
 62
     7
100
AcDbPolyline
 90
        2
 70
   128
 43
0.0
 10
20.60666853505975
 20
8.040903447752819
 10
20.60566853505974
 20
8.040903447752819
  0
ARC
  5
C2
330
A
100
AcDbEntity
  8
0
  6
Continuous
 62
     7
100
AcDbCircle
 10
-20.10616853505974
 20
9.164903447752822
 30
0.0
 40
0.125
210
0.0
220
0.0
230
-1.0
100
AcDbArc
 50
90.0
 51
180.0
  0
ARC
  5
C3
330
A
100
AcDbEntity
  8
0
  6
Continuous
 62
     7
100
AcDbCircle
 10
-20.10616853505974
 20
9.176449727376523
 30
0.0
 40
0.3125
210
0.0
220
0.0
230
-1.0
100
AcDbArc
 50
90.0
 51
180.0
  0
LWPOLYLINE
  5
C4
330
A
100
AcDbEntity
  8
ADP2DETAIL
  6
Continuous
 62
     5
100
AcDbPolyline
 90
        2
 70
   128
 43
0.0
 10
19.58631448922796
 20
9.363003922985894
 10
19.52431448922796
 20
9.301003922985893
  0
LWPOLYLINE
  5
C8
330
A
100
AcDbEntity
  8
ADP2DETAIL
  6
Continuous
 62
     5
100
AcDbPolyline
 90
        2
 70
   128
 43
0.0
 10
19.58631448922796
 20
9.488003922985894
 10
19.58631448922796
 20
9.363003922985894
  0
LWPOLYLINE
  5
CC
330
A
100
AcDbEntity
  8
ADP2DETAIL
  6
Continuous
 62
     5
100
AcDbPolyline
 90
        2
 70
   128
 43
0.0
 10
19.77431448922796
 20
9.363003922985894
 10
19.83631448922796
 20
9.301003922985893
  0
LWPOLYLINE
  5
D0
330
A
100
AcDbEntity
  8
ADP2DETAIL
  6
Continuous
 62
     5
100
AcDbPolyline
 90
        2
 70
   128
 43
0.0
 10
19.77431448922796
 20
9.488003922985894
 10
19.77431448922796
 20
9.363003922985894
  0
LWPOLYLINE
  5
D4
330
A
100
AcDbEntity
  8
0
  6
Continuous
 62
     7
100
AcDbPolyline
 90
        2
 70
   128
 43
0.0
 10
20.23116853505975
 20
8.415403447752821
 10
20.23116853505975
 20
9.164903447752822
  0
LWPOLYLINE
  5
D8
330
A
100
AcDbEntity
  8
0
  6
Continuous
 62
     7
100
AcDbPolyline
 90
        2
 70
   128
 43
0.0
 10
20.41866853505974
 20
8.661860288228931
 10
20.41866853505974
 20
9.507931598240334
  0
LWPOLYLINE
  5
DC
330
A
100
AcDbEntity
  8
0
  6
Continuous
 62
     7
100
AcDbPolyline
 90
        2
 70
   128
 43
0.0
 10
20.79252326790549
 20
8.661860288228931
 10
20.79252326790549
 20
9.507931598240334
  0
LWPOLYLINE
  5
E0
330
A
100
AcDbEntity
  8
0
  6
Continuous
 62
     7
100
AcDbPolyline
 90
        2
 70
   128
 43
0.0
 10
20.41752326790549
 20
9.507931598240334
 10
20.79252326790549
 20
9.507931598240334
  0
LWPOLYLINE
  5
E4
330
A
100
AcDbEntity
  8
0
  6
Continuous
 62
     7
100
AcDbPolyline
 90
        2
 70
   128
 43
0.0
 10
21.85616853505975
 20
9.488949727376523
 10
21.10662159593823
 20
9.49003641778165
  0
LWPOLYLINE
  5
E8
330
A
100
AcDbEntity
  8
0
  6
Continuous
 62
     7
100
AcDbPolyline
 90
        2
 70
   128
 43
0.0
 10
21.85616853505975
 20
9.289903447752822
 10
21.10616853505975
 20
9.289903447752822
  0
LWPOLYLINE
  5
EC
330
A
100
AcDbEntity
  8
ADP2DETAIL
  6
Continuous
 62
     5
100
AcDbPolyline
 90
        2
 70
   128
 43
0.0
 10
21.60496693117252
 20
9.361384612419405
 10
21.66696693117252
 20
9.299384612419403
  0
LWPOLYLINE
  5
F0
330
A
100
AcDbEntity
  8
0
  6
Continuous
 62
     7
100
AcDbPolyline
 90
        2
 70
   128
 43
0.0
 10
20.98116853505974
 20
9.164903447752822
 10
20.98116853505974
 20
8.415403447752821
  0
ARC
  5
F4
330
A
100
AcDbEntity
  8
0
  6
Continuous
 62
     7
100
AcDbCircle
 10
-21.10616853505975
 20
9.164903447752822
 30
0.0
 40
0.125
210
0.0
220
0.0
230
-1.0
100
AcDbArc
 50
0.0
 51
90.0
  0
LWPOLYLINE
  5
F5
330
A
100
AcDbEntity
  8
ADP2DETAIL
  6
Continuous
 62
     5
100
AcDbPolyline
 90
        2
 70
   128
 43
0.0
 10
21.41696693117252
 20
9.361384612419405
 10
21.35496693117252
 20
9.299384612419403
  0
LWPOLYLINE
  5
F9
330
A
100
AcDbEntity
  8
ADP2DETAIL
  6
Continuous
 62
     5
100
AcDbPolyline
 90
        2
 70
   128
 43
0.0
 10
21.41696693117252
 20
9.486384612419405
 10
21.41696693117252
 20
9.361384612419405
  0
LWPOLYLINE
  5
FD
330
A
100
AcDbEntity
  8
ADP2DETAIL
  6
Continuous
 62
     5
100
AcDbPolyline
 90
        2
 70
   128
 43
0.0
 10
21.60496693117252
 20
9.486384612419405
 10
21.60496693117252
 20
9.361384612419405
  0
LWPOLYLINE
  5
101
330
A
100
AcDbEntity
  8
0
  6
Continuous
 62
     7
100
AcDbPolyline
 90
        2
 70
   128
 43
0.0
 10
21.85616853505975
 20
9.488949727376523
 10
21.85616853505975
 20
9.289903447752822
  0
LWPOLYLINE
  5
105
330
A
100
AcDbEntity
  8
ADPDIM
  6
Continuous
 62
     3
 48
0.125
100
AcDbPolyline
 90
        2
 70
   128
 43
0.0
 10
16.80664564644233
 20
7.940552625842363
 10
16.80664564644233
 20
7.570303371488412
  0
LWPOLYLINE
  5
109
330
A
100
AcDbEntity
  8
ADPDIM
  6
Continuous
 62
     3
 48
0.125
100
AcDbPolyline
 90
        2
 70
   128
 43
0.0
 10
17.55664564644233
 20
7.940552625842363
 10
17.55664564644233
 20
7.570303371488412
  0
LWPOLYLINE
  5
10D
330
A
100
AcDbEntity
  8
ADPDIM
  6
Continuous
 62
     3
 48
0.125
100
AcDbPolyline
 90
        2
 70
   128
 43
0.0
 10
16.80664564644233
 20
7.750303371488412
 10
16.55664564644233
 20
7.750303371488412
  0
LWPOLYLINE
  5
111
330
A
100
AcDbEntity
  8
ADPDIM
  6
Continuous
 62
     3
 48
0.125
100
AcDbPolyline
 90
        2
 70
   128
 43
0.0
 10
17.55664564644233
 20
7.750303371488412
 10
17.80664564644233
 20
7.750303371488412
  0
LWPOLYLINE
  5
115
330
A
100
AcDbEntity
  8
ADPDIM
  6
Continuous
 62
     3
 48
0.125
100
AcDbPolyline
 90
        2
 70
   128
 43
0.0
 10
16.68164564644233
 20
7.625303371488412
 10
16.93164564644233
 20
7.875303371488412
  0
LWPOLYLINE
  5
119
330
A
100
AcDbEntity
  8
ADPDIM
  6
Continuous
 62
     3
 48
0.125
100
AcDbPolyline
 90
        2
 70
   128
 43
0.0
 10
17.43164564644233
 20
7.625303371488412
 10
17.68164564644233
 20
7.875303371488412
  0
TEXT
  5
11D
330
A
100
AcDbEntity
  8
ADPDIM
 62
     3
 48
0.0
100
AcDbText
 10
17.93164564644233
 20
7.687803371488412
 30
0.0
 40
0.125
  1
3/4
 72
     5
 11
18.26497897977567
 21
7.687803371488412
 31
0.0
100
AcDbText
  0
LWPOLYLINE
  5
11E
330
A
100
AcDbEntity
  8
ADPDIM
  6
Continuous
 62
     3
 48
0.125
100
AcDbPolyline
 90
        2
 70
   128
 43
0.0
 10
14.93164564644233
 20
8.912549438453956
 10
14.93164564644233
 20
10.00562911537148
  0
LWPOLYLINE
  5
122
330
A
100
AcDbEntity
  8
ADPDIM
  6
Continuous
 62
     3
 48
0.125
100
AcDbPolyline
 90
        2
 70
   128
 43
0.0
 10
17.18164564644233
 20
9.575629115371478
 10
17.18164564644233
 20
10.00562911537148
  0
LWPOLYLINE
  5
126
330
A
100
AcDbEntity
  8
ADPDIM
  6
Continuous
 62
     3
 48
0.125
100
AcDbPolyline
 90
        2
 70
   128
 43
0.0
 10
14.93164564644233
 20
9.825629115371478
 10
15.660812313109
 20
9.825629115371478
  0
LWPOLYLINE
  5
12A
330
A
100
AcDbEntity
  8
ADPDIM
  6
Continuous
 62
     3
 48
0.125
100
AcDbPolyline
 90
        2
 70
   128
 43
0.0
 10
17.18164564644233
 20
9.825629115371478
 10
16.45247897977566
 20
9.825629115371478
  0
LWPOLYLINE
  5
12E
330
A
100
AcDbEntity
  8
ADPDIM
  6
Continuous
 62
     3
 48
0.125
100
AcDbPolyline
 90
        2
 70
   128
 43
0.0
 10
14.80664564644233
 20
9.700629115371478
 10
15.05664564644233
 20
9.950629115371478
  0
LWPOLYLINE
  5
132
330
A
100
AcDbEntity
  8
ADPDIM
  6
Continuous
 62
     3
 48
0.125
100
AcDbPolyline
 90
        2
 70
   128
 43
0.0
 10
17.05664564644233
 20
9.700629115371478
 10
17.30664564644233
 20
9.950629115371478
  0
TEXT
  5
136
330
A
100
AcDbEntity
  8
ADPDIM
 62
     3
 48
0.0
100
AcDbText
 10
15.785812313109
 20
9.763129115371478
 30
0.0
 40
0.125
  1
2 1/4
 72
     5
 11
16.32747897977567
 21
9.763129115371478
 31
0.0
100
AcDbText
  0
LWPOLYLINE
  5
137
330
A
100
AcDbEntity
  8
0
  6
Continuous
 62
     7
 48
0.125
100
AcDbPolyline
 90
        2
 70
   128
 43
0.0
 10
14.71517533665969
 20
8.600549438453956
 10
14.68417533665969
 20
8.662549438453956
  0
LWPOLYLINE
  5
13B
330
A
100
AcDbEntity
  8
0
  6
Continuous
 62
     7
 48
0.125
100
AcDbPolyline
 90
        2
 70
   128
 43
0.0
 10
14.71294420439244
 20
8.162549438453956
 10
14.68194420439244
 20
8.224549438453955
  0
LWPOLYLINE
  5
13F
330
A
100
AcDbEntity
  8
0
  6
Continuous
 62
     7
 48
0.125
100
AcDbPolyline
 90
        2
 70
   128
 43
0.0
 10
14.30664564644233
 20
8.662549438453956
 10
14.30664564644233
 20
8.223539523941665
  0
LWPOLYLINE
  5
143
330
A
100
AcDbEntity
  8
0
  6
Continuous
 62
     7
 48
0.125
100
AcDbPolyline
 90
        2
 70
   128
 43
0.0
 10
14.6516690963597
 20
8.600549438453956
 10
14.68194420439244
 20
8.224549438453955
  0
LWPOLYLINE
  5
147
330
A
100
AcDbEntity
  8
0
  6
Continuous
 62
     7
 48
0.125
100
AcDbPolyline
 90
        2
 70
   128
 43
0.0
 10
14.58816285605971
 20
8.600549438453956
 10
14.61843796409245
 20
8.224549438453955
  0
LWPOLYLINE
  5
14B
330
A
100
AcDbEntity
  8
0
  6
Continuous
 62
     7
 48
0.125
100
AcDbPolyline
 90
        2
 70
   128
 43
0.0
 10
14.52465661575972
 20
8.600549438453956
 10
14.55493172379246
 20
8.224549438453955
  0
LWPOLYLINE
  5
14F
330
A
100
AcDbEntity
  8
0
  6
Continuous
 62
     7
 48
0.125
100
AcDbPolyline
 90
        2
 70
   128
 43
0.0
 10
14.46115032864448
 20
8.600549438453956
 10
14.49142543667722
 20
8.224549438453955
  0
LWPOLYLINE
  5
153
330
A
100
AcDbEntity
  8
0
  6
Continuous
 62
     7
 48
0.125
100
AcDbPolyline
 90
        2
 70
   128
 43
0.0
 10
14.40341739142908
 20
8.600549438453956
 10
14.43369249946182
 20
8.224549438453955
  0
LWPOLYLINE
  5
157
330
A
100
AcDbEntity
  8
0
  6
Continuous
 62
     7
 48
0.125
100
AcDbPolyline
 90
        2
 70
   128
 43
0.0
 10
14.33991115112909
 20
8.600549438453956
 10
14.37018625916183
 20
8.224549438453955
  0
LWPOLYLINE
  5
15B
330
A
100
AcDbEntity
  8
0
  6
Continuous
 62
     7
 48
0.125
100
AcDbPolyline
 90
        2
 70
   128
 43
0.0
 10
14.46042543667722
 20
8.162549438453956
 10
14.43369249946182
 20
8.224549438453955
  0
LWPOLYLINE
  5
15F
330
A
100
AcDbEntity
  8
0
  6
Continuous
 62
     7
 48
0.125
100
AcDbPolyline
 90
        2
 70
   128
 43
0.0
 10
14.30664564644233
 20
8.223539523941665
 10
14.33918625916183
 20
8.162549438453956
  0
LWPOLYLINE
  5
163
330
A
100
AcDbEntity
  8
0
  6
Continuous
 62
     7
 48
0.125
100
AcDbPolyline
 90
        2
 70
   128
 43
0.0
 10
14.40118625916183
 20
8.162549438453956
 10
14.37018625916183
 20
8.224549438453955
  0
LWPOLYLINE
  5
167
330
A
100
AcDbEntity
  8
0
  6
Continuous
 62
     7
 48
0.125
100
AcDbPolyline
 90
        2
 70
   128
 43
0.0
 10
14.37018625916183
 20
8.224549438453955
 10
14.33918625916183
 20
8.162549438453956
  0
LWPOLYLINE
  5
16B
330
A
100
AcDbEntity
  8
0
  6
Continuous
 62
     7
 48
0.125
100
AcDbPolyline
 90
        2
 70
   128
 43
0.0
 10
14.43369249946182
 20
8.224549438453955
 10
14.40269249946182
 20
8.162549438453956
  0
LWPOLYLINE
  5
16F
330
A
100
AcDbEntity
  8
0
  6
Continuous
 62
     7
 48
0.125
100
AcDbPolyline
 90
        2
 70
   128
 43
0.0
 10
14.58593172379246
 20
8.162549438453956
 10
14.55493172379246
 20
8.224549438453955
  0
LWPOLYLINE
  5
173
330
A
100
AcDbEntity
  8
0
  6
Continuous
 62
     7
 48
0.125
100
AcDbPolyline
 90
        2
 70
   128
 43
0.0
 10
14.52242543667722
 20
8.162549438453956
 10
14.49142543667722
 20
8.224549438453955
  0
LWPOLYLINE
  5
177
330
A
100
AcDbEntity
  8
0
  6
Continuous
 62
     7
 48
0.125
100
AcDbPolyline
 90
        2
 70
   128
 43
0.0
 10
14.49142543667722
 20
8.224549438453955
 10
14.46042543667722
 20
8.162549438453956
  0
LWPOLYLINE
  5
17B
330
A
100
AcDbEntity
  8
0
  6
Continuous
 62
     7
 48
0.125
100
AcDbPolyline
 90
        2
 70
   128
 43
0.0
 10
14.55493172379246
 20
8.224549438453955
 10
14.52393172379246
 20
8.162549438453956
  0
LWPOLYLINE
  5
17F
330
A
100
AcDbEntity
  8
0
  6
Continuous
 62
     7
 48
0.125
100
AcDbPolyline
 90
        2
 70
   128
 43
0.0
 10
14.64943796409245
 20
8.162549438453956
 10
14.61843796409245
 20
8.224549438453955
  0
LWPOLYLINE
  5
183
330
A
100
AcDbEntity
  8
0
  6
Continuous
 62
     7
 48
0.125
100
AcDbPolyline
 90
        2
 70
   128
 43
0.0
 10
14.61843796409245
 20
8.224549438453955
 10
14.58743796409245
 20
8.162549438453956
  0
LWPOLYLINE
  5
187
330
A
100
AcDbEntity
  8
0
  6
Continuous
 62
     7
 48
0.125
100
AcDbPolyline
 90
        2
 70
   128
 43
0.0
 10
14.68194420439244
 20
8.224549438453955
 10
14.65094420439244
 20
8.162549438453956
  0
LWPOLYLINE
  5
18B
330
A
100
AcDbEntity
  8
0
  6
Continuous
 62
     7
 48
0.125
100
AcDbPolyline
 90
        2
 70
   128
 43
0.0
 10
14.46115032864448
 20
8.600549438453956
 10
14.43015032864448
 20
8.662549438453956
  0
LWPOLYLINE
  5
18F
330
A
100
AcDbEntity
  8
0
  6
Continuous
 62
     7
 48
0.125
100
AcDbPolyline
 90
        2
 70
   128
 43
0.0
 10
14.33991115112909
 20
8.600549438453956
 10
14.30891115112908
 20
8.662549438453956
  0
LWPOLYLINE
  5
193
330
A
100
AcDbEntity
  8
0
  6
Continuous
 62
     7
 48
0.125
100
AcDbPolyline
 90
        2
 70
   128
 43
0.0
 10
14.40341739142908
 20
8.600549438453956
 10
14.37241739142908
 20
8.662549438453956
  0
LWPOLYLINE
  5
197
330
A
100
AcDbEntity
  8
0
  6
Continuous
 62
     7
 48
0.125
100
AcDbPolyline
 90
        2
 70
   128
 43
0.0
 10
14.43015032864448
 20
8.662549438453956
 10
14.40341739142908
 20
8.600549438453956
  0
LWPOLYLINE
  5
19B
330
A
100
AcDbEntity
  8
0
  6
Continuous
 62
     7
 48
0.125
100
AcDbPolyline
 90
        2
 70
   128
 43
0.0
 10
14.37091115112908
 20
8.662549438453956
 10
14.33991115112909
 20
8.600549438453956
  0
LWPOLYLINE
  5
19F
330
A
100
AcDbEntity
  8
0
  6
Continuous
 62
     7
 48
0.125
100
AcDbPolyline
 90
        2
 70
   128
 43
0.0
 10
14.58816285605971
 20
8.600549438453956
 10
14.55716285605971
 20
8.662549438453956
  0
LWPOLYLINE
  5
1A3
330
A
100
AcDbEntity
  8
0
  6
Continuous
 62
     7
 48
0.125
100
AcDbPolyline
 90
        2
 70
   128
 43
0.0
 10
14.52465661575972
 20
8.600549438453956
 10
14.49365661575972
 20
8.662549438453956
  0
LWPOLYLINE
  5
1A7
330
A
100
AcDbEntity
  8
0
  6
Continuous
 62
     7
 48
0.125
100
AcDbPolyline
 90
        2
 70
   128
 43
0.0
 10
14.55565661575971
 20
8.662549438453956
 10
14.52465661575972
 20
8.600549438453956
  0
LWPOLYLINE
  5
1AB
330
A
100
AcDbEntity
  8
0
  6
Continuous
 62
     7
 48
0.125
100
AcDbPolyline
 90
        2
 70
   128
 43
0.0
 10
14.49215032864448
 20
8.662549438453956
 10
14.46115032864448
 20
8.600549438453956
  0
LWPOLYLINE
  5
1AF
330
A
100
AcDbEntity
  8
0
  6
Continuous
 62
     7
 48
0.125
100
AcDbPolyline
 90
        2
 70
   128
 43
0.0
 10
14.6516690963597
 20
8.600549438453956
 10
14.6206690963597
 20
8.662549438453956
  0
LWPOLYLINE
  5
1B3
330
A
100
AcDbEntity
  8
0
  6
Continuous
 62
     7
 48
0.125
100
AcDbPolyline
 90
        2
 70
   128
 43
0.0
 10
14.6826690963597
 20
8.662549438453956
 10
14.6516690963597
 20
8.600549438453956
  0
LWPOLYLINE
  5
1B7
330
A
100
AcDbEntity
  8
0
  6
Continuous
 62
     7
 48
0.125
100
AcDbPolyline
 90
        2
 70
   128
 43
0.0
 10
14.61916285605971
 20
8.662549438453956
 10
14.58816285605971
 20
8.600549438453956
  0
LWPOLYLINE
  5
1BB
330
A
100
AcDbEntity
  8
0
  6
Continuous
 62
     7
 48
0.125
100
AcDbPolyline
 90
        2
 70
   128
 43
0.0
 10
14.90064564644234
 20
8.600549438453956
 10
14.93092075447508
 20
8.224549438453955
  0
LWPOLYLINE
  5
1BF
330
A
100
AcDbEntity
  8
0
  6
Continuous
 62
     7
 48
0.125
100
AcDbPolyline
 90
        2
 70
   128
 43
0.0
 10
14.83864564644233
 20
8.600549438453956
 10
14.86892075447508
 20
8.224549438453955
  0
LWPOLYLINE
  5
1C3
330
A
100
AcDbEntity
  8
0
  6
Continuous
 62
     7
 48
0.125
100
AcDbPolyline
 90
        2
 70
   128
 43
0.0
 10
14.77664564644233
 20
8.600549438453956
 10
14.80692075447508
 20
8.224549438453955
  0
LWPOLYLINE
  5
1C7
330
A
100
AcDbEntity
  8
0
  6
Continuous
 62
     7
 48
0.125
100
AcDbPolyline
 90
        2
 70
   128
 43
0.0
 10
14.71517533665969
 20
8.600549438453956
 10
14.74545044469243
 20
8.224549438453955
  0
LWPOLYLINE
  5
1CB
330
A
100
AcDbEntity
  8
0
  6
Continuous
 62
     7
 48
0.125
100
AcDbPolyline
 90
        2
 70
   128
 43
0.0
 10
14.83792075447508
 20
8.162549438453956
 10
14.80692075447508
 20
8.224549438453955
  0
LWPOLYLINE
  5
1CF
330
A
100
AcDbEntity
  8
0
  6
Continuous
 62
     7
 48
0.125
100
AcDbPolyline
 90
        2
 70
   128
 43
0.0
 10
14.77645044469243
 20
8.162549438453956
 10
14.74545044469243
 20
8.224549438453955
  0
LWPOLYLINE
  5
1D3
330
A
100
AcDbEntity
  8
0
  6
Continuous
 62
     7
 48
0.125
100
AcDbPolyline
 90
        2
 70
   128
 43
0.0
 10
14.74545044469243
 20
8.224549438453955
 10
14.71445044469243
 20
8.162549438453956
  0
LWPOLYLINE
  5
1D7
330
A
100
AcDbEntity
  8
0
  6
Continuous
 62
     7
 48
0.125
100
AcDbPolyline
 90
        2
 70
   128
 43
0.0
 10
14.80692075447508
 20
8.224549438453955
 10
14.77592075447508
 20
8.162549438453956
  0
LWPOLYLINE
  5
1DB
330
A
100
AcDbEntity
  8
0
  6
Continuous
 62
     7
 48
0.125
100
AcDbPolyline
 90
        2
 70
   128
 43
0.0
 10
14.86892075447508
 20
8.224549438453955
 10
14.83792075447508
 20
8.162549438453956
  0
LWPOLYLINE
  5
1DF
330
A
100
AcDbEntity
  8
0
  6
Continuous
 62
     7
 48
0.125
100
AcDbPolyline
 90
        2
 70
   128
 43
0.0
 10
14.89992075447507
 20
8.162549438453956
 10
14.86892075447508
 20
8.224549438453955
  0
LWPOLYLINE
  5
1E3
330
A
100
AcDbEntity
  8
0
  6
Continuous
 62
     7
 48
0.125
100
AcDbPolyline
 90
        2
 70
   128
 43
0.0
 10
14.93092075447508
 20
8.224549438453955
 10
14.89992075447507
 20
8.162549438453956
  0
LWPOLYLINE
  5
1E7
330
A
100
AcDbEntity
  8
0
  6
Continuous
 62
     7
 48
0.125
100
AcDbPolyline
 90
        2
 70
   128
 43
0.0
 10
14.83864564644233
 20
8.600549438453956
 10
14.80764564644234
 20
8.662549438453956
  0
LWPOLYLINE
  5
1EB
330
A
100
AcDbEntity
  8
0
  6
Continuous
 62
     7
 48
0.125
100
AcDbPolyline
 90
        2
 70
   128
 43
0.0
 10
14.77664564644233
 20
8.600549438453956
 10
14.74564564644233
 20
8.662549438453956
  0
LWPOLYLINE
  5
1EF
330
A
100
AcDbEntity
  8
0
  6
Continuous
 62
     7
 48
0.125
100
AcDbPolyline
 90
        2
 70
   128
 43
0.0
 10
14.80764564644234
 20
8.662549438453956
 10
14.77664564644233
 20
8.600549438453956
  0
LWPOLYLINE
  5
1F3
330
A
100
AcDbEntity
  8
0
  6
Continuous
 62
     7
 48
0.125
100
AcDbPolyline
 90
        2
 70
   128
 43
0.0
 10
14.74617533665969
 20
8.662549438453956
 10
14.71517533665969
 20
8.600549438453956
  0
LWPOLYLINE
  5
1F7
330
A
100
AcDbEntity
  8
0
  6
Continuous
 62
     7
 48
0.125
100
AcDbPolyline
 90
        2
 70
   128
 43
0.0
 10
14.93164564644233
 20
8.662549438453956
 10
14.90064564644234
 20
8.600549438453956
  0
LWPOLYLINE
  5
1FB
330
A
100
AcDbEntity
  8
0
  6
Continuous
 62
     7
 48
0.125
100
AcDbPolyline
 90
        2
 70
   128
 43
0.0
 10
14.90064564644234
 20
8.600549438453956
 10
14.86964564644233
 20
8.662549438453956
  0
LWPOLYLINE
  5
1FF
330
A
100
AcDbEntity
  8
0
  6
Continuous
 62
     7
 48
0.125
100
AcDbPolyline
 90
        2
 70
   128
 43
0.0
 10
14.86964564644233
 20
8.662549438453956
 10
14.83864564644233
 20
8.600549438453956
  0
LWPOLYLINE
  5
203
330
A
100
AcDbEntity
  8
ADPDIM
  6
Continuous
 62
     3
 48
0.125
100
AcDbPolyline
 90
        2
 70
   128
 43
0.0
 10
19.67734067496785
 20
9.413330729828324
 10
19.67636770188628
 20
9.929339096951343
  0
LWPOLYLINE
  5
207
330
A
100
AcDbEntity
  8
ADPDIM
  6
Continuous
 62
     3
 48
0.125
100
AcDbPolyline
 90
        2
 70
   128
 43
0.0
 10
21.50068437283848
 20
9.445716941158176
 10
21.50068437283848
 20
9.889011451403254
  0
LWPOLYLINE
  5
20B
330
A
100
AcDbEntity
  8
ADPDIM
  6
Continuous
 62
     3
 48
0.125
100
AcDbPolyline
 90
        2
 70
   128
 43
0.0
 10
19.67410205383487
 20
9.724238358594897
 10
20.191812313109
 20
9.725049438453956
  0
LWPOLYLINE
  5
20F
330
A
100
AcDbEntity
  8
ADPDIM
  6
Continuous
 62
     3
 48
0.125
100
AcDbPolyline
 90
        2
 70
   128
 43
0.0
 10
21.4974457517055
 20
9.724238358594897
 10
20.98347897977566
 20
9.725049438453956
  0
LWPOLYLINE
  5
213
330
A
100
AcDbEntity
  8
ADPDIM
  6
Continuous
 62
     3
 48
0.125
100
AcDbPolyline
 90
        2
 70
   128
 43
0.0
 10
19.55136770188628
 20
9.624339096951343
 10
19.80136770188628
 20
9.874339096951343
  0
LWPOLYLINE
  5
217
330
A
100
AcDbEntity
  8
ADPDIM
  6
Continuous
 62
     3
 48
0.125
100
AcDbPolyline
 90
        2
 70
   128
 43
0.0
 10
21.36582703816591
 20
9.587094953922015
 10
21.61582703816591
 20
9.837094953922015
  0
TEXT
  5
21B
330
A
100
AcDbEntity
  8
ADPDIM
 62
     3
 48
0.0
100
AcDbText
 10
20.19793911275554
 20
9.656975295178614
 30
0.0
 40
0.125
  1
1 13/16
 72
     5
 11
20.95627244608887
 21
9.656975295178614
 31
0.0
100
AcDbText
  0
LWPOLYLINE
  5
21C
330
A
100
AcDbEntity
  8
ADPDIM
  6
Continuous
 62
     3
 48
0.125
100
AcDbPolyline
 90
        2
 70
   128
 43
0.0
 10
19.36914564644233
 20
9.537549438453956
 10
19.36914564644233
 20
10.28004943845395
  0
LWPOLYLINE
  5
220
330
A
100
AcDbEntity
  8
ADPDIM
  6
Continuous
 62
     3
 48
0.125
100
AcDbPolyline
 90
        2
 70
   128
 43
0.0
 10
21.86914564644233
 20
9.537549438453956
 10
21.86914564644233
 20
10.28004943845395
  0
LWPOLYLINE
  5
224
330
A
100
AcDbEntity
  8
ADPDIM
  6
Continuous
 62
     3
 48
0.125
100
AcDbPolyline
 90
        2
 70
   128
 43
0.0
 10
19.36914564644233
 20
10.10004943845395
 10
20.223312313109
 20
10.10004943845395
  0
LWPOLYLINE
  5
228
330
A
100
AcDbEntity
  8
ADPDIM
  6
Continuous
 62
     3
 48
0.125
100
AcDbPolyline
 90
        2
 70
   128
 43
0.0
 10
21.86914564644233
 20
10.10004943845395
 10
21.01497897977567
 20
10.10004943845395
  0
LWPOLYLINE
  5
22C
330
A
100
AcDbEntity
  8
ADPDIM
  6
Continuous
 62
     3
 48
0.125
100
AcDbPolyline
 90
        2
 70
   128
 43
0.0
 10
19.24414564644233
 20
9.975049438453956
 10
19.49414564644233
 20
10.22504943845395
  0
LWPOLYLINE
  5
230
330
A
100
AcDbEntity
  8
ADPDIM
  6
Continuous
 62
     3
 48
0.125
100
AcDbPolyline
 90
        2
 70
   128
 43
0.0
 10
21.74414564644234
 20
9.975049438453956
 10
21.99414564644234
 20
10.22504943845395
  0
TEXT
  5
234
330
A
100
AcDbEntity
  8
ADPDIM
 62
     3
 48
0.0
100
AcDbText
 10
20.348312313109
 20
10.03754943845395
 30
0.0
 40
0.125
  1
2 1/2
 72
     5
 11
20.88997897977566
 21
10.03754943845395
 31
0.0
100
AcDbText
  0
LWPOLYLINE
  5
235
330
A
100
AcDbEntity
  8
ADPDIM
  6
Continuous
 62
     3
 48
0.125
100
AcDbPolyline
 90
        2
 70
   128
 43
0.0
 10
19.29366853505974
 20
9.488949727376523
 10
18.73866853505974
 20
9.488949727376523
  0
LWPOLYLINE
  5
239
330
A
100
AcDbEntity
  8
ADPDIM
  6
Continuous
 62
     3
 48
0.125
100
AcDbPolyline
 90
        2
 70
   128
 43
0.0
 10
20.54663794925207
 20
8.426449727376523
 10
18.73866853505974
 20
8.426449727376523
  0
LWPOLYLINE
  5
23D
330
A
100
AcDbEntity
  8
ADPDIM
  6
Continuous
 62
     3
 48
0.125
100
AcDbPolyline
 90
        2
 70
   128
 43
0.0
 10
18.91866853505974
 20
9.488949727376523
 10
18.91866853505974
 20
9.738949727376523
  0
LWPOLYLINE
  5
241
330
A
100
AcDbEntity
  8
ADPDIM
  6
Continuous
 62
     3
 48
0.125
100
AcDbPolyline
 90
        2
 70
   128
 43
0.0
 10
18.91866853505974
 20
8.426449727376523
 10
18.91866853505974
 20
8.176449727376523
  0
LWPOLYLINE
  5
245
330
A
100
AcDbEntity
  8
ADPDIM
  6
Continuous
 62
     3
 48
0.125
100
AcDbPolyline
 90
        2
 70
   128
 43
0.0
 10
19.04366853505974
 20
9.363949727376523
 10
18.79366853505974
 20
9.613949727376523
  0
LWPOLYLINE
  5
249
330
A
100
AcDbEntity
  8
ADPDIM
  6
Continuous
 62
     3
 48
0.125
100
AcDbPolyline
 90
        2
 70
   128
 43
0.0
 10
19.04366853505974
 20
8.301449727376523
 10
18.79366853505974
 20
8.551449727376523
  0
TEXT
  5
24D
330
A
100
AcDbEntity
  8
ADPDIM
 62
     3
 48
0.0
100
AcDbText
 10
18.98116853505974
 20
7.46811639404319
 30
0.0
 40
0.125
  1
1 1/16
 50
90.0
 72
     5
 11
18.98116853505974
 21
8.051449727376525
 31
0.0
100
AcDbText
  0
LWPOLYLINE
  5
24E
330
A
100
AcDbEntity
  8
0
  6
Continuous
 62
     3
 48
2.0
100
AcDbPolyline
 90
        2
 70
   128
 43
0.0
 10
21.51040023623744
 20
9.491057637019967
 10
21.50068437283848
 20
9.491057637019967
  0
LWPOLYLINE
  5
252
330
A
100
AcDbEntity
  8
DEFPOINTS
  6
Continuous
 62
     3
 48
0.125
100
AcDbPolyline
 90
        2
 70
   128
 43
0.0
 10
16.80664564644233
 20
8.003052625842364
 10
16.80664564644233
 20
8.003052625842364
  0
LWPOLYLINE
  5
256
330
A
100
AcDbEntity
  8
DEFPOINTS
  6
Continuous
 62
     3
 48
0.125
100
AcDbPolyline
 90
        2
 70
   128
 43
0.0
 10
16.80664564644233
 20
8.003052625842364
 10
16.80664564644233
 20
8.003052625842364
  0
LWPOLYLINE
  5
25A
330
A
100
AcDbEntity
  8
DEFPOINTS
  6
Continuous
 62
     3
 48
0.125
100
AcDbPolyline
 90
        2
 70
   128
 43
0.0
 10
17.55664564644233
 20
8.003052625842364
 10
17.55664564644233
 20
8.003052625842364
  0
LWPOLYLINE
  5
25E
330
A
100
AcDbEntity
  8
DEFPOINTS
  6
Continuous
 62
     3
 48
0.125
100
AcDbPolyline
 90
        2
 70
   128
 43
0.0
 10
17.55664564644233
 20
8.003052625842364
 10
17.55664564644233
 20
8.003052625842364
  0
LWPOLYLINE
  5
262
330
A
100
AcDbEntity
  8
DEFPOINTS
  6
Continuous
 62
     3
 48
0.125
100
AcDbPolyline
 90
        2
 70
   128
 43
0.0
 10
17.55664564644233
 20
7.750303371488412
 10
17.55664564644233
 20
7.750303371488412
  0
LWPOLYLINE
  5
266
330
A
100
AcDbEntity
  8
DEFPOINTS
  6
Continuous
 62
     3
 48
0.125
100
AcDbPolyline
 90
        2
 70
   128
 43
0.0
 10
17.55664564644233
 20
7.750303371488412
 10
17.55664564644233
 20
7.750303371488412
  0
LWPOLYLINE
  5
26A
330
A
100
AcDbEntity
  8
DEFPOINTS
  6
Continuous
 62
     3
 48
0.125
100
AcDbPolyline
 90
        2
 70
   128
 43
0.0
 10
14.93164564644233
 20
8.850049438453956
 10
14.93164564644233
 20
8.850049438453956
  0
LWPOLYLINE
  5
26E
330
A
100
AcDbEntity
  8
DEFPOINTS
  6
Continuous
 62
     3
 48
0.125
100
AcDbPolyline
 90
        2
 70
   128
 43
0.0
 10
14.93164564644233
 20
8.850049438453956
 10
14.93164564644233
 20
8.850049438453956
  0
LWPOLYLINE
  5
272
330
A
100
AcDbEntity
  8
DEFPOINTS
  6
Continuous
 62
     3
 48
0.125
100
AcDbPolyline
 90
        2
 70
   128
 43
0.0
 10
17.18164564644234
 20
9.513129115371478
 10
17.18164564644234
 20
9.513129115371478
  0
LWPOLYLINE
  5
276
330
A
100
AcDbEntity
  8
DEFPOINTS
  6
Continuous
 62
     3
 48
0.125
100
AcDbPolyline
 90
        2
 70
   128
 43
0.0
 10
17.18164564644234
 20
9.513129115371478
 10
17.18164564644234
 20
9.513129115371478
  0
LWPOLYLINE
  5
27A
330
A
100
AcDbEntity
  8
DEFPOINTS
  6
Continuous
 62
     3
 48
0.125
100
AcDbPolyline
 90
        2
 70
   128
 43
0.0
 10
17.18164564644234
 20
9.825629115371478
 10
17.18164564644234
 20
9.825629115371478
  0
LWPOLYLINE
  5
27E
330
A
100
AcDbEntity
  8
DEFPOINTS
  6
Continuous
 62
     3
 48
0.125
100
AcDbPolyline
 90
        2
 70
   128
 43
0.0
 10
17.18164564644234
 20
9.825629115371478
 10
17.18164564644234
 20
9.825629115371478
  0
LWPOLYLINE
  5
282
330
A
100
AcDbEntity
  8
DEFPOINTS
  6
Continuous
 62
     3
 48
0.125
100
AcDbPolyline
 90
        2
 70
   128
 43
0.0
 10
19.67636770188628
 20
9.624339096951345
 10
19.67636770188628
 20
9.624339096951345
  0
LWPOLYLINE
  5
286
330
A
100
AcDbEntity
  8
DEFPOINTS
  6
Continuous
 62
     3
 48
0.125
100
AcDbPolyline
 90
        2
 70
   128
 43
0.0
 10
19.67636770188628
 20
9.624339096951345
 10
19.67636770188628
 20
9.624339096951345
  0
LWPOLYLINE
  5
28A
330
A
100
AcDbEntity
  8
DEFPOINTS
  6
Continuous
 62
     3
 48
0.125
100
AcDbPolyline
 90
        2
 70
   128
 43
0.0
 10
21.49082703816592
 20
9.587094953922015
 10
21.49082703816592
 20
9.587094953922015
  0
LWPOLYLINE
  5
28E
330
A
100
AcDbEntity
  8
DEFPOINTS
  6
Continuous
 62
     3
 48
0.125
100
AcDbPolyline
 90
        2
 70
   128
 43
0.0
 10
21.49082703816592
 20
9.587094953922015
 10
21.49082703816592
 20
9.587094953922015
  0
LWPOLYLINE
  5
292
330
A
100
AcDbEntity
  8
DEFPOINTS
  6
Continuous
 62
     3
 48
0.125
100
AcDbPolyline
 90
        2
 70
   128
 43
0.0
 10
21.49082703816592
 20
9.712094953922017
 10
21.49082703816592
 20
9.712094953922017
  0
LWPOLYLINE
  5
296
330
A
100
AcDbEntity
  8
DEFPOINTS
  6
Continuous
 62
     3
 48
0.125
100
AcDbPolyline
 90
        2
 70
   128
 43
0.0
 10
21.49082703816592
 20
9.712094953922017
 10
21.49082703816592
 20
9.712094953922017
  0
LWPOLYLINE
  5
29A
330
A
100
AcDbEntity
  8
DEFPOINTS
  6
Continuous
 62
     3
 48
0.125
100
AcDbPolyline
 90
        2
 70
   128
 43
0.0
 10
19.36914564644234
 20
9.475049438453956
 10
19.36914564644234
 20
9.475049438453956
  0
LWPOLYLINE
  5
29E
330
A
100
AcDbEntity
  8
DEFPOINTS
  6
Continuous
 62
     3
 48
0.125
100
AcDbPolyline
 90
        2
 70
   128
 43
0.0
 10
19.36914564644234
 20
9.475049438453956
 10
19.36914564644234
 20
9.475049438453956
  0
LWPOLYLINE
  5
2A2
330
A
100
AcDbEntity
  8
DEFPOINTS
  6
Continuous
 62
     3
 48
0.125
100
AcDbPolyline
 90
        2
 70
   128
 43
0.0
 10
21.86914564644233
 20
9.475049438453956
 10
21.86914564644233
 20
9.475049438453956
  0
LWPOLYLINE
  5
2A6
330
A
100
AcDbEntity
  8
DEFPOINTS
  6
Continuous
 62
     3
 48
0.125
100
AcDbPolyline
 90
        2
 70
   128
 43
0.0
 10
21.86914564644233
 20
9.475049438453956
 10
21.86914564644233
 20
9.475049438453956
  0
LWPOLYLINE
  5
2AA
330
A
100
AcDbEntity
  8
DEFPOINTS
  6
Continuous
 62
     3
 48
0.125
100
AcDbPolyline
 90
        2
 70
   128
 43
0.0
 10
21.86914564644233
 20
10.10004943845395
 10
21.86914564644233
 20
10.10004943845395
  0
LWPOLYLINE
  5
2AE
330
A
100
AcDbEntity
  8
DEFPOINTS
  6
Continuous
 62
     3
 48
0.125
100
AcDbPolyline
 90
        2
 70
   128
 43
0.0
 10
21.86914564644233
 20
10.10004943845395
 10
21.86914564644233
 20
10.10004943845395
  0
LWPOLYLINE
  5
2B2
330
A
100
AcDbEntity
  8
DEFPOINTS
  6
Continuous
 62
     3
 48
0.125
100
AcDbPolyline
 90
        2
 70
   128
 43
0.0
 10
19.35616853505974
 20
9.488949727376523
 10
19.35616853505974
 20
9.488949727376523
  0
LWPOLYLINE
  5
2B6
330
A
100
AcDbEntity
  8
DEFPOINTS
  6
Continuous
 62
     3
 48
0.125
100
AcDbPolyline
 90
        2
 70
   128
 43
0.0
 10
19.35616853505974
 20
9.488949727376523
 10
19.35616853505974
 20
9.488949727376523
  0
LWPOLYLINE
  5
2BA
330
A
100
AcDbEntity
  8
DEFPOINTS
  6
Continuous
 62
     3
 48
0.125
100
AcDbPolyline
 90
        2
 70
   128
 43
0.0
 10
20.60913794925207
 20
8.426449727376523
 10
20.60913794925207
 20
8.426449727376523
  0
LWPOLYLINE
  5
2BE
330
A
100
AcDbEntity
  8
DEFPOINTS
  6
Continuous
 62
     3
 48
0.125
100
AcDbPolyline
 90
        2
 70
   128
 43
0.0
 10
20.60913794925207
 20
8.426449727376523
 10
20.60913794925207
 20
8.426449727376523
  0
LWPOLYLINE
  5
2C2
330
A
100
AcDbEntity
  8
DEFPOINTS
  6
Continuous
 62
     3
 48
0.125
100
AcDbPolyline
 90
        2
 70
   128
 43
0.0
 10
18.91866853505974
 20
8.426449727376523
 10
18.91866853505974
 20
8.426449727376523
  0
LWPOLYLINE
  5
2C6
330
A
100
AcDbEntity
  8
DEFPOINTS
  6
Continuous
 62
     3
 48
0.125
100
AcDbPolyline
 90
        2
 70
   128
 43
0.0
 10
18.91866853505974
 20
8.426449727376523
 10
18.91866853505974
 20
8.426449727376523
  0
TEXT
  5
376
330
A
100
AcDbEntity
  8
ADPDIM
100
AcDbText
 10
11.91848022237366
 20
6.249877848640501
 30
0.0
 40
0.125
  1
J U L I U S  B L U M  &  C O . ,  I N C .      ( 8 0 0 )  5 2 6 - 6 2 9 3        W W W . J U L I U S B L U M . C O M        P A R T  N O .  2 4 1
 41
1.25
  7
ARIAL_WIDE
 72
     1
 11
18.37738199590708
 21
6.374877848640501
 31
0.0
100
AcDbText
 73
     3
  0
ENDSEC
  0
SECTION
  2
OBJECTS
  0
DICTIONARY
  5
19
330
0
100
AcDbDictionary
281
     1
  3
ACAD_COLOR
350
484
  3
ACAD_GROUP
350
1A
  3
ACAD_LAYOUT
350
2CF
  3
ACAD_MATERIAL
350
46F
  3
ACAD_MLINESTYLE
350
1B
  3
ACAD_PLOTSETTINGS
350
2D0
  3
ACAD_PLOTSTYLENAME
350
2CD
  3
ACAD_TABLESTYLE
350
485
  3
ACAD_VISUALSTYLE
350
473
  3
AcDbVariableDictionary
350
33D
  3
ASE_INDEX_DICTIONARY
350
48B
  3
DWGPROPS
350
4AD
  0
DICTIONARY
  5
331
330
A
100
AcDbDictionary
280
     1
281
     1
  3
ACAD_LAYOUTSELFREF
360
462
  0
DICTIONARY
  5
333
330
B
100
AcDbDictionary
280
     1
281
     1
  3
ACAD_LAYOUTSELFREF
360
463
  0
DICTIONARY
  5
484
102
{ACAD_REACTORS
330
19
102
}
330
19
100
AcDbDictionary
281
     1
  0
DICTIONARY
  5
1A
102
{ACAD_REACTORS
330
19
102
}
330
19
100
AcDbDictionary
281
     1
  0
DICTIONARY
  5
2CF
102
{ACAD_REACTORS
330
19
102
}
330
19
100
AcDbDictionary
281
     1
  3
Layout1
350
2D2
  3
Model
350
2D1
  0
DICTIONARY
  5
46F
102
{ACAD_REACTORS
330
19
102
}
330
19
100
AcDbDictionary
281
     1
  3
ByBlock
350
471
  3
ByLayer
350
470
  3
Global
350
472
  0
DICTIONARY
  5
1B
102
{ACAD_REACTORS
330
19
102
}
330
19
100
AcDbDictionary
281
     1
  3
STANDARD
350
1C
  0
DICTIONARY
  5
2D0
102
{ACAD_REACTORS
330
19
102
}
330
19
100
AcDbDictionary
281
     1
  0
ACDBDICTIONARYWDFLT
  5
2CD
102
{ACAD_REACTORS
330
19
102
}
330
19
100
AcDbDictionary
281
     1
  3
Normal
350
2CE
100
AcDbDictionaryWithDefault
340
2CE
  0
DICTIONARY
  5
485
102
{ACAD_REACTORS
330
19
102
}
330
19
100
AcDbDictionary
281
     1
  3
Standard
350
486
  0
DICTIONARY
  5
473
102
{ACAD_REACTORS
330
19
102
}
330
19
100
AcDbDictionary
281
     1
  3
2dWireframe
350
479
  3
3D Hidden
350
47B
  3
3dWireframe
350
47A
  3
Basic
350
478
  3
Brighten
350
47F
  3
ColorChange
350
483
  3
Conceptual
350
47C
  3
Dim
350
47E
  3
Facepattern
350
482
  3
Flat
350
474
  3
FlatWithEdges
350
475
  3
Gouraud
350
476
  3
GouraudWithEdges
350
477
  3
Linepattern
350
481
  3
Realistic
350
47D
  3
Thicken
350
480
  0
DICTIONARY
  5
33D
102
{ACAD_REACTORS
330
19
102
}
330
19
100
AcDbDictionary
281
     1
  3
CTABLESTYLE
350
4AA
  3
DIMASSOC
350
33E
  3
INDEXCTL
350
4AC
  3
SORTENTS
350
4AB
  0
DICTIONARY
  5
48B
102
{ACAD_REACTORS
330
19
102
}
330
19
100
AcDbDictionary
281
     1
  3
ASEBlockHierarchyIndexRecord
350
48D
1001
DCO15
1040
1567884305.478
  0
XRECORD
  5
4AD
102
{ACAD_REACTORS
330
19
102
}
330
19
100
AcDbXrecord
280
     1
  1
DWGPROPS COOKIE
  2

  3

  4

  6

  7

  8
Yu Hu
  9

300
=
301
=
302
=
303
=
304
=
305
=
306
=
307
=
308
=
309
=
 40
0.0199636342592593
 41
2444971.791666667
 42
2453950.020943032
  1

 90
        0
  0
XRECORD
  5
462
102
{ACAD_REACTORS
330
331
102
}
330
331
100
AcDbXrecord
280
     1
340
A
  0
XRECORD
  5
463
102
{ACAD_REACTORS
330
333
102
}
330
333
100
AcDbXrecord
280
     1
340
B
  0
LAYOUT
  5
2D2
102
{ACAD_XDICTIONARY
360
4B0
102
}
102
{ACAD_REACTORS
330
2CF
102
}
330
2CF
100
AcDbPlotSettings
  1

  2
Fax
  4

  6

 40
0.0
 41
0.0
 42
0.0
 43
0.0
 44
0.0
 45
0.0
 46
0.0
 47
0.0
 48
0.0
 49
0.0
140
0.0
141
0.0
142
1.0
143
1.0
 70
   688
 72
     0
 73
     0
 74
     5
  7
Default R14 pen assignments.ctb
 75
    16
147
1.0
148
0.0
149
0.0
100
AcDbLayout
  1
Layout1
 70
     0
 71
     1
 10
0.0
 20
0.0
 11
12.0
 21
9.0
 12
0.0
 22
0.0
 32
0.0
 14
1.000000000000000E+20
 24
1.000000000000000E+20
 34
1.000000000000000E+20
 15
-1.000000000000000E+20
 25
-1.000000000000000E+20
 35
-1.000000000000000E+20
146
0.0
 13
0.0
 23
0.0
 33
0.0
 16
1.0
 26
0.0
 36
0.0
 17
0.0
 27
1.0
 37
0.0
 76
     0
330
B
  0
LAYOUT
  5
2D1
102
{ACAD_XDICTIONARY
360
4AE
102
}
102
{ACAD_REACTORS
330
2CF
102
}
330
2CF
100
AcDbPlotSettings
  1

  2
Fax
  4

  6

 40
0.0
 41
0.0
 42
0.0
 43
0.0
 44
0.0
 45
0.0
 46
0.0
 47
0.0
 48
0.0
 49
0.0
140
0.0
141
0.0
142
1.0
143
1.0
 70
  1712
 72
     0
 73
     0
 74
     0
  7
Default R14 pen assignments.ctb
 75
     0
147
1.0
148
0.0
149
0.0
100
AcDbLayout
  1
Model
 70
     1
 71
     0
 10
0.0
 20
0.0
 11
12.0
 21
9.0
 12
0.0
 22
0.0
 32
0.0
 14
0.0
 24
0.0
 34
0.0
 15
0.0
 25
0.0
 35
0.0
146
0.0
 13
0.0
 23
0.0
 33
0.0
 16
1.0
 26
0.0
 36
0.0
 17
0.0
 27
1.0
 37
0.0
 76
     0
330
A
331
43F
  0
MATERIAL
  5
471
102
{ACAD_XDICTIONARY
360
4B4
102
}
102
{ACAD_REACTORS
330
46F
102
}
330
46F
100
AcDbMaterial
  1
ByBlock
  0
MATERIAL
  5
470
102
{ACAD_XDICTIONARY
360
4B2
102
}
102
{ACAD_REACTORS
330
46F
102
}
330
46F
100
AcDbMaterial
  1
ByLayer
  0
MATERIAL
  5
472
102
{ACAD_XDICTIONARY
360
4B6
102
}
102
{ACAD_REACTORS
330
46F
102
}
330
46F
100
AcDbMaterial
  1
Global
  0
MLINESTYLE
  5
1C
102
{ACAD_REACTORS
330
1B
102
}
330
1B
100
AcDbMlineStyle
  2
STANDARD
 70
     0
  3

 62
     0
 51
90.00000000000019
 52
90.00000000000019
 71
     2
 49
0.5
 62
   256
  6
BYLAYER
 49
-0.5
 62
   256
  6
BYLAYER
  0
ACDBPLACEHOLDER
  5
2CE
102
{ACAD_REACTORS
330
2CD
102
}
330
2CD
  0
TABLESTYLE
  5
486
102
{ACAD_XDICTIONARY
360
4B8
102
}
102
{ACAD_REACTORS
330
485
102
}
330
485
100
AcDbTableStyle
  3
Standard
 70
     0
 71
     0
 40
0.06
 41
0.06
280
     0
281
     0
  7
STANDARD
140
0.18
170
     2
 62
     0
 63
     7
283
     0
274
    -2
284
     1
 64
     0
275
    -2
285
     1
 65
     0
276
    -2
286
     1
 66
     0
277
    -2
287
     1
 67
     0
278
    -2
288
     1
 68
     0
279
    -2
289
     1
 69
     0
  7
STANDARD
140
0.25
170
     5
 62
     0
 63
     7
283
     0
274
    -2
284
     1
 64
     0
275
    -2
285
     1
 65
     0
276
    -2
286
     1
 66
     0
277
    -2
287
     1
 67
     0
278
    -2
288
     1
 68
     0
279
    -2
289
     1
 69
     0
  7
STANDARD
140
0.18
170
     5
 62
     0
 63
     7
283
     0
274
    -2
284
     1
 64
     0
275
    -2
285
     1
 65
     0
276
    -2
286
     1
 66
     0
277
    -2
287
     1
 67
     0
278
    -2
288
     1
 68
     0
279
    -2
289
     1
 69
     0
  0
VISUALSTYLE
  5
479
102
{ACAD_REACTORS
330
473
102
}
330
473
100
AcDbVisualStyle
  2
2dWireframe
 70
     4
 71
     0
 72
     2
 73
     0
 90
        0
 40
-0.6
 41
-30.0
 62
     5
 63
     7
 74
     1
 91
        4
 64
     7
 65
   257
 75
     1
175
     1
 42
1.0
 92
        0
 66
   257
 43
1.0
 76
     1
 77
     6
 78
     2
 67
     7
 79
     5
170
     0
171
     0
290
     0
174
     0
 93
        1
 44
0.0
173
     0
291
     0
 45
0.0
1001
ACAD
1000
AcDbSavedByObjectVersion
1070
     0
  0
VISUALSTYLE
  5
47B
102
{ACAD_REACTORS
330
473
102
}
330
473
100
AcDbVisualStyle
  2
3D Hidden
 70
     6
 71
     1
 72
     2
 73
     2
 90
        0
 40
-0.6
 41
-30.0
 62
     5
 63
     7
 74
     2
 91
        2
 64
     7
 65
   257
 75
     2
175
     1
 42
40.0
 92
        0
 66
   257
 43
1.0
 76
     1
 77
     6
 78
     2
 67
     7
 79
     3
170
     0
171
     0
290
     0
174
     0
 93
        1
 44
0.0
173
     0
291
     0
 45
0.0
1001
ACAD
1000
AcDbSavedByObjectVersion
1070
     0
  0
VISUALSTYLE
  5
47A
102
{ACAD_REACTORS
330
473
102
}
330
473
100
AcDbVisualStyle
  2
3dWireframe
 70
     5
 71
     0
 72
     2
 73
     0
 90
        0
 40
-0.6
 41
-30.0
 62
     5
 63
     7
 74
     1
 91
        4
 64
     7
 65
   257
 75
     1
175
     1
 42
1.0
 92
        0
 66
   257
 43
1.0
 76
     1
 77
     6
 78
     2
 67
     7
 79
     5
170
     0
171
     0
290
     0
174
     0
 93
        1
 44
0.0
173
     0
291
     0
 45
0.0
1001
ACAD
1000
AcDbSavedByObjectVersion
1070
     0
  0
VISUALSTYLE
  5
478
102
{ACAD_REACTORS
330
473
102
}
330
473
100
AcDbVisualStyle
  2
Basic
 70
     7
 71
     1
 72
     0
 73
     1
 90
        0
 40
-0.6
 41
-30.0
 62
     5
 63
     7
 74
     0
 91
        4
 64
     7
 65
   257
 75
     1
175
     1
 42
1.0
 92
        8
 66
     7
 43
1.0
 76
     1
 77
     6
 78
     2
 67
     7
 79
     5
170
     0
171
     0
290
     0
174
     0
 93
        1
 44
0.0
173
     0
291
     1
 45
0.0
1001
ACAD
1000
AcDbSavedByObjectVersion
1070
     0
  0
VISUALSTYLE
  5
47F
102
{ACAD_REACTORS
330
473
102
}
330
473
100
AcDbVisualStyle
  2
Brighten
 70
    12
 71
     2
 72
     2
 73
     0
 90
        0
 40
-0.6
 41
-30.0
 62
     5
 63
     7
 74
     1
 91
        4
 64
     7
 65
   257
 75
     1
175
     1
 42
1.0
 92
        8
 66
     7
 43
1.0
 76
     1
 77
     6
 78
     2
 67
     7
 79
     5
170
     0
171
     0
290
     0
174
     0
 93
        1
 44
50.0
173
     0
291
     1
 45
0.0
1001
ACAD
1000
AcDbSavedByObjectVersion
1070
     0
  0
VISUALSTYLE
  5
483
102
{ACAD_REACTORS
330
473
102
}
330
473
100
AcDbVisualStyle
  2
ColorChange
 70
    16
 71
     2
 72
     2
 73
     3
 90
        0
 40
-0.6
 41
-30.0
 62
     5
 63
     8
 74
     1
 91
        4
 64
     7
 65
   257
 75
     1
175
     1
 42
1.0
 92
        8
 66
     8
 43
1.0
 76
     1
 77
     6
 78
     2
 67
     7
 79
     5
170
     0
171
     0
290
     0
174
     0
 93
        1
 44
0.0
173
     0
291
     1
 45
0.0
1001
ACAD
1000
AcDbSavedByObjectVersion
1070
     0
  0
VISUALSTYLE
  5
47C
102
{ACAD_REACTORS
330
473
102
}
330
473
100
AcDbVisualStyle
  2
Conceptual
 70
     9
 71
     3
 72
     2
 73
     0
 90
        0
 40
-0.6
 41
-30.0
 62
     5
 63
     7
 74
     2
 91
        2
 64
     7
 65
   257
 75
     1
175
     1
 42
40.0
 92
        8
 66
     7
 43
1.0
 76
     1
 77
     6
 78
     2
 67
     7
 79
     3
170
     0
171
     0
290
     0
174
     0
 93
        1
 44
0.0
173
     0
291
     0
 45
0.0
1001
ACAD
1000
AcDbSavedByObjectVersion
1070
     0
  0
VISUALSTYLE
  5
47E
102
{ACAD_REACTORS
330
473
102
}
330
473
100
AcDbVisualStyle
  2
Dim
 70
    11
 71
     2
 72
     2
 73
     0
 90
        0
 40
-0.6
 41
-30.0
 62
     5
 63
     7
 74
     1
 91
        4
 64
     7
 65
   257
 75
     1
175
     1
 42
1.0
 92
        8
 66
     7
 43
1.0
 76
     1
 77
     6
 78
     2
 67
     7
 79
     5
170
     0
171
     0
290
     0
174
     0
 93
        1
 44
-50.0
173
     0
291
     1
 45
0.0
1001
ACAD
1000
AcDbSavedByObjectVersion
1070
     0
  0
VISUALSTYLE
  5
482
102
{ACAD_REACTORS
330
473
102
}
330
473
100
AcDbVisualStyle
  2
Facepattern
 70
    15
 71
     2
 72
     2
 73
     0
 90
        0
 40
-0.6
 41
-30.0
 62
     5
 63
     7
 74
     1
 91
        4
 64
     7
 65
   257
 75
     1
175
     1
 42
1.0
 92
        8
 66
     7
 43
1.0
 76
     1
 77
     6
 78
     2
 67
     7
 79
     5
170
     0
171
     0
290
     0
174
     0
 93
        1
 44
0.0
173
     0
291
     1
 45
0.0
1001
ACAD
1000
AcDbSavedByObjectVersion
1070
     0
  0
VISUALSTYLE
  5
474
102
{ACAD_REACTORS
330
473
102
}
330
473
100
AcDbVisualStyle
  2
Flat
 70
     0
 71
     2
 72
     1
 73
     1
 90
        2
 40
-0.6
 41
30.0
 62
     5
 63
     7
 74
     0
 91
        4
 64
     7
 65
   257
 75
     1
175
     1
 42
1.0
 92
        8
 66
     7
 43
1.0
 76
     1
 77
     6
 78
     2
 67
     7
 79
     5
170
     0
171
     0
290
     0
174
     0
 93
       13
 44
0.0
173
     0
291
     1
 45
0.0
1001
ACAD
1000
AcDbSavedByObjectVersion
1070
     0
  0
VISUALSTYLE
  5
475
102
{ACAD_REACTORS
330
473
102
}
330
473
100
AcDbVisualStyle
  2
FlatWithEdges
 70
     1
 71
     2
 72
     1
 73
     1
 90
        2
 40
-0.6
 41
30.0
 62
     5
 63
     7
 74
     1
 91
        4
 64
     7
 65
   257
 75
     1
175
     1
 42
1.0
 92
        0
 66
   257
 43
1.0
 76
     1
 77
     6
 78
     2
 67
     7
 79
     5
170
     0
171
     0
290
     0
174
     0
 93
       13
 44
0.0
173
     0
291
     1
 45
0.0
1001
ACAD
1000
AcDbSavedByObjectVersion
1070
     0
  0
VISUALSTYLE
  5
476
102
{ACAD_REACTORS
330
473
102
}
330
473
100
AcDbVisualStyle
  2
Gouraud
 70
     2
 71
     2
 72
     2
 73
     1
 90
        2
 40
-0.6
 41
30.0
 62
     5
 63
     7
 74
     0
 91
        4
 64
     7
 65
   257
 75
     1
175
     1
 42
1.0
 92
        0
 66
     7
 43
1.0
 76
     1
 77
     6
 78
     2
 67
     7
 79
     5
170
     0
171
     0
290
     0
174
     0
 93
       13
 44
0.0
173
     0
291
     1
 45
0.0
1001
ACAD
1000
AcDbSavedByObjectVersion
1070
     0
  0
VISUALSTYLE
  5
477
102
{ACAD_REACTORS
330
473
102
}
330
473
100
AcDbVisualStyle
  2
GouraudWithEdges
 70
     3
 71
     2
 72
     2
 73
     1
 90
        2
 40
-0.6
 41
30.0
 62
     5
 63
     7
 74
     1
 91
        4
 64
     7
 65
   257
 75
     1
175
     1
 42
1.0
 92
        0
 66
   257
 43
1.0
 76
     1
 77
     6
 78
     2
 67
     7
 79
     5
170
     0
171
     0
290
     0
174
     0
 93
       13
 44
0.0
173
     0
291
     1
 45
0.0
1001
ACAD
1000
AcDbSavedByObjectVersion
1070
     0
  0
VISUALSTYLE
  5
481
102
{ACAD_REACTORS
330
473
102
}
330
473
100
AcDbVisualStyle
  2
Linepattern
 70
    14
 71
     2
 72
     2
 73
     0
 90
        0
 40
-0.6
 41
-30.0
 62
     5
 63
     7
 74
     1
 91
        4
 64
     7
 65
   257
 75
     7
175
     7
 42
1.0
 92
        8
 66
     7
 43
1.0
 76
     1
 77
     6
 78
     2
 67
     7
 79
     5
170
     0
171
     0
290
     0
174
     0
 93
        1
 44
0.0
173
     0
291
     1
 45
0.0
1001
ACAD
1000
AcDbSavedByObjectVersion
1070
     0
  0
VISUALSTYLE
  5
47D
102
{ACAD_REACTORS
330
473
102
}
330
473
100
AcDbVisualStyle
  2
Realistic
 70
     8
 71
     2
 72
     2
 73
     0
 90
        0
 40
-0.6
 41
-30.0
 62
     5
 63
     7
 74
     1
 91
        0
 64
     7
 65
   257
 75
     1
175
     1
 42
1.0
 92
        8
 66
     8
 43
1.0
 76
     1
 77
     6
 78
     2
 67
     7
 79
     5
170
     0
171
     0
290
     0
174
     0
 93
       13
 44
0.0
173
     0
291
     0
 45
0.0
1001
ACAD
1000
AcDbSavedByObjectVersion
1070
     0
  0
VISUALSTYLE
  5
480
102
{ACAD_REACTORS
330
473
102
}
330
473
100
AcDbVisualStyle
  2
Thicken
 70
    13
 71
     2
 72
     2
 73
     0
 90
        0
 40
-0.6
 41
-30.0
 62
     5
 63
     7
 74
     1
 91
        4
 64
     7
 65
   257
 75
     1
175
     1
 42
1.0
 92
       12
 66
     7
 43
1.0
 76
     1
 77
     6
 78
     2
 67
     7
 79
     5
170
     0
171
     0
290
     0
174
     0
 93
        1
 44
0.0
173
     0
291
     1
 45
0.0
1001
ACAD
1000
AcDbSavedByObjectVersion
1070
     0
  0
DICTIONARYVAR
  5
4AA
102
{ACAD_REACTORS
330
33D
102
}
330
33D
100
DictionaryVariables
280
     0
  1
STANDARD
  0
DICTIONARYVAR
  5
33E
102
{ACAD_REACTORS
330
33D
102
}
330
33D
100
DictionaryVariables
280
     0
  1
1
  0
DICTIONARYVAR
  5
4AC
102
{ACAD_REACTORS
330
33D
102
}
330
33D
100
DictionaryVariables
280
     0
  1
0
  0
DICTIONARYVAR
  5
4AB
102
{ACAD_REACTORS
330
33D
102
}
330
33D
100
DictionaryVariables
280
     0
  1
127
  0
XRECORD
  5
48D
102
{ACAD_REACTORS
330
48B
102
}
330
48B
100
AcDbXrecord
280
     1
  0
DICTIONARY
  5
4B0
330
2D2
100
AcDbDictionary
280
     1
281
     1
  3
ACAD_XREC_ROUNDTRIP
360
4B1
  0
DICTIONARY
  5
4AE
330
2D1
100
AcDbDictionary
280
     1
281
     1
  3
ACAD_XREC_ROUNDTRIP
360
4AF
  0
DICTIONARY
  5
4B4
330
471
100
AcDbDictionary
280
     1
281
     1
  3
ACAD_XREC_ROUNDTRIP
360
4B5
  0
DICTIONARY
  5
4B2
330
470
100
AcDbDictionary
280
     1
281
     1
  3
ACAD_XREC_ROUNDTRIP
360
4B3
  0
DICTIONARY
  5
4B6
330
472
100
AcDbDictionary
280
     1
281
     1
  3
ACAD_XREC_ROUNDTRIP
360
4B7
  0
DICTIONARY
  5
4B8
330
486
100
AcDbDictionary
280
     1
281
     1
  3
ACAD_XREC_ROUNDTRIP
360
4B9
  0
XRECORD
  5
4B1
102
{ACAD_REACTORS
330
4B0
102
}
330
4B0
100
AcDbXrecord
280
     1
102
SHADEPLOT
 70
     0
102
SHADEPLOTRESLEVEL
 70
     2
102
SHADEPLOTCUSTOMDPI
 70
   300
  0
XRECORD
  5
4AF
102
{ACAD_REACTORS
330
4AE
102
}
330
4AE
100
AcDbXrecord
280
     1
102
SHADEPLOT
 70
     0
102
SHADEPLOTRESLEVEL
 70
     2
102
SHADEPLOTCUSTOMDPI
 70
   300
  0
XRECORD
  5
4B5
102
{ACAD_REACTORS
330
4B4
102
}
330
4B4
100
AcDbXrecord
280
     1
102
MATERIAL
148
0.0
149
0.0
149
0.0
 93
        0
 94
       63
282
     0
 72
     1
 77
     1
171
     1
175
     1
179
     1
273
     0
  0
XRECORD
  5
4B3
102
{ACAD_REACTORS
330
4B2
102
}
330
4B2
100
AcDbXrecord
280
     1
102
MATERIAL
148
0.0
149
0.0
149
0.0
 93
        0
 94
       63
282
     0
 72
     1
 77
     1
171
     1
175
     1
179
     1
273
     0
  0
XRECORD
  5
4B7
102
{ACAD_REACTORS
330
4B6
102
}
330
4B6
100
AcDbXrecord
280
     1
102
MATERIAL
148
0.0
149
0.0
149
0.0
 93
        0
 94
       63
282
     0
 72
     1
 77
     1
171
     1
175
     1
179
     1
273
     0
  0
XRECORD
  5
4B9
102
{ACAD_REACTORS
330
4B8
102
}
330
4B8
100
AcDbXrecord
280
     1
102
ACAD_ROUNDTRIP_PRE2007_TABLESTYLE
 90
      512
 91
        0
  1

 92
      512
 93
        0
  2

 94
      512
 95
        0
  3

  0
ENDSEC
  0
EOF
