  0
SECTION
  2
HEADER
  9
$ACADVER
  1
AC1014
  9
$ACADMAINTVER
 70
     9
  9
$DWGCODEPAGE
  3
ANSI_1252
  9
$INSBASE
 10
0.0
 20
0.0
 30
0.0
  9
$EXTMIN
 10
23.41355318197476
 20
13.17427238974946
 30
0.0
  9
$EXTMAX
 10
36.33135672904161
 20
17.96847831286261
 30
0.0
  9
$LIMMIN
 10
0.0
 20
0.0
  9
$LIMMAX
 10
0.0
 20
0.0
  9
$ORTHOMODE
 70
     1
  9
$REGENMODE
 70
     1
  9
$FILLMODE
 70
     1
  9
$QTEXTMODE
 70
     0
  9
$MIRRTEXT
 70
     1
  9
$DRAGMODE
 70
     0
  9
$LTSCALE
 40
1.0
  9
$OSMODE
 70
    37
  9
$ATTMODE
 70
     1
  9
$TEXTSIZE
 40
0.0
  9
$TRACEWID
 40
0.05
  9
$TEXTSTYLE
  7
STANDARD
  9
$CLAYER
  8
0
  9
$CELTYPE
  6
CONTINUOUS
  9
$CECOLOR
 62
   256
  9
$CELTSCALE
 40
1.0
  9
$DELOBJ
 70
     1
  9
$DISPSILH
 70
     0
  9
$DIMSCALE
 40
1.0
  9
$DIMASZ
 40
0.18
  9
$DIMEXO
 40
0.0625
  9
$DIMDLI
 40
0.38
  9
$DIMRND
 40
0.0
  9
$DIMDLE
 40
0.0
  9
$DIMEXE
 40
0.18
  9
$DIMTP
 40
0.0
  9
$DIMTM
 40
0.0
  9
$DIMTXT
 40
0.18
  9
$DIMCEN
 40
0.09
  9
$DIMTSZ
 40
0.0
  9
$DIMTOL
 70
     0
  9
$DIMLIM
 70
     0
  9
$DIMTIH
 70
     1
  9
$DIMTOH
 70
     1
  9
$DIMSE1
 70
     0
  9
$DIMSE2
 70
     0
  9
$DIMTAD
 70
     0
  9
$DIMZIN
 70
     0
  9
$DIMBLK
  1

  9
$DIMASO
 70
     1
  9
$DIMSHO
 70
     1
  9
$DIMPOST
  1

  9
$DIMAPOST
  1

  9
$DIMALT
 70
     0
  9
$DIMALTD
 70
     2
  9
$DIMALTF
 40
25.4
  9
$DIMLFAC
 40
1.0
  9
$DIMTOFL
 70
     0
  9
$DIMTVP
 40
0.0
  9
$DIMTIX
 70
     0
  9
$DIMSOXD
 70
     0
  9
$DIMSAH
 70
     0
  9
$DIMBLK1
  1

  9
$DIMBLK2
  1

  9
$DIMSTYLE
  2
STANDARD
  9
$DIMCLRD
 70
     0
  9
$DIMCLRE
 70
     0
  9
$DIMCLRT
 70
     0
  9
$DIMTFAC
 40
1.0
  9
$DIMGAP
 40
0.09
  9
$DIMJUST
 70
     0
  9
$DIMSD1
 70
     0
  9
$DIMSD2
 70
     0
  9
$DIMTOLJ
 70
     1
  9
$DIMTZIN
 70
     0
  9
$DIMALTZ
 70
     0
  9
$DIMALTTZ
 70
     0
  9
$DIMFIT
 70
     3
  9
$DIMUPT
 70
     0
  9
$DIMUNIT
 70
     2
  9
$DIMDEC
 70
     4
  9
$DIMTDEC
 70
     4
  9
$DIMALTU
 70
     2
  9
$DIMALTTD
 70
     2
  9
$DIMTXSTY
  7
STANDARD
  9
$DIMAUNIT
 70
     0
  9
$LUNITS
 70
     2
  9
$LUPREC
 70
     4
  9
$SKETCHINC
 40
0.1
  9
$FILLETRAD
 40
0.0
  9
$AUNITS
 70
     0
  9
$AUPREC
 70
     0
  9
$MENU
  1
acad
  9
$ELEVATION
 40
0.0
  9
$PELEVATION
 40
0.0
  9
$THICKNESS
 40
0.0
  9
$LIMCHECK
 70
     0
  9
$BLIPMODE
 70
     0
  9
$CHAMFERA
 40
0.0
  9
$CHAMFERB
 40
0.0
  9
$CHAMFERC
 40
0.0
  9
$CHAMFERD
 40
0.0
  9
$SKPOLY
 70
     0
  9
$TDCREATE
 40
2444971.791666666
  9
$TDUPDATE
 40
2452297.065313946
  9
$TDINDWG
 40
0.0309015046
  9
$TDUSRTIMER
 40
0.0309015046
  9
$USRTIMER
 70
     1
  9
$ANGBASE
 50
0.0
  9
$ANGDIR
 70
     0
  9
$PDMODE
 70
     0
  9
$PDSIZE
 40
0.0
  9
$PLINEWID
 40
0.0
  9
$COORDS
 70
     2
  9
$SPLFRAME
 70
     0
  9
$SPLINETYPE
 70
     6
  9
$SPLINESEGS
 70
     8
  9
$ATTDIA
 70
     0
  9
$ATTREQ
 70
     1
  9
$HANDLING
 70
 22529
  9
$HANDSEED
  5
44B
  9
$SURFTAB1
 70
     6
  9
$SURFTAB2
 70
     6
  9
$SURFTYPE
 70
     6
  9
$SURFU
 70
     6
  9
$SURFV
 70
     6
  9
$UCSNAME
  2

  9
$UCSORG
 10
0.0
 20
0.0
 30
0.0
  9
$UCSXDIR
 10
1.0
 20
0.0
 30
0.0
  9
$UCSYDIR
 10
0.0
 20
1.0
 30
0.0
  9
$PUCSNAME
  2

  9
$PUCSORG
 10
0.0
 20
0.0
 30
0.0
  9
$PUCSXDIR
 10
1.0
 20
0.0
 30
0.0
  9
$PUCSYDIR
 10
0.0
 20
1.0
 30
0.0
  9
$USERI1
 70
     0
  9
$USERI2
 70
     0
  9
$USERI3
 70
     0
  9
$USERI4
 70
     0
  9
$USERI5
 70
     0
  9
$USERR1
 40
0.0
  9
$USERR2
 40
0.0
  9
$USERR3
 40
0.0
  9
$USERR4
 40
0.0
  9
$USERR5
 40
0.0
  9
$WORLDVIEW
 70
     1
  9
$SHADEDGE
 70
     3
  9
$SHADEDIF
 70
    70
  9
$TILEMODE
 70
     1
  9
$MAXACTVP
 70
    16
  9
$PINSBASE
 10
0.0
 20
0.0
 30
0.0
  9
$PLIMCHECK
 70
     0
  9
$PEXTMIN
 10
1.000000000000000E+20
 20
1.000000000000000E+20
 30
1.000000000000000E+20
  9
$PEXTMAX
 10
-1.000000000000000E+20
 20
-1.000000000000000E+20
 30
-1.000000000000000E+20
  9
$PLIMMIN
 10
0.0
 20
0.0
  9
$PLIMMAX
 10
12.0
 20
9.0
  9
$UNITMODE
 70
     0
  9
$VISRETAIN
 70
     0
  9
$PLINEGEN
 70
     0
  9
$PSLTSCALE
 70
     0
  9
$TREEDEPTH
 70
  3020
  9
$PICKSTYLE
 70
     1
  9
$CMLSTYLE
  2
STANDARD
  9
$CMLJUST
 70
     0
  9
$CMLSCALE
 40
1.0
  9
$PROXYGRAPHICS
 70
     1
  9
$MEASUREMENT
 70
     0
  0
ENDSEC
  0
SECTION
  2
CLASSES
  0
CLASS
  1
LWPOLYLINE
  2
AcDbPolyline
  3
AutoCAD 2000
 90
        0
280
     0
281
     1
  0
CLASS
  1
IMAGE
  2
AcDbRasterImage
  3
ISM
 90
      127
280
     0
281
     1
  0
CLASS
  1
OLE2FRAME
  2
AcDbOle2Frame
  3
AutoCAD 2000
 90
        0
280
     0
281
     1
  0
CLASS
  1
HATCH
  2
AcDbHatch
  3
AutoCAD 2000
 90
        0
280
     0
281
     1
  0
CLASS
  1
DICTIONARYVAR
  2
AcDbDictionaryVar
  3
AutoCAD 2000
 90
        0
280
     0
281
     0
  0
CLASS
  1
RASTERVARIABLES
  2
AcDbRasterVariables
  3
ISM
 90
        0
280
     0
281
     0
  0
CLASS
  1
IMAGEDEF
  2
AcDbRasterImageDef
  3
ISM
 90
        0
280
     0
281
     0
  0
CLASS
  1
IMAGEDEF_REACTOR
  2
AcDbRasterImageDefReactor
  3
ISM
 90
        1
280
     0
281
     0
  0
CLASS
  1
IDBUFFER
  2
AcDbIdBuffer
  3
AutoCAD 2000
 90
        0
280
     0
281
     0
  0
CLASS
  1
SPATIAL_FILTER
  2
AcDbSpatialFilter
  3
AutoCAD 2000
 90
        0
280
     0
281
     0
  0
CLASS
  1
XRECORD
  2
AcDbXrecord
  3
AutoCAD 2000
 90
        0
280
     0
281
     0
  0
CLASS
  1
SORTENTSTABLE
  2
AcDbSortentsTable
  3
AutoCAD 2000
 90
        0
280
     0
281
     0
  0
CLASS
  1
LAYER_INDEX
  2
AcDbLayerIndex
  3
AutoCAD 2000
 90
        0
280
     0
281
     0
  0
CLASS
  1
SPATIAL_INDEX
  2
AcDbSpatialIndex
  3
AutoCAD 2000
 90
        0
280
     0
281
     0
  0
CLASS
  1
OBJECT_PTR
  2
CAseDLPNTableRecord
  3
ASE-LPNTableRecord
 90
        1
280
     0
281
     0
  0
CLASS
  1
ACDBDICTIONARYWDFLT
  2
AcDbDictionaryWithDefault
  3
AutoCAD 2000
 90
        0
280
     0
281
     0
  0
CLASS
  1
ACDBPLACEHOLDER
  2
AcDbPlaceHolder
  3
AutoCAD 2000
 90
        0
280
     0
281
     0
  0
CLASS
  1
LAYOUT
  2
AcDbLayout
  3
AutoCAD 2000
 90
        0
280
     0
281
     0
  0
CLASS
  1
LONG_TRANSACTION
  2
AcDbLongTransaction
  3
AutoCAD 2000
 90
        0
280
     0
281
     0
  0
CLASS
  1
LWPOLYLINE
  2
AcDbPolyline
  3
AutoCAD 2000
 90
        0
280
     0
281
     1
  0
CLASS
  1
HATCH
  2
AcDbHatch
  3
AutoCAD 2000
 90
        0
280
     0
281
     1
  0
CLASS
  1
XRECORD
  2
AcDbXrecord
  3
AutoCAD 2000
 90
        0
280
     0
281
     0
  0
CLASS
  1
LONG_TRANSACTION
  2
AcDbLongTransaction
  3
AutoCAD 2000
 90
        0
280
     0
281
     0
  0
CLASS
  1
LWPOLYLINE
  2
AcDbPolyline
  3
AutoCAD 2000
 90
        0
280
     0
281
     1
  0
CLASS
  1
HATCH
  2
AcDbHatch
  3
AutoCAD 2000
 90
        0
280
     0
281
     1
  0
CLASS
  1
XRECORD
  2
AcDbXrecord
  3
AutoCAD 2000
 90
        0
280
     0
281
     0
  0
CLASS
  1
LONG_TRANSACTION
  2
AcDbLongTransaction
  3
AutoCAD 2000
 90
        0
280
     0
281
     0
  0
CLASS
  1
LWPOLYLINE
  2
AcDbPolyline
  3
AutoCAD 2000
 90
        0
280
     0
281
     1
  0
CLASS
  1
HATCH
  2
AcDbHatch
  3
AutoCAD 2000
 90
        0
280
     0
281
     1
  0
CLASS
  1
XRECORD
  2
AcDbXrecord
  3
AutoCAD 2000
 90
        0
280
     0
281
     0
  0
CLASS
  1
LONG_TRANSACTION
  2
AcDbLongTransaction
  3
AutoCAD 2000
 90
        0
280
     0
281
     0
  0
CLASS
  1
LWPOLYLINE
  2
AcDbPolyline
  3
AutoCAD 2000
 90
        0
280
     0
281
     1
  0
CLASS
  1
HATCH
  2
AcDbHatch
  3
AutoCAD 2000
 90
        0
280
     0
281
     1
  0
CLASS
  1
XRECORD
  2
AcDbXrecord
  3
AutoCAD 2000
 90
        0
280
     0
281
     0
  0
CLASS
  1
LONG_TRANSACTION
  2
AcDbLongTransaction
  3
AutoCAD 2000
 90
        0
280
     0
281
     0
  0
CLASS
  1
LWPOLYLINE
  2
AcDbPolyline
  3
AutoCAD 2000
 90
        0
280
     0
281
     1
  0
CLASS
  1
HATCH
  2
AcDbHatch
  3
AutoCAD 2000
 90
        0
280
     0
281
     1
  0
CLASS
  1
XRECORD
  2
AcDbXrecord
  3
AutoCAD 2000
 90
        0
280
     0
281
     0
  0
CLASS
  1
LONG_TRANSACTION
  2
AcDbLongTransaction
  3
AutoCAD 2000
 90
        0
280
     0
281
     0
  0
CLASS
  1
LWPOLYLINE
  2
AcDbPolyline
  3
AutoCAD 2000
 90
        0
280
     0
281
     1
  0
CLASS
  1
HATCH
  2
AcDbHatch
  3
AutoCAD 2000
 90
        0
280
     0
281
     1
  0
CLASS
  1
XRECORD
  2
AcDbXrecord
  3
AutoCAD 2000
 90
        0
280
     0
281
     0
  0
CLASS
  1
LONG_TRANSACTION
  2
AcDbLongTransaction
  3
AutoCAD 2000
 90
        0
280
     0
281
     0
  0
CLASS
  1
LWPOLYLINE
  2
AcDbPolyline
  3
AutoCAD 2000
 90
        0
280
     0
281
     1
  0
CLASS
  1
HATCH
  2
AcDbHatch
  3
AutoCAD 2000
 90
        0
280
     0
281
     1
  0
CLASS
  1
XRECORD
  2
AcDbXrecord
  3
AutoCAD 2000
 90
        0
280
     0
281
     0
  0
ENDSEC
  0
SECTION
  2
TABLES
  0
TABLE
  2
VPORT
  5
7
330
0
100
AcDbSymbolTable
 70
     3
  0
VPORT
  5
2E
330
7
100
AcDbSymbolTableRecord
100
AcDbViewportTableRecord
  2
DCADVPORT
 70
     0
 10
25.44076939883456
 20
14.26204907335765
 11
34.06798150546979
 21
17.96847831286261
 12
6.209999999999999
 22
9.019999999999999
 13
0.0
 23
0.0
 14
1.0
 24
1.0
 15
0.0
 25
0.0
 16
0.0
 26
0.0
 36
1.0
 17
0.0
 27
0.0
 37
0.0
 40
18.04
 41
0.688564
 42
50.0
 43
1.0
 44
1.0
 50
0.0
 51
0.0
 71
     0
 72
   100
 73
     1
 74
     1
 75
     0
 76
     0
 77
     0
 78
     0
  0
VPORT
  5
428
330
7
100
AcDbSymbolTableRecord
100
AcDbViewportTableRecord
  2
*ACTIVE
 70
     0
 10
0.0
 20
0.0
 11
1.0
 21
1.0
 12
29.87165426726967
 22
15.57165618448099
 13
0.0
 23
0.0
 14
1.0
 24
1.0
 15
0.0
 25
0.0
 16
0.0
 26
0.0
 36
1.0
 17
0.0
 27
0.0
 37
0.0
 40
8.266331401896282
 41
1.570528967254408
 42
50.0
 43
0.0
 44
0.0
 50
0.0
 51
0.0
 71
     0
 72
   100
 73
     1
 74
     1
 75
     0
 76
     0
 77
     0
 78
     0
  0
ENDTAB
  0
TABLE
  2
LTYPE
  5
4
330
0
100
AcDbSymbolTable
 70
     2
  0
LTYPE
  5
11
330
4
100
AcDbSymbolTableRecord
100
AcDbLinetypeTableRecord
  2
BYBLOCK
 70
     0
  3

 72
    65
 73
     0
 40
0.0
  0
LTYPE
  5
12
330
4
100
AcDbSymbolTableRecord
100
AcDbLinetypeTableRecord
  2
BYLAYER
 70
     0
  3

 72
    65
 73
     0
 40
0.0
  0
LTYPE
  5
13
330
4
100
AcDbSymbolTableRecord
100
AcDbLinetypeTableRecord
  2
CONTINUOUS
 70
     0
  3
Solid line
 72
    65
 73
     0
 40
0.0
  0
LTYPE
  5
1E
330
4
100
AcDbSymbolTableRecord
100
AcDbLinetypeTableRecord
  2
CONTINUOUS
 70
     0
  3
Solid line
 72
    65
 73
     0
 40
0.0
  0
ENDTAB
  0
TABLE
  2
LAYER
  5
2
330
0
100
AcDbSymbolTable
 70
     5
  0
LAYER
  5
14
330
2
100
AcDbSymbolTableRecord
100
AcDbLayerTableRecord
  2
0
 70
     0
 62
     7
  6
CONTINUOUS
  0
LAYER
  5
2A
330
2
100
AcDbSymbolTableRecord
100
AcDbLayerTableRecord
  2
DEFPOINTS
 70
     0
 62
   250
  6
CONTINUOUS
  0
LAYER
  5
2B
330
2
100
AcDbSymbolTableRecord
100
AcDbLayerTableRecord
  2
ADP2DETAIL
 70
     0
 62
   250
  6
CONTINUOUS
  0
LAYER
  5
2C
330
2
100
AcDbSymbolTableRecord
100
AcDbLayerTableRecord
  2
ADPDIM
 70
     0
 62
     3
  6
CONTINUOUS
  0
LAYER
  5
2D
330
2
100
AcDbSymbolTableRecord
100
AcDbLayerTableRecord
  2
ADP1DETAIL
 70
     0
 62
   250
  6
CONTINUOUS
  0
ENDTAB
  0
TABLE
  2
STYLE
  5
3
330
0
100
AcDbSymbolTable
 70
     2
  0
STYLE
  5
17
330
3
100
AcDbSymbolTableRecord
100
AcDbTextStyleTableRecord
  2
STANDARD
 70
     0
 40
0.0
 41
1.0
 50
0.0
 71
     0
 42
0.0
  3
txt
  4

  0
STYLE
  5
28C
330
3
100
AcDbSymbolTableRecord
100
AcDbTextStyleTableRecord
  2
ARIAL_WIDE
 70
     0
 40
0.0
 41
1.25
 50
0.0
 71
     0
 42
0.2
  3
ARIAL.TTF
  4

1001
ACAD
1000
Arial
1071
       34
  0
ENDTAB
  0
TABLE
  2
VIEW
  5
5
330
0
100
AcDbSymbolTable
 70
     0
  0
ENDTAB
  0
TABLE
  2
UCS
  5
6
330
0
100
AcDbSymbolTable
 70
     0
  0
ENDTAB
  0
TABLE
  2
APPID
  5
8
330
0
100
AcDbSymbolTable
 70
     1
  0
APPID
  5
16
330
8
100
AcDbSymbolTableRecord
100
AcDbRegAppTableRecord
  2
ACAD
 70
     0
  0
ENDTAB
  0
TABLE
  2
DIMSTYLE
  5
9
330
0
100
AcDbSymbolTable
 70
     1
  0
DIMSTYLE
105
18
330
9
100
AcDbSymbolTableRecord
100
AcDbDimStyleTableRecord
  2
STANDARD
 70
     0
  3

  4

  5

  6

  7

 40
1.0
 41
0.18
 42
0.0625
 43
0.38
 44
0.18
 45
0.0
 46
0.0
 47
0.0
 48
0.0
140
0.18
141
0.09
142
0.0
143
25.4
144
1.0
145
0.0
146
1.0
147
0.09
 71
     0
 72
     0
 73
     1
 74
     1
 75
     0
 76
     0
 77
     0
 78
     0
170
     0
171
     2
172
     0
173
     0
174
     0
175
     0
176
     0
177
     0
178
     0
270
     2
271
     4
272
     4
273
     2
274
     2
340
17
275
     0
280
     0
281
     0
282
     0
283
     1
284
     0
285
     0
286
     0
287
     0
288
     0
  0
ENDTAB
  0
TABLE
  2
BLOCK_RECORD
  5
1
330
0
100
AcDbSymbolTable
 70
     0
  0
BLOCK_RECORD
  5
A
102
{ACAD_XDICTIONARY
360
2E7
102
}
330
1
100
AcDbSymbolTableRecord
100
AcDbBlockTableRecord
  2
*MODEL_SPACE
  0
BLOCK_RECORD
  5
B
102
{ACAD_XDICTIONARY
360
2E9
102
}
330
1
100
AcDbSymbolTableRecord
100
AcDbBlockTableRecord
  2
*PAPER_SPACE
  0
ENDTAB
  0
ENDSEC
  0
SECTION
  2
BLOCKS
  0
BLOCK
  5
D
330
A
100
AcDbEntity
  8
0
100
AcDbBlockBegin
  2
*MODEL_SPACE
 70
     0
 10
0.0
 20
0.0
 30
0.0
  3
*MODEL_SPACE
  1

  0
ENDBLK
  5
E
330
A
100
AcDbEntity
  8
0
100
AcDbBlockEnd
  0
BLOCK
  5
F
330
B
100
AcDbEntity
 67
     1
  8
0
100
AcDbBlockBegin
  2
*PAPER_SPACE
 70
     0
 10
0.0
 20
0.0
 30
0.0
  3
*PAPER_SPACE
  1

  0
ENDBLK
  5
10
330
B
100
AcDbEntity
 67
     1
  8
0
100
AcDbBlockEnd
  0
ENDSEC
  0
SECTION
  2
ENTITIES
  0
LWPOLYLINE
  5
2F
330
A
100
AcDbEntity
  8
ADP1DETAIL
  6
CONTINUOUS
 62
     7
100
AcDbPolyline
 90
        2
 70
   128
 43
0.0
 10
27.42430627544594
 20
15.53974148356404
 10
26.4283440425842
 20
15.41390866700257
  0
LWPOLYLINE
  5
33
330
A
100
AcDbEntity
  8
ADP1DETAIL
  6
CONTINUOUS
 62
     7
100
AcDbPolyline
 90
        2
 70
   128
 43
0.0
 10
26.4283440425842
 20
16.16390866700257
 10
27.42430627544594
 20
16.03890866700257
  0
LWPOLYLINE
  5
37
330
A
100
AcDbEntity
  8
ADP1DETAIL
  6
CONTINUOUS
 62
     7
100
AcDbPolyline
 90
        2
 70
   128
 43
0.0
 10
26.29576939883456
 20
15.28701500606516
 10
25.85030683383195
 20
15.17564936481451
  0
LWPOLYLINE
  5
3B
330
A
100
AcDbEntity
  8
ADP1DETAIL
  6
CONTINUOUS
 62
     7
100
AcDbPolyline
 90
        2
 70
   128
 43
0.0
 10
25.8033440425842
 20
17.17800052980549
 10
25.8033440425842
 20
15.08775370602626
  0
LWPOLYLINE
  5
3F
330
A
100
AcDbEntity
  8
ADP1DETAIL
  6
CONTINUOUS
 62
     7
100
AcDbPolyline
 90
        2
 70
   128
 43
0.0
 10
25.5533440425842
 20
14.30171643106661
 10
25.5533440425842
 20
17.27610090293853
  0
LWPOLYLINE
  5
43
330
A
100
AcDbEntity
  8
ADP1DETAIL
  6
CONTINUOUS
 62
     7
100
AcDbPolyline
 90
        2
 70
   128
 43
0.0
 10
25.75638125133645
 20
14.33966796919063
 10
25.56576939883457
 20
14.29201500606516
  0
ARC
  5
47
330
A
100
AcDbEntity
  8
ADP1DETAIL
  6
CONTINUOUS
 62
     7
100
AcDbCircle
 10
-25.5633440425842
 20
14.30171643106661
 30
0.0
 40
0.0100000000000016
210
0.0
220
0.0
230
-1.0
100
AcDbArc
 50
255.9637565320768
 51
360.0000000000008
  0
LWPOLYLINE
  5
48
330
A
100
AcDbEntity
  8
ADP1DETAIL
  6
CONTINUOUS
 62
     7
100
AcDbPolyline
 90
        2
 70
   128
 43
0.0
 10
25.8033440425842
 20
15.1155005298055
 10
25.8033440425842
 20
14.39981680419965
  0
ARC
  5
4C
330
A
100
AcDbEntity
  8
ADP1DETAIL
  6
CONTINUOUS
 62
     7
100
AcDbCircle
 10
-25.7413440425842
 20
14.39981680419965
 30
0.0
 40
0.0620000000000009
210
0.0
220
0.0
230
-1.0
100
AcDbArc
 50
180.0
 51
255.9637565320731
  0
ARC
  5
4D
330
A
100
AcDbEntity
  8
ADP1DETAIL
  6
CONTINUOUS
 62
     7
100
AcDbCircle
 10
-25.8653440425842
 20
15.1155005298055
 30
0.0
 40
0.0620000000000009
210
0.0
220
0.0
230
-1.0
100
AcDbArc
 50
0.0
 51
75.96375653207234
  0
LWPOLYLINE
  5
4E
330
A
100
AcDbEntity
  8
ADP1DETAIL
  6
CONTINUOUS
 62
     7
100
AcDbPolyline
 90
        2
 70
   128
 43
0.0
 10
26.3033440425842
 20
15.78890866700257
 10
26.3033440425842
 20
16.22640866700257
  0
LWPOLYLINE
  5
52
330
A
100
AcDbEntity
  8
ADP1DETAIL
  6
CONTINUOUS
 62
     7
100
AcDbPolyline
 90
        2
 70
   128
 43
0.0
 10
26.42824444863083
 20
16.19240620979015
 10
26.4283440425842
 20
15.78890866700257
  0
LWPOLYLINE
  5
56
330
A
100
AcDbEntity
  8
ADP1DETAIL
  6
CONTINUOUS
 62
     7
100
AcDbPolyline
 90
        2
 70
   128
 43
0.0
 10
26.3033440425842
 20
16.28110090293852
 10
26.3033440425842
 20
15.29671643106661
  0
ARC
  5
5A
330
A
100
AcDbEntity
  8
ADP1DETAIL
  6
CONTINUOUS
 62
     7
100
AcDbCircle
 10
-26.2933440425842
 20
15.29671643106661
 30
0.0
 40
0.0100000000000008
210
0.0
220
0.0
230
-1.0
100
AcDbArc
 50
180.0
 51
255.9637565320768
  0
LWPOLYLINE
  5
5B
330
A
100
AcDbEntity
  8
ADP1DETAIL
  6
CONTINUOUS
 62
     7
100
AcDbPolyline
 90
        2
 70
   128
 43
0.0
 10
26.3033440425842
 20
15.35140866700257
 10
26.42824444863083
 20
15.385411124215
  0
LWPOLYLINE
  5
5F
330
A
100
AcDbEntity
  8
ADP1DETAIL
  6
CONTINUOUS
 62
     7
100
AcDbPolyline
 90
        2
 70
   128
 43
0.0
 10
26.3033440425842
 20
15.78890866700257
 10
26.3033440425842
 20
15.35140866700257
  0
LWPOLYLINE
  5
63
330
A
100
AcDbEntity
  8
ADP1DETAIL
  6
CONTINUOUS
 62
     7
100
AcDbPolyline
 90
        2
 70
   128
 43
0.0
 10
26.42824444863083
 20
15.385411124215
 10
26.4283440425842
 20
15.78890866700257
  0
LWPOLYLINE
  5
67
330
A
100
AcDbEntity
  8
ADP1DETAIL
  6
CONTINUOUS
 62
     7
100
AcDbPolyline
 90
        2
 70
   128
 43
0.0
 10
25.85030683383195
 20
16.40216796919063
 10
26.29576939883456
 20
16.29080232793998
  0
ARC
  5
6B
330
A
100
AcDbEntity
  8
ADP1DETAIL
  6
CONTINUOUS
 62
     7
100
AcDbCircle
 10
-25.8653440425842
 20
16.46231680419965
 30
0.0
 40
0.0620000000000012
210
0.0
220
0.0
230
-1.0
100
AcDbArc
 50
284.0362434679288
 51
360.0000000000008
  0
LWPOLYLINE
  5
6C
330
A
100
AcDbEntity
  8
ADP1DETAIL
  6
CONTINUOUS
 62
     7
100
AcDbPolyline
 90
        2
 70
   128
 43
0.0
 10
26.3033440425842
 20
16.22640866700257
 10
26.42824444863083
 20
16.19240620979015
  0
ARC
  5
70
330
A
100
AcDbEntity
  8
ADP1DETAIL
  6
CONTINUOUS
 62
     7
100
AcDbCircle
 10
-26.2933440425842
 20
16.28110090293852
 30
0.0
 40
0.0100000000000016
210
0.0
220
0.0
230
-1.0
100
AcDbArc
 50
104.0362434679264
 51
180.0
  0
LWPOLYLINE
  5
71
330
A
100
AcDbEntity
  8
ADP1DETAIL
  6
CONTINUOUS
 62
     7
100
AcDbPolyline
 90
        2
 70
   128
 43
0.0
 10
25.56576939883457
 20
17.28580232793998
 10
25.75638125133645
 20
17.23814936481451
  0
ARC
  5
75
330
A
100
AcDbEntity
  8
ADP1DETAIL
  6
CONTINUOUS
 62
     7
100
AcDbCircle
 10
-25.5633440425842
 20
17.27610090293853
 30
0.0
 40
0.0099999999999991
210
0.0
220
0.0
230
-1.0
100
AcDbArc
 50
0.0
 51
104.0362434679264
  0
ARC
  5
76
330
A
100
AcDbEntity
  8
ADP1DETAIL
  6
CONTINUOUS
 62
     7
100
AcDbCircle
 10
-25.7413440425842
 20
17.17800052980549
 30
0.0
 40
0.0620000000000012
210
0.0
220
0.0
230
-1.0
100
AcDbArc
 50
104.036243467928
 51
180.0
  0
LWPOLYLINE
  5
77
330
A
100
AcDbEntity
  8
ADP1DETAIL
  6
CONTINUOUS
 62
     7
100
AcDbPolyline
 90
        2
 70
   128
 43
0.0
 10
27.42430627544594
 20
16.03890866700257
 10
28.17179912364725
 20
16.10140866700257
  0
LWPOLYLINE
  5
7B
330
A
100
AcDbEntity
  8
ADP1DETAIL
  6
CONTINUOUS
 62
     7
100
AcDbPolyline
 90
        2
 70
   128
 43
0.0
 10
28.17179912364725
 20
15.47640866700257
 10
27.42430627544594
 20
15.53974148356404
  0
LWPOLYLINE
  5
7F
330
A
100
AcDbEntity
  8
ADP1DETAIL
  6
CONTINUOUS
 62
     7
100
AcDbPolyline
 90
        2
 70
   128
 43
0.0
 10
27.42430627544594
 20
15.53974148356404
 10
27.42430627544594
 20
16.0380758504411
  0
LWPOLYLINE
  5
83
330
A
100
AcDbEntity
  8
ADP1DETAIL
  6
CONTINUOUS
 62
     7
100
AcDbPolyline
 90
        2
 70
   128
 43
0.0
 10
28.9283440425842
 20
15.41340866700257
 10
28.9283440425842
 20
17.00544279037611
  0
LWPOLYLINE
  5
87
330
A
100
AcDbEntity
  8
ADP1DETAIL
  6
CONTINUOUS
 62
     7
100
AcDbPolyline
 90
        2
 70
   128
 43
0.0
 10
28.1783440425842
 20
17.00544279037611
 10
28.1783440425842
 20
15.41340866700257
  0
LWPOLYLINE
  5
8B
330
A
100
AcDbEntity
  8
ADP1DETAIL
  6
CONTINUOUS
 62
     7
100
AcDbPolyline
 90
        2
 70
   128
 43
0.0
 10
28.9283440425842
 20
15.41340866700257
 10
28.1783440425842
 20
15.41340866700257
  0
LWPOLYLINE
  5
8F
330
A
100
AcDbEntity
  8
ADP1DETAIL
  6
CONTINUOUS
 62
     7
100
AcDbPolyline
 90
        2
 70
   128
 43
0.0
 10
28.1783440425842
 20
15.60140866700257
 10
28.1783440425842
 20
15.97640866700257
  0
LWPOLYLINE
  5
93
330
A
100
AcDbEntity
  8
ADP1DETAIL
  6
CONTINUOUS
 62
     7
100
AcDbPolyline
 90
        2
 70
   128
 43
0.0
 10
28.1783440425842
 20
16.10140866700257
 10
28.1783440425842
 20
15.47640866700257
  0
LWPOLYLINE
  5
97
330
A
100
AcDbEntity
  8
ADP1DETAIL
  6
CONTINUOUS
 62
     7
100
AcDbPolyline
 90
        2
 70
   128
 43
0.0
 10
28.1783440425842
 20
16.10140866700257
 10
28.1783440425842
 20
15.47640866700257
  0
LWPOLYLINE
  5
9B
330
A
100
AcDbEntity
  8
ADP1DETAIL
  6
CONTINUOUS
 62
     7
100
AcDbPolyline
 90
        2
 70
   128
 43
0.0
 10
28.1783440425842
 20
15.60140866700257
 10
28.1783440425842
 20
15.97640866700257
  0
ARC
  5
9F
330
A
100
AcDbEntity
  8
ADP2DETAIL
  6
CONTINUOUS
 62
     5
100
AcDbCircle
 10
-29.74980450076196
 20
15.78890866700257
 30
0.0
 40
0.750000000000001
210
0.0
220
0.0
230
-1.0
100
AcDbArc
 50
0.0
 51
21.78022512532524
  0
LWPOLYLINE
  5
A0
330
A
100
AcDbEntity
  8
ADP1DETAIL
  6
CONTINUOUS
 62
     7
100
AcDbPolyline
 90
        2
 70
   128
 43
0.0
 10
29.0533440425842
 20
16.06719418619972
 10
29.0533440425842
 20
15.78890866700257
  0
LWPOLYLINE
  5
A4
330
A
100
AcDbEntity
  8
ADP1DETAIL
  6
CONTINUOUS
 62
     7
100
AcDbPolyline
 90
        2
 70
   128
 43
0.0
 10
29.0533440425842
 20
16.06719418619972
 10
29.0533440425842
 20
15.78890866700257
  0
ARC
  5
A8
330
A
100
AcDbEntity
  8
ADP2DETAIL
  6
CONTINUOUS
 62
     5
100
AcDbCircle
 10
-29.74980450076196
 20
15.78890866700257
 30
0.0
 40
0.750000000000001
210
0.0
220
0.0
230
-1.0
100
AcDbArc
 50
0.0
 51
21.78022512532524
  0
LWPOLYLINE
  5
A9
330
A
100
AcDbEntity
  8
ADP1DETAIL
  6
CONTINUOUS
 62
     7
100
AcDbPolyline
 90
        2
 70
   128
 43
0.0
 10
28.9283440425842
 20
15.97640866700257
 10
28.9283440425842
 20
15.60140866700257
  0
LWPOLYLINE
  5
AD
330
A
100
AcDbEntity
  8
ADP1DETAIL
  6
CONTINUOUS
 62
     7
100
AcDbPolyline
 90
        2
 70
   128
 43
0.0
 10
28.9283440425842
 20
15.97640866700257
 10
28.9283440425842
 20
15.60140866700257
  0
ARC
  5
B1
330
A
100
AcDbEntity
  8
ADP2DETAIL
  6
CONTINUOUS
 62
     5
100
AcDbCircle
 10
-29.74980450076196
 20
15.78890866700257
 30
0.0
 40
0.75
210
0.0
220
0.0
230
-1.0
100
AcDbArc
 50
338.2197748746755
 51
360.0000000000008
  0
LWPOLYLINE
  5
B2
330
A
100
AcDbEntity
  8
ADP1DETAIL
  6
CONTINUOUS
 62
     7
100
AcDbPolyline
 90
        2
 70
   128
 43
0.0
 10
29.04908477087033
 20
15.50876104764039
 10
29.04908477087033
 20
15.50876104764039
  0
LWPOLYLINE
  5
B6
330
A
100
AcDbEntity
  8
ADP1DETAIL
  6
CONTINUOUS
 62
     7
100
AcDbPolyline
 90
        2
 70
   128
 43
0.0
 10
29.04908477087033
 20
15.50876104764039
 10
29.04908477087033
 20
15.50876104764039
  0
LWPOLYLINE
  5
BA
330
A
100
AcDbEntity
  8
ADP1DETAIL
  6
CONTINUOUS
 62
     7
100
AcDbPolyline
 90
        2
 70
   128
 43
0.0
 10
29.0533440425842
 20
15.51062314780542
 10
29.0533440425842
 20
15.78890866700257
  0
ARC
  5
BE
330
A
100
AcDbEntity
  8
ADP2DETAIL
  6
CONTINUOUS
 62
     5
100
AcDbCircle
 10
-29.74980450076196
 20
15.78890866700257
 30
0.0
 40
0.75
210
0.0
220
0.0
230
-1.0
100
AcDbArc
 50
338.2197748746755
 51
360.0000000000008
  0
LWPOLYLINE
  5
BF
330
A
100
AcDbEntity
  8
ADP1DETAIL
  6
CONTINUOUS
 62
     7
100
AcDbPolyline
 90
        2
 70
   128
 43
0.0
 10
29.0533440425842
 20
15.51062314780542
 10
29.0533440425842
 20
15.78890866700257
  0
LWPOLYLINE
  5
C3
330
A
100
AcDbEntity
  8
ADP1DETAIL
  6
CONTINUOUS
 62
     7
100
AcDbPolyline
 90
        2
 70
   128
 43
0.0
 10
28.9283440425842
 20
15.60140866700257
 10
28.9283440425842
 20
15.47640866700257
  0
LWPOLYLINE
  5
C7
330
A
100
AcDbEntity
  8
ADP1DETAIL
  6
CONTINUOUS
 62
     7
100
AcDbPolyline
 90
        2
 70
   128
 43
0.0
 10
28.9283440425842
 20
15.60140866700257
 10
28.9283440425842
 20
15.47640866700257
  0
LWPOLYLINE
  5
CB
330
A
100
AcDbEntity
  8
ADP1DETAIL
  6
CONTINUOUS
 62
     7
100
AcDbPolyline
 90
        2
 70
   128
 43
0.0
 10
28.9283440425842
 20
15.47640866700257
 10
29.04908477087033
 20
15.50876104764039
  0
LWPOLYLINE
  5
CF
330
A
100
AcDbEntity
  8
ADP1DETAIL
  6
CONTINUOUS
 62
     7
100
AcDbPolyline
 90
        2
 70
   128
 43
0.0
 10
28.9283440425842
 20
15.47640866700257
 10
29.04908477087033
 20
15.50876104764039
  0
LWPOLYLINE
  5
D3
330
A
100
AcDbEntity
  8
ADP1DETAIL
  6
CONTINUOUS
 62
     7
100
AcDbPolyline
 90
        2
 70
   128
 43
0.0
 10
29.04908477087033
 20
16.06905628636476
 10
29.04908477087033
 20
16.06905628636476
  0
LWPOLYLINE
  5
D7
330
A
100
AcDbEntity
  8
ADP1DETAIL
  6
CONTINUOUS
 62
     7
100
AcDbPolyline
 90
        2
 70
   128
 43
0.0
 10
29.04908477087033
 20
16.06905628636476
 10
29.04908477087033
 20
16.06905628636476
  0
LWPOLYLINE
  5
DB
330
A
100
AcDbEntity
  8
ADP1DETAIL
  6
CONTINUOUS
 62
     7
100
AcDbPolyline
 90
        2
 70
   128
 43
0.0
 10
28.9283440425842
 20
15.97640866700257
 10
28.9283440425842
 20
16.10140866700257
  0
LWPOLYLINE
  5
DF
330
A
100
AcDbEntity
  8
ADP1DETAIL
  6
CONTINUOUS
 62
     7
100
AcDbPolyline
 90
        2
 70
   128
 43
0.0
 10
28.9283440425842
 20
15.97640866700257
 10
28.9283440425842
 20
16.10140866700257
  0
LWPOLYLINE
  5
E3
330
A
100
AcDbEntity
  8
ADP1DETAIL
  6
CONTINUOUS
 62
     7
100
AcDbPolyline
 90
        2
 70
   128
 43
0.0
 10
28.9283440425842
 20
16.10140866700257
 10
29.04908477087033
 20
16.06905628636476
  0
LWPOLYLINE
  5
E7
330
A
100
AcDbEntity
  8
ADP1DETAIL
  6
CONTINUOUS
 62
     7
100
AcDbPolyline
 90
        2
 70
   128
 43
0.0
 10
28.9283440425842
 20
16.10140866700257
 10
29.04908477087033
 20
16.06905628636476
  0
ARC
  5
EB
330
A
100
AcDbEntity
  8
ADP1DETAIL
  6
CONTINUOUS
 62
     7
100
AcDbCircle
 10
-28.5533440425842
 20
17.72340866700257
 30
0.0
 40
0.8099999999999988
210
0.0
220
0.0
230
-1.0
100
AcDbArc
 50
242.4215320218777
 51
297.5784679781239
  0
LWPOLYLINE
  5
EC
330
A
100
AcDbEntity
  8
ADP1DETAIL
  6
CONTINUOUS
 62
     7
100
AcDbPolyline
 90
        2
 70
   128
 43
0.0
 10
28.1783440425842
 20
16.72640866700257
 10
28.9283440425842
 20
16.72640866700257
  0
LWPOLYLINE
  5
F0
330
A
100
AcDbEntity
  8
ADP2DETAIL
  6
CONTINUOUS
 62
     5
100
AcDbPolyline
 90
        2
 70
   128
 43
0.0
 10
28.4593440425842
 20
16.91340866700257
 10
28.4593440425842
 20
16.78840866700257
  0
LWPOLYLINE
  5
F4
330
A
100
AcDbEntity
  8
ADP2DETAIL
  6
CONTINUOUS
 62
     5
100
AcDbPolyline
 90
        2
 70
   128
 43
0.0
 10
28.4593440425842
 20
16.78840866700257
 10
28.3973440425842
 20
16.72640866700257
  0
LWPOLYLINE
  5
F8
330
A
100
AcDbEntity
  8
ADP2DETAIL
  6
CONTINUOUS
 62
     5
100
AcDbPolyline
 90
        2
 70
   128
 43
0.0
 10
28.6473440425842
 20
16.91340866700257
 10
28.6473440425842
 20
16.78840866700257
  0
LWPOLYLINE
  5
FC
330
A
100
AcDbEntity
  8
ADP2DETAIL
  6
CONTINUOUS
 62
     5
100
AcDbPolyline
 90
        2
 70
   128
 43
0.0
 10
28.6473440425842
 20
16.78840866700257
 10
28.7093440425842
 20
16.72640866700257
  0
LWPOLYLINE
  5
100
330
A
100
AcDbEntity
  8
ADP1DETAIL
  6
CONTINUOUS
 62
     7
100
AcDbPolyline
 90
        2
 70
   128
 43
0.0
 10
31.32148896831635
 20
16.94275438923824
 10
32.07148896831636
 20
16.94275438923824
  0
ARC
  5
104
330
A
100
AcDbEntity
  8
ADP1DETAIL
  6
CONTINUOUS
 62
     7
100
AcDbCircle
 10
-32.57198896831634
 20
15.75804161051109
 30
0.0
 40
1.499999999999999
210
0.0
220
0.0
230
-1.0
100
AcDbArc
 50
52.16762091227264
 51
127.8025664359293
  0
ARC
  5
105
330
A
100
AcDbEntity
  8
ADP1DETAIL
  6
CONTINUOUS
 62
     7
100
AcDbCircle
 10
-32.57198896831634
 20
15.75804161051109
 30
0.0
 40
1.415949078414777
210
0.0
220
0.0
230
-1.0
100
AcDbArc
 50
56.79239802097721
 51
123.156678704079
  0
ARC
  5
106
330
A
100
AcDbEntity
  8
ADP1DETAIL
  6
CONTINUOUS
 62
     7
100
AcDbCircle
 10
-32.57198896831634
 20
15.75804161051109
 30
0.0
 40
0.6250000000000002
210
0.0
220
0.0
230
-1.0
100
AcDbArc
 50
126.8126233266154
 51
53.07278506303035
  0
LWPOLYLINE
  5
107
330
A
100
AcDbEntity
  8
ADP1DETAIL
  6
CONTINUOUS
 62
     7
100
AcDbPolyline
 90
        2
 70
   128
 43
0.0
 10
32.07148896831636
 20
16.63570898761013
 10
31.32148896831635
 20
16.63570898761013
  0
LWPOLYLINE
  5
10B
330
A
100
AcDbEntity
  8
ADP2DETAIL
  6
CONTINUOUS
 62
     5
100
AcDbPolyline
 90
        2
 70
   128
 43
0.0
 10
31.32148896831635
 20
16.82370898761012
 10
32.32260461189543
 20
16.82370898761012
  0
ARC
  5
10F
330
A
100
AcDbEntity
  8
ADP1DETAIL
  6
CONTINUOUS
 62
     7
100
AcDbCircle
 10
-32.57198896831634
 20
15.75804161051109
 30
0.0
 40
1.499999999999999
210
0.0
220
0.0
230
-1.0
100
AcDbArc
 50
144.1891266479681
 51
35.81087335203186
  0
ARC
  5
110
330
A
100
AcDbEntity
  8
ADP1DETAIL
  6
CONTINUOUS
 62
     7
100
AcDbCircle
 10
-32.57198896831634
 20
15.75804161051109
 30
0.0
 40
1.415949078414777
210
0.0
220
0.0
230
-1.0
100
AcDbArc
 50
141.6952650067844
 51
38.30473499321562
  0
LWPOLYLINE
  5
111
330
A
100
AcDbEntity
  8
ADP1DETAIL
  6
CONTINUOUS
 62
     7
100
AcDbPolyline
 90
        2
 70
   128
 43
0.0
 10
31.32148896831635
 20
16.63570898761013
 10
31.32148896831635
 20
16.94275438923824
  0
LWPOLYLINE
  5
115
330
A
100
AcDbEntity
  8
ADP2DETAIL
  6
CONTINUOUS
 62
     5
100
AcDbPolyline
 90
        2
 70
   128
 43
0.0
 10
31.60259034748968
 20
16.70223446511892
 10
31.54059034748967
 20
16.64023446511892
  0
LWPOLYLINE
  5
119
330
A
100
AcDbEntity
  8
ADP2DETAIL
  6
CONTINUOUS
 62
     5
100
AcDbPolyline
 90
        2
 70
   128
 43
0.0
 10
31.60259034748968
 20
16.82723446511892
 10
31.60259034748968
 20
16.70223446511892
  0
LWPOLYLINE
  5
11D
330
A
100
AcDbEntity
  8
ADP2DETAIL
  6
CONTINUOUS
 62
     5
100
AcDbPolyline
 90
        2
 70
   128
 43
0.0
 10
31.79059034748967
 20
16.70223446511892
 10
31.85259034748968
 20
16.64023446511892
  0
LWPOLYLINE
  5
121
330
A
100
AcDbEntity
  8
ADP2DETAIL
  6
CONTINUOUS
 62
     5
100
AcDbPolyline
 90
        2
 70
   128
 43
0.0
 10
31.79059034748967
 20
16.82723446511892
 10
31.79059034748967
 20
16.70223446511892
  0
LWPOLYLINE
  5
125
330
A
100
AcDbEntity
  8
ADP1DETAIL
  6
CONTINUOUS
 62
     7
100
AcDbPolyline
 90
        2
 70
   128
 43
0.0
 10
33.82148896831635
 20
16.94275438923824
 10
33.07194202919484
 20
16.94384107964337
  0
LWPOLYLINE
  5
129
330
A
100
AcDbEntity
  8
ADP1DETAIL
  6
CONTINUOUS
 62
     7
100
AcDbPolyline
 90
        2
 70
   128
 43
0.0
 10
33.82148896831635
 20
16.63570898761013
 10
33.07148896831636
 20
16.63570898761013
  0
LWPOLYLINE
  5
12D
330
A
100
AcDbEntity
  8
ADP2DETAIL
  6
CONTINUOUS
 62
     5
100
AcDbPolyline
 90
        2
 70
   128
 43
0.0
 10
33.82148896831635
 20
16.82370898761012
 10
32.84667112882009
 20
16.82479567801525
  0
ARC
  5
131
330
A
100
AcDbEntity
  8
ADP1DETAIL
  6
CONTINUOUS
 62
     7
100
AcDbCircle
 10
-33.07148896831636
 20
16.51070898761012
 30
0.0
 40
0.125
210
0.0
220
0.0
230
-1.0
100
AcDbArc
 50
0.0
 51
90.0
  0
ARC
  5
132
330
A
100
AcDbEntity
  8
ADP1DETAIL
  6
CONTINUOUS
 62
     7
100
AcDbCircle
 10
-32.07148896831636
 20
16.51070898761012
 30
0.0
 40
0.125
210
0.0
220
0.0
230
-1.0
100
AcDbArc
 50
90.0
 51
180.0
  0
LWPOLYLINE
  5
133
330
A
100
AcDbEntity
  8
ADP1DETAIL
  6
CONTINUOUS
 62
     7
100
AcDbPolyline
 90
        2
 70
   128
 43
0.0
 10
32.7578437011621
 20
16.00766582808623
 10
32.7578437011621
 20
16.96221332686978
  0
LWPOLYLINE
  5
137
330
A
100
AcDbEntity
  8
ADP1DETAIL
  6
CONTINUOUS
 62
     7
100
AcDbPolyline
 90
        2
 70
   128
 43
0.0
 10
32.38398896831636
 20
16.00766582808623
 10
32.38398896831636
 20
16.96221332686978
  0
CIRCLE
  5
13B
330
A
100
AcDbEntity
  8
ADP1DETAIL
  6
CONTINUOUS
 62
     7
100
AcDbCircle
 10
-32.57198896831634
 20
15.75804161051109
 30
0.0
 40
0.3125
210
0.0
220
0.0
230
-1.0
  0
CIRCLE
  5
13C
330
A
100
AcDbEntity
  8
ADP1DETAIL
  6
CONTINUOUS
 62
     7
100
AcDbCircle
 10
-32.57198896831634
 20
15.75804161051109
 30
0.0
 40
0.2859512779740925
210
0.0
220
0.0
230
-1.0
  0
ARC
  5
13D
330
A
100
AcDbEntity
  8
ADP1DETAIL
  6
CONTINUOUS
 62
     7
100
AcDbCircle
 10
-32.57198896831634
 20
15.75804161051109
 30
0.0
 40
0.5000000000000026
210
0.0
220
0.0
230
-1.0
100
AcDbArc
 50
138.5038289027595
 51
41.32292462379896
  0
ARC
  5
13E
330
A
100
AcDbEntity
  8
ADP1DETAIL
  6
CONTINUOUS
 62
     7
100
AcDbCircle
 10
-32.57198896831634
 20
15.76120898761012
 30
0.0
 40
0.3744999999999994
210
0.0
220
0.0
230
-1.0
100
AcDbArc
 50
180.0
 51
270.0000000000008
  0
LWPOLYLINE
  5
13F
330
A
100
AcDbEntity
  8
ADP1DETAIL
  6
CONTINUOUS
 62
     7
100
AcDbPolyline
 90
        2
 70
   128
 43
0.0
 10
32.19648896831635
 20
15.76120898761012
 10
32.19648896831635
 20
16.51070898761012
  0
ARC
  5
143
330
A
100
AcDbEntity
  8
ADP1DETAIL
  6
CONTINUOUS
 62
     7
100
AcDbCircle
 10
-32.57098896831635
 20
15.76120898761012
 30
0.0
 40
0.3744999999999976
210
0.0
220
0.0
230
-1.0
100
AcDbArc
 50
270.0000000000008
 51
360.0000000000008
  0
LWPOLYLINE
  5
144
330
A
100
AcDbEntity
  8
ADP1DETAIL
  6
CONTINUOUS
 62
     7
100
AcDbPolyline
 90
        2
 70
   128
 43
0.0
 10
32.57198896831634
 20
15.38670898761012
 10
32.57098896831635
 20
15.38670898761012
  0
LWPOLYLINE
  5
148
330
A
100
AcDbEntity
  8
ADP1DETAIL
  6
CONTINUOUS
 62
     7
100
AcDbPolyline
 90
        2
 70
   128
 43
0.0
 10
32.94648896831636
 20
16.51070898761012
 10
32.94648896831636
 20
15.76120898761012
  0
ARC
  5
14C
330
A
100
AcDbEntity
  8
ADP1DETAIL
  6
CONTINUOUS
 62
     7
100
AcDbCircle
 10
-33.07148896831636
 20
16.6313414080662
 30
0.0
 40
0.3124999999999995
210
0.0
220
0.0
230
-1.0
100
AcDbArc
 50
0.0
 51
90.08306715294011
  0
LWPOLYLINE
  5
14D
330
A
100
AcDbEntity
  8
ADP1DETAIL
  6
CONTINUOUS
 62
     7
100
AcDbPolyline
 90
        2
 70
   128
 43
0.0
 10
32.39110116926171
 20
16.96173626010205
 10
32.7578437011621
 20
16.96173626010205
  0
LWPOLYLINE
  5
151
330
A
100
AcDbEntity
  8
ADP2DETAIL
  6
CONTINUOUS
 62
     5
100
AcDbPolyline
 90
        2
 70
   128
 43
0.0
 10
32.3828437011621
 20
16.84269085847394
 10
32.7578437011621
 20
16.84269085847394
  0
ARC
  5
155
330
A
100
AcDbEntity
  8
ADP1DETAIL
  6
CONTINUOUS
 62
     7
100
AcDbCircle
 10
-32.07148896831636
 20
16.63025438923824
 30
0.0
 40
0.3125
210
0.0
220
0.0
230
-1.0
100
AcDbArc
 50
90.0
 51
180.0
  0
LWPOLYLINE
  5
156
330
A
100
AcDbEntity
  8
ADP2DETAIL
  6
CONTINUOUS
 62
     5
100
AcDbPolyline
 90
        2
 70
   128
 43
0.0
 10
33.41513090120419
 20
16.822873056893
 10
33.41513090120419
 20
16.697873056893
  0
LWPOLYLINE
  5
15A
330
A
100
AcDbEntity
  8
ADP2DETAIL
  6
CONTINUOUS
 62
     5
100
AcDbPolyline
 90
        2
 70
   128
 43
0.0
 10
33.41513090120419
 20
16.697873056893
 10
33.35313090120419
 20
16.635873056893
  0
LWPOLYLINE
  5
15E
330
A
100
AcDbEntity
  8
ADP2DETAIL
  6
CONTINUOUS
 62
     5
100
AcDbPolyline
 90
        2
 70
   128
 43
0.0
 10
33.60313090120419
 20
16.822873056893
 10
33.60313090120419
 20
16.697873056893
  0
LWPOLYLINE
  5
162
330
A
100
AcDbEntity
  8
ADP2DETAIL
  6
CONTINUOUS
 62
     5
100
AcDbPolyline
 90
        2
 70
   128
 43
0.0
 10
33.60313090120419
 20
16.697873056893
 10
33.66513090120419
 20
16.635873056893
  0
LWPOLYLINE
  5
166
330
A
100
AcDbEntity
  8
ADP1DETAIL
  6
CONTINUOUS
 62
     7
100
AcDbPolyline
 90
        2
 70
   128
 43
0.0
 10
33.82587889994678
 20
16.63755373626435
 10
33.82587889994678
 20
16.94459913789246
  0
LWPOLYLINE
  5
16A
330
A
100
AcDbEntity
  8
ADPDIM
  6
CONTINUOUS
 62
     3
 48
0.125
100
AcDbPolyline
 90
        2
 70
   128
 43
0.0
 10
28.1783440425842
 20
17.06794279037612
 10
28.1783440425842
 20
17.32654051234763
  0
LWPOLYLINE
  5
16E
330
A
100
AcDbEntity
  8
ADPDIM
  6
CONTINUOUS
 62
     3
 48
0.125
100
AcDbPolyline
 90
        2
 70
   128
 43
0.0
 10
28.9283440425842
 20
17.06794279037612
 10
28.9283440425842
 20
17.32654051234763
  0
LWPOLYLINE
  5
172
330
A
100
AcDbEntity
  8
ADPDIM
  6
CONTINUOUS
 62
     3
 48
0.125
100
AcDbPolyline
 90
        2
 70
   128
 43
0.0
 10
28.1783440425842
 20
17.14654051234763
 10
27.9283440425842
 20
17.14654051234763
  0
LWPOLYLINE
  5
176
330
A
100
AcDbEntity
  8
ADPDIM
  6
CONTINUOUS
 62
     3
 48
0.125
100
AcDbPolyline
 90
        2
 70
   128
 43
0.0
 10
28.9283440425842
 20
17.14654051234763
 10
29.1783440425842
 20
17.14654051234763
  0
LWPOLYLINE
  5
17A
330
A
100
AcDbEntity
  8
ADPDIM
  6
CONTINUOUS
 62
     3
 48
0.125
100
AcDbPolyline
 90
        2
 70
   128
 43
0.0
 10
28.0533440425842
 20
17.02154051234763
 10
28.3033440425842
 20
17.27154051234763
  0
LWPOLYLINE
  5
17E
330
A
100
AcDbEntity
  8
ADPDIM
  6
CONTINUOUS
 62
     3
 48
0.125
100
AcDbPolyline
 90
        2
 70
   128
 43
0.0
 10
28.8033440425842
 20
17.02154051234763
 10
29.0533440425842
 20
17.27154051234763
  0
TEXT
  5
182
330
A
100
AcDbEntity
  8
ADPDIM
 62
     3
 48
0.0
100
AcDbText
 10
29.3033440425842
 20
17.08404051234763
 30
0.0
 40
0.125
  1
3/4
 72
     5
 11
29.63667737591753
 21
17.08404051234763
 31
0.0
100
AcDbText
  0
LWPOLYLINE
  5
183
330
A
100
AcDbEntity
  8
ADPDIM
  6
CONTINUOUS
 62
     3
 48
0.125
100
AcDbPolyline
 90
        2
 70
   128
 43
0.0
 10
28.5653440425842
 20
17.06794279037612
 10
28.5653440425842
 20
17.60637057097813
  0
LWPOLYLINE
  5
187
330
A
100
AcDbEntity
  8
ADPDIM
  6
CONTINUOUS
 62
     3
 48
0.125
100
AcDbPolyline
 90
        2
 70
   128
 43
0.0
 10
25.56576939883457
 20
17.34830232793998
 10
25.56576939883457
 20
17.60637057097813
  0
LWPOLYLINE
  5
18B
330
A
100
AcDbEntity
  8
ADPDIM
  6
CONTINUOUS
 62
     3
 48
0.125
100
AcDbPolyline
 90
        2
 70
   128
 43
0.0
 10
28.5653440425842
 20
17.42637057097813
 10
27.23222338737605
 20
17.42637057097813
  0
LWPOLYLINE
  5
18F
330
A
100
AcDbEntity
  8
ADPDIM
  6
CONTINUOUS
 62
     3
 48
0.125
100
AcDbPolyline
 90
        2
 70
   128
 43
0.0
 10
25.56576939883457
 20
17.42637057097813
 10
26.89889005404272
 20
17.42637057097813
  0
LWPOLYLINE
  5
193
330
A
100
AcDbEntity
  8
ADPDIM
  6
CONTINUOUS
 62
     3
 48
0.125
100
AcDbPolyline
 90
        2
 70
   128
 43
0.0
 10
28.4403440425842
 20
17.30137057097813
 10
28.6903440425842
 20
17.55137057097813
  0
LWPOLYLINE
  5
197
330
A
100
AcDbEntity
  8
ADPDIM
  6
CONTINUOUS
 62
     3
 48
0.125
100
AcDbPolyline
 90
        2
 70
   128
 43
0.0
 10
25.44076939883456
 20
17.30137057097813
 10
25.69076939883457
 20
17.55137057097813
  0
TEXT
  5
19B
330
A
100
AcDbEntity
  8
ADPDIM
 62
     3
 48
0.0
100
AcDbText
 10
27.02389005404272
 20
17.36387057097813
 30
0.0
 40
0.125
  1
3
 72
     5
 11
27.10722338737605
 21
17.36387057097813
 31
0.0
100
AcDbText
  0
LWPOLYLINE
  5
19C
330
A
100
AcDbEntity
  8
ADPDIM
  6
CONTINUOUS
 62
     3
 48
0.125
100
AcDbPolyline
 90
        2
 70
   128
 43
0.0
 10
31.36013423547062
 20
17.02325795720503
 10
31.36013423547062
 20
17.96847831286261
  0
LWPOLYLINE
  5
1A0
330
A
100
AcDbEntity
  8
ADPDIM
  6
CONTINUOUS
 62
     3
 48
0.125
100
AcDbPolyline
 90
        2
 70
   128
 43
0.0
 10
33.86013423547062
 20
16.96671255557692
 10
33.86013423547062
 20
17.96847831286261
  0
LWPOLYLINE
  5
1A4
330
A
100
AcDbEntity
  8
ADPDIM
  6
CONTINUOUS
 62
     3
 48
0.125
100
AcDbPolyline
 90
        2
 70
   128
 43
0.0
 10
31.36013423547062
 20
17.78847831286261
 10
32.21430090213728
 20
17.78847831286261
  0
LWPOLYLINE
  5
1A8
330
A
100
AcDbEntity
  8
ADPDIM
  6
CONTINUOUS
 62
     3
 48
0.125
100
AcDbPolyline
 90
        2
 70
   128
 43
0.0
 10
33.86013423547062
 20
17.78847831286261
 10
33.00596756880395
 20
17.78847831286261
  0
LWPOLYLINE
  5
1AC
330
A
100
AcDbEntity
  8
ADPDIM
  6
CONTINUOUS
 62
     3
 48
0.125
100
AcDbPolyline
 90
        2
 70
   128
 43
0.0
 10
31.23513423547061
 20
17.66347831286261
 10
31.48513423547061
 20
17.91347831286262
  0
LWPOLYLINE
  5
1B0
330
A
100
AcDbEntity
  8
ADPDIM
  6
CONTINUOUS
 62
     3
 48
0.125
100
AcDbPolyline
 90
        2
 70
   128
 43
0.0
 10
33.73513423547061
 20
17.66347831286261
 10
33.98513423547061
 20
17.91347831286262
  0
TEXT
  5
1B4
330
A
100
AcDbEntity
  8
ADPDIM
 62
     3
 48
0.0
100
AcDbText
 10
32.33930090213728
 20
17.72597831286262
 30
0.0
 40
0.125
  1
2 1/2
 72
     5
 11
32.88096756880395
 21
17.72597831286262
 31
0.0
100
AcDbText
  0
LWPOLYLINE
  5
1B5
330
A
100
AcDbEntity
  8
ADPDIM
  6
CONTINUOUS
 62
     3
 48
0.125
100
AcDbPolyline
 90
        2
 70
   128
 43
0.0
 10
31.3403318391745
 20
14.90187532045171
 10
31.01485999336839
 20
14.67562889508758
  0
LWPOLYLINE
  5
1B9
330
A
100
AcDbEntity
  8
ADPDIM
  6
CONTINUOUS
 62
     3
 48
0.125
100
AcDbPolyline
 90
        2
 70
   128
 43
0.0
 10
31.30904093591763
 20
14.72789003551827
 10
31.37162274243137
 20
15.07586060538515
  0
LWPOLYLINE
  5
1BD
330
A
100
AcDbEntity
  8
ADPDIM
  6
CONTINUOUS
 62
     3
 48
0.125
100
AcDbPolyline
 90
        2
 70
   128
 43
0.0
 10
32.38448896831634
 20
15.75804161051109
 10
32.75948896831634
 20
15.75804161051109
  0
LWPOLYLINE
  5
1C1
330
A
100
AcDbEntity
  8
ADPDIM
  6
CONTINUOUS
 62
     3
 48
0.125
100
AcDbPolyline
 90
        2
 70
   128
 43
0.0
 10
32.57198896831634
 20
15.5705416105111
 10
32.57198896831634
 20
15.94554161051109
  0
TEXT
  5
1C5
330
A
100
AcDbEntity
  8
ADPDIM
 62
     3
 48
0.0
100
AcDbText
 10
30.77683200453379
 20
14.43405067247125
 30
0.0
 40
0.1249999999999991
  1
%%c3
 50
34.80446286883222
 72
     5
 11
30.94789549469238
 21
14.55296265720171
 31
0.0
100
AcDbText
  0
LWPOLYLINE
  5
1C6
330
A
100
AcDbEntity
  8
ADPDIM
  6
CONTINUOUS
 62
     3
 48
0.125
100
AcDbPolyline
 90
        2
 70
   128
 43
0.0
 10
31.25898896831635
 20
16.82370898761012
 10
30.35725806396397
 20
16.82370898761012
  0
LWPOLYLINE
  5
1CA
330
A
100
AcDbEntity
  8
ADPDIM
  6
CONTINUOUS
 62
     3
 48
0.125
100
AcDbPolyline
 90
        2
 70
   128
 43
0.0
 10
32.41948896831634
 20
15.75804161051109
 10
30.35725806396397
 20
15.75804161051109
  0
LWPOLYLINE
  5
1CE
330
A
100
AcDbEntity
  8
ADPDIM
  6
CONTINUOUS
 62
     3
 48
0.125
100
AcDbPolyline
 90
        2
 70
   128
 43
0.0
 10
30.53725806396397
 20
16.82370898761012
 10
30.53725806396397
 20
17.07370898761013
  0
LWPOLYLINE
  5
1D2
330
A
100
AcDbEntity
  8
ADPDIM
  6
CONTINUOUS
 62
     3
 48
0.125
100
AcDbPolyline
 90
        2
 70
   128
 43
0.0
 10
30.53725806396397
 20
15.75804161051109
 10
30.53725806396397
 20
15.5080416105111
  0
LWPOLYLINE
  5
1D6
330
A
100
AcDbEntity
  8
ADPDIM
  6
CONTINUOUS
 62
     3
 48
0.125
100
AcDbPolyline
 90
        2
 70
   128
 43
0.0
 10
30.66225806396397
 20
16.69870898761012
 10
30.41225806396397
 20
16.94870898761013
  0
LWPOLYLINE
  5
1DA
330
A
100
AcDbEntity
  8
ADPDIM
  6
CONTINUOUS
 62
     3
 48
0.125
100
AcDbPolyline
 90
        2
 70
   128
 43
0.0
 10
30.66225806396397
 20
15.63304161051109
 10
30.41225806396397
 20
15.8830416105111
  0
TEXT
  5
1DE
330
A
100
AcDbEntity
  8
ADPDIM
 62
     3
 48
0.0
100
AcDbText
 10
30.59975806396397
 20
14.79970827717776
 30
0.0
 40
0.125
  1
1 1/16
 50
90.0
 72
     5
 11
30.59975806396397
 21
15.3830416105111
 31
0.0
100
AcDbText
  0
LWPOLYLINE
  5
1DF
330
A
100
AcDbEntity
  8
ADPDIM
  6
CONTINUOUS
 62
     3
 48
0.125
100
AcDbPolyline
 90
        2
 70
   128
 43
0.0
 10
31.69765806680556
 20
16.79470067613801
 10
31.69763038186218
 20
17.63192505678046
  0
LWPOLYLINE
  5
1E3
330
A
100
AcDbEntity
  8
ADPDIM
  6
CONTINUOUS
 62
     3
 48
0.125
100
AcDbPolyline
 90
        2
 70
   128
 43
0.0
 10
33.50618867782001
 20
16.78016264871828
 10
33.50580952735078
 20
17.602849001941
  0
LWPOLYLINE
  5
1E7
330
A
100
AcDbEntity
  8
ADPDIM
  6
CONTINUOUS
 62
     3
 48
0.125
100
AcDbPolyline
 90
        2
 70
   128
 43
0.0
 10
31.69763038186218
 20
17.45192505678046
 10
32.11429704852885
 20
17.45192505678046
  0
LWPOLYLINE
  5
1EB
330
A
100
AcDbEntity
  8
ADPDIM
  6
CONTINUOUS
 62
     3
 48
0.125
100
AcDbPolyline
 90
        2
 70
   128
 43
0.0
 10
33.50580952735078
 20
17.42284900194101
 10
33.08914286068412
 20
17.42284900194101
  0
LWPOLYLINE
  5
1EF
330
A
100
AcDbEntity
  8
ADPDIM
  6
CONTINUOUS
 62
     3
 48
0.125
100
AcDbPolyline
 90
        2
 70
   128
 43
0.0
 10
31.57263038186219
 20
17.32692505678046
 10
31.82263038186218
 20
17.57692505678046
  0
LWPOLYLINE
  5
1F3
330
A
100
AcDbEntity
  8
ADPDIM
  6
CONTINUOUS
 62
     3
 48
0.125
100
AcDbPolyline
 90
        2
 70
   128
 43
0.0
 10
33.38080952735078
 20
17.29784900194101
 10
33.63080952735078
 20
17.54784900194101
  0
TEXT
  5
1F7
330
A
100
AcDbEntity
  8
ADPDIM
 62
     3
 48
0.0
100
AcDbText
 10
32.18977324194436
 20
17.38950009981237
 30
0.0
 40
0.125
  1
1 13/16
 72
     5
 11
32.9481065752777
 21
17.38950009981237
 31
0.0
100
AcDbText
  0
LWPOLYLINE
  5
1F8
330
A
100
AcDbEntity
  8
DEFPOINTS
  6
CONTINUOUS
 62
     3
 48
0.125
100
AcDbPolyline
 90
        2
 70
   128
 43
0.0
 10
28.1783440425842
 20
17.00544279037611
 10
28.1783440425842
 20
17.00544279037611
  0
LWPOLYLINE
  5
1FC
330
A
100
AcDbEntity
  8
DEFPOINTS
  6
CONTINUOUS
 62
     3
 48
0.125
100
AcDbPolyline
 90
        2
 70
   128
 43
0.0
 10
28.1783440425842
 20
17.00544279037611
 10
28.1783440425842
 20
17.00544279037611
  0
LWPOLYLINE
  5
200
330
A
100
AcDbEntity
  8
DEFPOINTS
  6
CONTINUOUS
 62
     3
 48
0.125
100
AcDbPolyline
 90
        2
 70
   128
 43
0.0
 10
28.92834404258419
 20
17.00544279037611
 10
28.92834404258419
 20
17.00544279037611
  0
LWPOLYLINE
  5
204
330
A
100
AcDbEntity
  8
DEFPOINTS
  6
CONTINUOUS
 62
     3
 48
0.125
100
AcDbPolyline
 90
        2
 70
   128
 43
0.0
 10
28.92834404258419
 20
17.00544279037611
 10
28.92834404258419
 20
17.00544279037611
  0
LWPOLYLINE
  5
208
330
A
100
AcDbEntity
  8
DEFPOINTS
  6
CONTINUOUS
 62
     3
 48
0.125
100
AcDbPolyline
 90
        2
 70
   128
 43
0.0
 10
28.92834404258419
 20
17.14654051234763
 10
28.92834404258419
 20
17.14654051234763
  0
LWPOLYLINE
  5
20C
330
A
100
AcDbEntity
  8
DEFPOINTS
  6
CONTINUOUS
 62
     3
 48
0.125
100
AcDbPolyline
 90
        2
 70
   128
 43
0.0
 10
28.92834404258419
 20
17.14654051234763
 10
28.92834404258419
 20
17.14654051234763
  0
LWPOLYLINE
  5
210
330
A
100
AcDbEntity
  8
DEFPOINTS
  6
CONTINUOUS
 62
     3
 48
0.125
100
AcDbPolyline
 90
        2
 70
   128
 43
0.0
 10
28.5653440425842
 20
17.00544279037611
 10
28.5653440425842
 20
17.00544279037611
  0
LWPOLYLINE
  5
214
330
A
100
AcDbEntity
  8
DEFPOINTS
  6
CONTINUOUS
 62
     3
 48
0.125
100
AcDbPolyline
 90
        2
 70
   128
 43
0.0
 10
28.5653440425842
 20
17.00544279037611
 10
28.5653440425842
 20
17.00544279037611
  0
LWPOLYLINE
  5
218
330
A
100
AcDbEntity
  8
DEFPOINTS
  6
CONTINUOUS
 62
     3
 48
0.125
100
AcDbPolyline
 90
        2
 70
   128
 43
0.0
 10
25.56576939883456
 20
17.28580232793998
 10
25.56576939883456
 20
17.28580232793998
  0
LWPOLYLINE
  5
21C
330
A
100
AcDbEntity
  8
DEFPOINTS
  6
CONTINUOUS
 62
     3
 48
0.125
100
AcDbPolyline
 90
        2
 70
   128
 43
0.0
 10
25.56576939883456
 20
17.28580232793998
 10
25.56576939883456
 20
17.28580232793998
  0
LWPOLYLINE
  5
220
330
A
100
AcDbEntity
  8
DEFPOINTS
  6
CONTINUOUS
 62
     3
 48
0.125
100
AcDbPolyline
 90
        2
 70
   128
 43
0.0
 10
25.56576939883456
 20
17.42637057097813
 10
25.56576939883456
 20
17.42637057097813
  0
LWPOLYLINE
  5
224
330
A
100
AcDbEntity
  8
DEFPOINTS
  6
CONTINUOUS
 62
     3
 48
0.125
100
AcDbPolyline
 90
        2
 70
   128
 43
0.0
 10
25.56576939883456
 20
17.42637057097813
 10
25.56576939883456
 20
17.42637057097813
  0
LWPOLYLINE
  5
228
330
A
100
AcDbEntity
  8
DEFPOINTS
  6
CONTINUOUS
 62
     3
 48
0.125
100
AcDbPolyline
 90
        2
 70
   128
 43
0.0
 10
31.36013423547061
 20
16.96075795720504
 10
31.36013423547061
 20
16.96075795720504
  0
LWPOLYLINE
  5
22C
330
A
100
AcDbEntity
  8
DEFPOINTS
  6
CONTINUOUS
 62
     3
 48
0.125
100
AcDbPolyline
 90
        2
 70
   128
 43
0.0
 10
31.36013423547061
 20
16.96075795720504
 10
31.36013423547061
 20
16.96075795720504
  0
LWPOLYLINE
  5
230
330
A
100
AcDbEntity
  8
DEFPOINTS
  6
CONTINUOUS
 62
     3
 48
0.125
100
AcDbPolyline
 90
        2
 70
   128
 43
0.0
 10
33.86013423547062
 20
16.90421255557692
 10
33.86013423547062
 20
16.90421255557692
  0
LWPOLYLINE
  5
234
330
A
100
AcDbEntity
  8
DEFPOINTS
  6
CONTINUOUS
 62
     3
 48
0.125
100
AcDbPolyline
 90
        2
 70
   128
 43
0.0
 10
33.86013423547062
 20
16.90421255557692
 10
33.86013423547062
 20
16.90421255557692
  0
LWPOLYLINE
  5
238
330
A
100
AcDbEntity
  8
DEFPOINTS
  6
CONTINUOUS
 62
     3
 48
0.125
100
AcDbPolyline
 90
        2
 70
   128
 43
0.0
 10
33.86013423547062
 20
17.78847831286261
 10
33.86013423547062
 20
17.78847831286261
  0
LWPOLYLINE
  5
23C
330
A
100
AcDbEntity
  8
DEFPOINTS
  6
CONTINUOUS
 62
     3
 48
0.125
100
AcDbPolyline
 90
        2
 70
   128
 43
0.0
 10
33.86013423547062
 20
17.78847831286261
 10
33.86013423547062
 20
17.78847831286261
  0
LWPOLYLINE
  5
240
330
A
100
AcDbEntity
  8
DEFPOINTS
  6
CONTINUOUS
 62
     3
 48
0.125
100
AcDbPolyline
 90
        2
 70
   128
 43
0.0
 10
31.3403318391745
 20
14.90187532045171
 10
31.3403318391745
 20
14.90187532045171
  0
LWPOLYLINE
  5
244
330
A
100
AcDbEntity
  8
DEFPOINTS
  6
CONTINUOUS
 62
     3
 48
0.125
100
AcDbPolyline
 90
        2
 70
   128
 43
0.0
 10
31.3403318391745
 20
14.90187532045171
 10
31.3403318391745
 20
14.90187532045171
  0
LWPOLYLINE
  5
248
330
A
100
AcDbEntity
  8
DEFPOINTS
  6
CONTINUOUS
 62
     3
 48
0.125
100
AcDbPolyline
 90
        2
 70
   128
 43
0.0
 10
33.8036460974582
 20
16.61420790057048
 10
33.8036460974582
 20
16.61420790057048
  0
LWPOLYLINE
  5
24C
330
A
100
AcDbEntity
  8
DEFPOINTS
  6
CONTINUOUS
 62
     3
 48
0.125
100
AcDbPolyline
 90
        2
 70
   128
 43
0.0
 10
33.8036460974582
 20
16.61420790057048
 10
33.8036460974582
 20
16.61420790057048
  0
LWPOLYLINE
  5
250
330
A
100
AcDbEntity
  8
DEFPOINTS
  6
CONTINUOUS
 62
     3
 48
0.125
100
AcDbPolyline
 90
        2
 70
   128
 43
0.0
 10
31.32148896831635
 20
16.82370898761012
 10
31.32148896831635
 20
16.82370898761012
  0
LWPOLYLINE
  5
254
330
A
100
AcDbEntity
  8
DEFPOINTS
  6
CONTINUOUS
 62
     3
 48
0.125
100
AcDbPolyline
 90
        2
 70
   128
 43
0.0
 10
31.32148896831635
 20
16.82370898761012
 10
31.32148896831635
 20
16.82370898761012
  0
LWPOLYLINE
  5
258
330
A
100
AcDbEntity
  8
DEFPOINTS
  6
CONTINUOUS
 62
     3
 48
0.125
100
AcDbPolyline
 90
        2
 70
   128
 43
0.0
 10
32.48198896831634
 20
15.75804161051109
 10
32.48198896831634
 20
15.75804161051109
  0
LWPOLYLINE
  5
25C
330
A
100
AcDbEntity
  8
DEFPOINTS
  6
CONTINUOUS
 62
     3
 48
0.125
100
AcDbPolyline
 90
        2
 70
   128
 43
0.0
 10
32.48198896831634
 20
15.75804161051109
 10
32.48198896831634
 20
15.75804161051109
  0
LWPOLYLINE
  5
260
330
A
100
AcDbEntity
  8
DEFPOINTS
  6
CONTINUOUS
 62
     3
 48
0.125
100
AcDbPolyline
 90
        2
 70
   128
 43
0.0
 10
30.53725806396396
 20
15.75804161051109
 10
30.53725806396396
 20
15.75804161051109
  0
LWPOLYLINE
  5
264
330
A
100
AcDbEntity
  8
DEFPOINTS
  6
CONTINUOUS
 62
     3
 48
0.125
100
AcDbPolyline
 90
        2
 70
   128
 43
0.0
 10
30.53725806396396
 20
15.75804161051109
 10
30.53725806396396
 20
15.75804161051109
  0
LWPOLYLINE
  5
268
330
A
100
AcDbEntity
  8
DEFPOINTS
  6
CONTINUOUS
 62
     3
 48
0.125
100
AcDbPolyline
 90
        2
 70
   128
 43
0.0
 10
31.6961765791202
 20
16.83999227269606
 10
31.6961765791202
 20
16.83999227269606
  0
LWPOLYLINE
  5
26C
330
A
100
AcDbEntity
  8
DEFPOINTS
  6
CONTINUOUS
 62
     3
 48
0.125
100
AcDbPolyline
 90
        2
 70
   128
 43
0.0
 10
31.6961765791202
 20
16.83999227269606
 10
31.6961765791202
 20
16.83999227269606
  0
LWPOLYLINE
  5
270
330
A
100
AcDbEntity
  8
DEFPOINTS
  6
CONTINUOUS
 62
     3
 48
0.125
100
AcDbPolyline
 90
        2
 70
   128
 43
0.0
 10
33.50871713283473
 20
16.83563086447014
 10
33.50871713283473
 20
16.83563086447014
  0
LWPOLYLINE
  5
274
330
A
100
AcDbEntity
  8
DEFPOINTS
  6
CONTINUOUS
 62
     3
 48
0.125
100
AcDbPolyline
 90
        2
 70
   128
 43
0.0
 10
33.50871713283473
 20
16.83563086447014
 10
33.50871713283473
 20
16.83563086447014
  0
LWPOLYLINE
  5
278
330
A
100
AcDbEntity
  8
DEFPOINTS
  6
CONTINUOUS
 62
     3
 48
0.125
100
AcDbPolyline
 90
        2
 70
   128
 43
0.0
 10
33.50580952735078
 20
17.42284900194101
 10
33.50580952735078
 20
17.42284900194101
  0
LWPOLYLINE
  5
27C
330
A
100
AcDbEntity
  8
DEFPOINTS
  6
CONTINUOUS
 62
     3
 48
0.125
100
AcDbPolyline
 90
        2
 70
   128
 43
0.0
 10
33.50580952735078
 20
17.42284900194101
 10
33.50580952735078
 20
17.42284900194101
  0
TEXT
  5
32C
330
A
100
AcDbEntity
  8
ADPDIM
100
AcDbText
 10
23.41355318197476
 20
13.21127784677538
 30
0.0
 40
0.125
  1
J U L I U S  B L U M  &  C O . ,  I N C .      ( 8 0 0 )  5 2 6 - 6 2 9 3        W W W . J U L I U S B L U M . C O M        P A R T  N O .  2 2 3
 41
1.25
  7
ARIAL_WIDE
 72
     1
 11
29.87245495550819
 21
13.33627784677538
 31
0.0
100
AcDbText
 73
     3
  0
ENDSEC
  0
SECTION
  2
OBJECTS
  0
DICTIONARY
  5
19
330
0
100
AcDbDictionary
  3
ACAD_GROUP
350
1A
  3
ACAD_LAYOUT
350
285
  3
ACAD_MLINESTYLE
350
1B
  3
ACAD_PLOTSETTINGS
350
286
  3
ACAD_PLOTSTYLENAME
350
283
  3
ACDBHEADERROUNDTRIPXREC
350
429
  3
ACDBVARIABLEDICTIONARY
350
2F3
  0
DICTIONARY
  5
2E7
330
A
100
AcDbDictionary
280
     1
  3
ACAD_LAYOUTSELFREF
360
449
  0
DICTIONARY
  5
2E9
330
B
100
AcDbDictionary
280
     1
  3
ACAD_LAYOUTSELFREF
360
44A
  0
DICTIONARY
  5
1A
102
{ACAD_REACTORS
330
19
102
}
330
19
100
AcDbDictionary
  0
DICTIONARY
  5
285
102
{ACAD_REACTORS
330
19
102
}
330
19
100
AcDbDictionary
  0
DICTIONARY
  5
1B
102
{ACAD_REACTORS
330
19
102
}
330
19
100
AcDbDictionary
  3
STANDARD
350
1C
  0
DICTIONARY
  5
286
102
{ACAD_REACTORS
330
19
102
}
330
19
100
AcDbDictionary
  0
ACDBDICTIONARYWDFLT
  5
283
102
{ACAD_REACTORS
330
19
102
}
330
19
100
AcDbDictionary
281
     1
  3
Normal
350
284
100
AcDbDictionaryWithDefault
340
284
  0
DICTIONARY
  5
429
102
{ACAD_REACTORS
330
19
102
}
330
19
100
AcDbDictionary
  3
CEPSNTYPE
350
433
  3
FINGERPRINTGUID
350
434
  3
HYPERLINKBASE
350
42C
  3
INSUNITS
350
432
  3
LAYOUTDICT
350
42E
  3
LWETCUNION
350
431
  3
PLOTSETDICT
350
42F
  3
PLOTSTYLNAMDICT
350
430
  3
PSVPSCALE
350
436
  3
PUCSBASE
350
439
  3
PUCSORGBACK
350
43F
  3
PUCSORGBOTTOM
350
43B
  3
PUCSORGFRONT
350
43E
  3
PUCSORGLEFT
350
43C
  3
PUCSORGRIGHT
350
43D
  3
PUCSORGTOP
350
43A
  3
PUCSORTHOREF
350
437
  3
PUCSORTHOVIEW
350
438
  3
STYLESHEET
350
42D
  3
TSTACKALIGN
350
42A
  3
TSTACKSIZE
350
42B
  3
UCSBASE
350
442
  3
UCSORGBACK
350
448
  3
UCSORGBOTTOM
350
444
  3
UCSORGFRONT
350
447
  3
UCSORGLEFT
350
445
  3
UCSORGRIGHT
350
446
  3
UCSORGTOP
350
443
  3
UCSORTHOREF
350
440
  3
UCSORTHOVIEW
350
441
  3
VERSIONGUID
350
435
  0
DICTIONARY
  5
2F3
102
{ACAD_REACTORS
330
19
102
}
330
19
100
AcDbDictionary
  3
DIMASSOC
350
2F4
  0
XRECORD
  5
449
102
{ACAD_REACTORS
330
2E7
102
}
330
2E7
100
AcDbXrecord
340
A
  0
XRECORD
  5
44A
102
{ACAD_REACTORS
330
2E9
102
}
330
2E9
100
AcDbXrecord
340
B
  0
MLINESTYLE
  5
1C
102
{ACAD_REACTORS
330
1B
102
}
330
1B
100
AcDbMlineStyle
  2
STANDARD
 70
     0
  3

 62
     0
 51
90.00000000000019
 52
90.00000000000019
 71
     2
 49
0.5
 62
   256
  6
BYLAYER
 49
-0.5
 62
   256
  6
BYLAYER
  0
ACDBPLACEHOLDER
  5
284
102
{ACAD_REACTORS
330
283
102
}
330
283
100
AcDbPlaceHolder
280
     0
  0
XRECORD
  5
433
102
{ACAD_REACTORS
330
429
102
}
330
429
100
AcDbXrecord
 90
        0
  0
XRECORD
  5
434
102
{ACAD_REACTORS
330
429
102
}
330
429
100
AcDbXrecord
  1
{137B9DF3-780C-41DA-A79C-B118AD29C2F6}
  0
XRECORD
  5
42C
102
{ACAD_REACTORS
330
429
102
}
330
429
100
AcDbXrecord
  1

  0
XRECORD
  5
432
102
{ACAD_REACTORS
330
429
102
}
330
429
100
AcDbXrecord
 90
        0
  0
XRECORD
  5
42E
102
{ACAD_REACTORS
330
429
102
}
330
429
100
AcDbXrecord
340
285
  0
XRECORD
  5
431
102
{ACAD_REACTORS
330
429
102
}
330
429
100
AcDbXrecord
 90
    14877
  0
XRECORD
  5
42F
102
{ACAD_REACTORS
330
429
102
}
330
429
100
AcDbXrecord
340
286
  0
XRECORD
  5
430
102
{ACAD_REACTORS
330
429
102
}
330
429
100
AcDbXrecord
340
283
  0
XRECORD
  5
436
102
{ACAD_REACTORS
330
429
102
}
330
429
100
AcDbXrecord
 40
0.0
  0
XRECORD
  5
439
102
{ACAD_REACTORS
330
429
102
}
330
429
100
AcDbXrecord
340
0
  0
XRECORD
  5
43F
102
{ACAD_REACTORS
330
429
102
}
330
429
100
AcDbXrecord
 10
0.0
 20
0.0
 30
0.0
  0
XRECORD
  5
43B
102
{ACAD_REACTORS
330
429
102
}
330
429
100
AcDbXrecord
 10
0.0
 20
0.0
 30
0.0
  0
XRECORD
  5
43E
102
{ACAD_REACTORS
330
429
102
}
330
429
100
AcDbXrecord
 10
0.0
 20
0.0
 30
0.0
  0
XRECORD
  5
43C
102
{ACAD_REACTORS
330
429
102
}
330
429
100
AcDbXrecord
 10
0.0
 20
0.0
 30
0.0
  0
XRECORD
  5
43D
102
{ACAD_REACTORS
330
429
102
}
330
429
100
AcDbXrecord
 10
0.0
 20
0.0
 30
0.0
  0
XRECORD
  5
43A
102
{ACAD_REACTORS
330
429
102
}
330
429
100
AcDbXrecord
 10
0.0
 20
0.0
 30
0.0
  0
XRECORD
  5
437
102
{ACAD_REACTORS
330
429
102
}
330
429
100
AcDbXrecord
340
0
  0
XRECORD
  5
438
102
{ACAD_REACTORS
330
429
102
}
330
429
100
AcDbXrecord
 70
     0
  0
XRECORD
  5
42D
102
{ACAD_REACTORS
330
429
102
}
330
429
100
AcDbXrecord
  1

  0
XRECORD
  5
42A
102
{ACAD_REACTORS
330
429
102
}
330
429
100
AcDbXrecord
 90
        1
  0
XRECORD
  5
42B
102
{ACAD_REACTORS
330
429
102
}
330
429
100
AcDbXrecord
 90
       70
  0
XRECORD
  5
442
102
{ACAD_REACTORS
330
429
102
}
330
429
100
AcDbXrecord
340
0
  0
XRECORD
  5
448
102
{ACAD_REACTORS
330
429
102
}
330
429
100
AcDbXrecord
 10
0.0
 20
0.0
 30
0.0
  0
XRECORD
  5
444
102
{ACAD_REACTORS
330
429
102
}
330
429
100
AcDbXrecord
 10
0.0
 20
0.0
 30
0.0
  0
XRECORD
  5
447
102
{ACAD_REACTORS
330
429
102
}
330
429
100
AcDbXrecord
 10
0.0
 20
0.0
 30
0.0
  0
XRECORD
  5
445
102
{ACAD_REACTORS
330
429
102
}
330
429
100
AcDbXrecord
 10
0.0
 20
0.0
 30
0.0
  0
XRECORD
  5
446
102
{ACAD_REACTORS
330
429
102
}
330
429
100
AcDbXrecord
 10
0.0
 20
0.0
 30
0.0
  0
XRECORD
  5
443
102
{ACAD_REACTORS
330
429
102
}
330
429
100
AcDbXrecord
 10
0.0
 20
0.0
 30
0.0
  0
XRECORD
  5
440
102
{ACAD_REACTORS
330
429
102
}
330
429
100
AcDbXrecord
340
0
  0
XRECORD
  5
441
102
{ACAD_REACTORS
330
429
102
}
330
429
100
AcDbXrecord
 70
     0
  0
XRECORD
  5
435
102
{ACAD_REACTORS
330
429
102
}
330
429
100
AcDbXrecord
  1
{74BA04C6-B829-4336-88E8-A55BFC402712}
  0
DICTIONARYVAR
  5
2F4
102
{ACAD_REACTORS
330
2F3
102
}
330
2F3
100
DictionaryVariables
280
     0
  1
1
  0
ENDSEC
  0
EOF
