  0
SECTION
  2
HEADER
  9
$ACADVER
  1
AC1014
  9
$ACADMAINTVER
 70
     9
  9
$DWGCODEPAGE
  3
ANSI_1252
  9
$INSBASE
 10
0.0
 20
0.0
 30
0.0
  9
$EXTMIN
 10
4.315509764978361
 20
14.30872045405584
 30
0.0
  9
$EXTMAX
 10
17.2333133120452
 20
19.00802227029315
 30
0.0
  9
$LIMMIN
 10
0.0
 20
0.0
  9
$LIMMAX
 10
0.0
 20
0.0
  9
$ORTHOMODE
 70
     1
  9
$REGENMODE
 70
     1
  9
$FILLMODE
 70
     1
  9
$QTEXTMODE
 70
     0
  9
$MIRRTEXT
 70
     1
  9
$DRAGMODE
 70
     0
  9
$LTSCALE
 40
1.0
  9
$OSMODE
 70
    37
  9
$ATTMODE
 70
     1
  9
$TEXTSIZE
 40
0.0
  9
$TRACEWID
 40
0.05
  9
$TEXTSTYLE
  7
STANDARD
  9
$CLAYER
  8
0
  9
$CELTYPE
  6
CONTINUOUS
  9
$CECOLOR
 62
   256
  9
$CELTSCALE
 40
1.0
  9
$DELOBJ
 70
     1
  9
$DISPSILH
 70
     0
  9
$DIMSCALE
 40
1.0
  9
$DIMASZ
 40
0.18
  9
$DIMEXO
 40
0.0625
  9
$DIMDLI
 40
0.38
  9
$DIMRND
 40
0.0
  9
$DIMDLE
 40
0.0
  9
$DIMEXE
 40
0.18
  9
$DIMTP
 40
0.0
  9
$DIMTM
 40
0.0
  9
$DIMTXT
 40
0.18
  9
$DIMCEN
 40
0.09
  9
$DIMTSZ
 40
0.0
  9
$DIMTOL
 70
     0
  9
$DIMLIM
 70
     0
  9
$DIMTIH
 70
     1
  9
$DIMTOH
 70
     1
  9
$DIMSE1
 70
     0
  9
$DIMSE2
 70
     0
  9
$DIMTAD
 70
     0
  9
$DIMZIN
 70
     0
  9
$DIMBLK
  1

  9
$DIMASO
 70
     1
  9
$DIMSHO
 70
     1
  9
$DIMPOST
  1

  9
$DIMAPOST
  1

  9
$DIMALT
 70
     0
  9
$DIMALTD
 70
     2
  9
$DIMALTF
 40
25.4
  9
$DIMLFAC
 40
1.0
  9
$DIMTOFL
 70
     0
  9
$DIMTVP
 40
0.0
  9
$DIMTIX
 70
     0
  9
$DIMSOXD
 70
     0
  9
$DIMSAH
 70
     0
  9
$DIMBLK1
  1

  9
$DIMBLK2
  1

  9
$DIMSTYLE
  2
STANDARD
  9
$DIMCLRD
 70
     0
  9
$DIMCLRE
 70
     0
  9
$DIMCLRT
 70
     0
  9
$DIMTFAC
 40
1.0
  9
$DIMGAP
 40
0.09
  9
$DIMJUST
 70
     0
  9
$DIMSD1
 70
     0
  9
$DIMSD2
 70
     0
  9
$DIMTOLJ
 70
     1
  9
$DIMTZIN
 70
     0
  9
$DIMALTZ
 70
     0
  9
$DIMALTTZ
 70
     0
  9
$DIMFIT
 70
     3
  9
$DIMUPT
 70
     0
  9
$DIMUNIT
 70
     2
  9
$DIMDEC
 70
     4
  9
$DIMTDEC
 70
     4
  9
$DIMALTU
 70
     2
  9
$DIMALTTD
 70
     2
  9
$DIMTXSTY
  7
STANDARD
  9
$DIMAUNIT
 70
     0
  9
$LUNITS
 70
     2
  9
$LUPREC
 70
     4
  9
$SKETCHINC
 40
0.1
  9
$FILLETRAD
 40
0.0
  9
$AUNITS
 70
     0
  9
$AUPREC
 70
     0
  9
$MENU
  1
acad
  9
$ELEVATION
 40
0.0
  9
$PELEVATION
 40
0.0
  9
$THICKNESS
 40
0.0
  9
$LIMCHECK
 70
     0
  9
$BLIPMODE
 70
     0
  9
$CHAMFERA
 40
0.0
  9
$CHAMFERB
 40
0.0
  9
$CHAMFERC
 40
0.0
  9
$CHAMFERD
 40
0.0
  9
$SKPOLY
 70
     0
  9
$TDCREATE
 40
2444971.791666666
  9
$TDUPDATE
 40
2452297.065255347
  9
$TDINDWG
 40
0.0050001736
  9
$TDUSRTIMER
 40
0.0050001736
  9
$USRTIMER
 70
     1
  9
$ANGBASE
 50
0.0
  9
$ANGDIR
 70
     0
  9
$PDMODE
 70
     0
  9
$PDSIZE
 40
0.0
  9
$PLINEWID
 40
0.0
  9
$COORDS
 70
     2
  9
$SPLFRAME
 70
     0
  9
$SPLINETYPE
 70
     6
  9
$SPLINESEGS
 70
     8
  9
$ATTDIA
 70
     0
  9
$ATTREQ
 70
     1
  9
$HANDLING
 70
 22529
  9
$HANDSEED
  5
418
  9
$SURFTAB1
 70
     6
  9
$SURFTAB2
 70
     6
  9
$SURFTYPE
 70
     6
  9
$SURFU
 70
     6
  9
$SURFV
 70
     6
  9
$UCSNAME
  2

  9
$UCSORG
 10
0.0
 20
0.0
 30
0.0
  9
$UCSXDIR
 10
1.0
 20
0.0
 30
0.0
  9
$UCSYDIR
 10
0.0
 20
1.0
 30
0.0
  9
$PUCSNAME
  2

  9
$PUCSORG
 10
0.0
 20
0.0
 30
0.0
  9
$PUCSXDIR
 10
1.0
 20
0.0
 30
0.0
  9
$PUCSYDIR
 10
0.0
 20
1.0
 30
0.0
  9
$USERI1
 70
     0
  9
$USERI2
 70
     0
  9
$USERI3
 70
     0
  9
$USERI4
 70
     0
  9
$USERI5
 70
     0
  9
$USERR1
 40
0.0
  9
$USERR2
 40
0.0
  9
$USERR3
 40
0.0
  9
$USERR4
 40
0.0
  9
$USERR5
 40
0.0
  9
$WORLDVIEW
 70
     1
  9
$SHADEDGE
 70
     3
  9
$SHADEDIF
 70
    70
  9
$TILEMODE
 70
     1
  9
$MAXACTVP
 70
    16
  9
$PINSBASE
 10
0.0
 20
0.0
 30
0.0
  9
$PLIMCHECK
 70
     0
  9
$PEXTMIN
 10
1.000000000000000E+20
 20
1.000000000000000E+20
 30
1.000000000000000E+20
  9
$PEXTMAX
 10
-1.000000000000000E+20
 20
-1.000000000000000E+20
 30
-1.000000000000000E+20
  9
$PLIMMIN
 10
0.0
 20
0.0
  9
$PLIMMAX
 10
12.0
 20
9.0
  9
$UNITMODE
 70
     0
  9
$VISRETAIN
 70
     0
  9
$PLINEGEN
 70
     0
  9
$PSLTSCALE
 70
     0
  9
$TREEDEPTH
 70
  3020
  9
$PICKSTYLE
 70
     1
  9
$CMLSTYLE
  2
STANDARD
  9
$CMLJUST
 70
     0
  9
$CMLSCALE
 40
1.0
  9
$PROXYGRAPHICS
 70
     1
  9
$MEASUREMENT
 70
     0
  0
ENDSEC
  0
SECTION
  2
CLASSES
  0
CLASS
  1
LWPOLYLINE
  2
AcDbPolyline
  3
AutoCAD 2000
 90
        0
280
     0
281
     1
  0
CLASS
  1
IMAGE
  2
AcDbRasterImage
  3
ISM
 90
      127
280
     0
281
     1
  0
CLASS
  1
OLE2FRAME
  2
AcDbOle2Frame
  3
AutoCAD 2000
 90
        0
280
     0
281
     1
  0
CLASS
  1
HATCH
  2
AcDbHatch
  3
AutoCAD 2000
 90
        0
280
     0
281
     1
  0
CLASS
  1
DICTIONARYVAR
  2
AcDbDictionaryVar
  3
AutoCAD 2000
 90
        0
280
     0
281
     0
  0
CLASS
  1
RASTERVARIABLES
  2
AcDbRasterVariables
  3
ISM
 90
        0
280
     0
281
     0
  0
CLASS
  1
IMAGEDEF
  2
AcDbRasterImageDef
  3
ISM
 90
        0
280
     0
281
     0
  0
CLASS
  1
IMAGEDEF_REACTOR
  2
AcDbRasterImageDefReactor
  3
ISM
 90
        1
280
     0
281
     0
  0
CLASS
  1
IDBUFFER
  2
AcDbIdBuffer
  3
AutoCAD 2000
 90
        0
280
     0
281
     0
  0
CLASS
  1
SPATIAL_FILTER
  2
AcDbSpatialFilter
  3
AutoCAD 2000
 90
        0
280
     0
281
     0
  0
CLASS
  1
XRECORD
  2
AcDbXrecord
  3
AutoCAD 2000
 90
        0
280
     0
281
     0
  0
CLASS
  1
SORTENTSTABLE
  2
AcDbSortentsTable
  3
AutoCAD 2000
 90
        0
280
     0
281
     0
  0
CLASS
  1
LAYER_INDEX
  2
AcDbLayerIndex
  3
AutoCAD 2000
 90
        0
280
     0
281
     0
  0
CLASS
  1
SPATIAL_INDEX
  2
AcDbSpatialIndex
  3
AutoCAD 2000
 90
        0
280
     0
281
     0
  0
CLASS
  1
OBJECT_PTR
  2
CAseDLPNTableRecord
  3
ASE-LPNTableRecord
 90
        1
280
     0
281
     0
  0
CLASS
  1
ACDBDICTIONARYWDFLT
  2
AcDbDictionaryWithDefault
  3
AutoCAD 2000
 90
        0
280
     0
281
     0
  0
CLASS
  1
ACDBPLACEHOLDER
  2
AcDbPlaceHolder
  3
AutoCAD 2000
 90
        0
280
     0
281
     0
  0
CLASS
  1
LAYOUT
  2
AcDbLayout
  3
AutoCAD 2000
 90
        0
280
     0
281
     0
  0
CLASS
  1
LONG_TRANSACTION
  2
AcDbLongTransaction
  3
AutoCAD 2000
 90
        0
280
     0
281
     0
  0
CLASS
  1
LWPOLYLINE
  2
AcDbPolyline
  3
AutoCAD 2000
 90
        0
280
     0
281
     1
  0
CLASS
  1
HATCH
  2
AcDbHatch
  3
AutoCAD 2000
 90
        0
280
     0
281
     1
  0
CLASS
  1
XRECORD
  2
AcDbXrecord
  3
AutoCAD 2000
 90
        0
280
     0
281
     0
  0
CLASS
  1
LONG_TRANSACTION
  2
AcDbLongTransaction
  3
AutoCAD 2000
 90
        0
280
     0
281
     0
  0
CLASS
  1
LWPOLYLINE
  2
AcDbPolyline
  3
AutoCAD 2000
 90
        0
280
     0
281
     1
  0
CLASS
  1
HATCH
  2
AcDbHatch
  3
AutoCAD 2000
 90
        0
280
     0
281
     1
  0
CLASS
  1
XRECORD
  2
AcDbXrecord
  3
AutoCAD 2000
 90
        0
280
     0
281
     0
  0
CLASS
  1
LONG_TRANSACTION
  2
AcDbLongTransaction
  3
AutoCAD 2000
 90
        0
280
     0
281
     0
  0
CLASS
  1
LWPOLYLINE
  2
AcDbPolyline
  3
AutoCAD 2000
 90
        0
280
     0
281
     1
  0
CLASS
  1
HATCH
  2
AcDbHatch
  3
AutoCAD 2000
 90
        0
280
     0
281
     1
  0
CLASS
  1
XRECORD
  2
AcDbXrecord
  3
AutoCAD 2000
 90
        0
280
     0
281
     0
  0
CLASS
  1
LONG_TRANSACTION
  2
AcDbLongTransaction
  3
AutoCAD 2000
 90
        0
280
     0
281
     0
  0
CLASS
  1
LWPOLYLINE
  2
AcDbPolyline
  3
AutoCAD 2000
 90
        0
280
     0
281
     1
  0
CLASS
  1
HATCH
  2
AcDbHatch
  3
AutoCAD 2000
 90
        0
280
     0
281
     1
  0
CLASS
  1
XRECORD
  2
AcDbXrecord
  3
AutoCAD 2000
 90
        0
280
     0
281
     0
  0
CLASS
  1
LONG_TRANSACTION
  2
AcDbLongTransaction
  3
AutoCAD 2000
 90
        0
280
     0
281
     0
  0
CLASS
  1
LWPOLYLINE
  2
AcDbPolyline
  3
AutoCAD 2000
 90
        0
280
     0
281
     1
  0
CLASS
  1
HATCH
  2
AcDbHatch
  3
AutoCAD 2000
 90
        0
280
     0
281
     1
  0
CLASS
  1
XRECORD
  2
AcDbXrecord
  3
AutoCAD 2000
 90
        0
280
     0
281
     0
  0
CLASS
  1
LONG_TRANSACTION
  2
AcDbLongTransaction
  3
AutoCAD 2000
 90
        0
280
     0
281
     0
  0
CLASS
  1
LWPOLYLINE
  2
AcDbPolyline
  3
AutoCAD 2000
 90
        0
280
     0
281
     1
  0
CLASS
  1
HATCH
  2
AcDbHatch
  3
AutoCAD 2000
 90
        0
280
     0
281
     1
  0
CLASS
  1
XRECORD
  2
AcDbXrecord
  3
AutoCAD 2000
 90
        0
280
     0
281
     0
  0
ENDSEC
  0
SECTION
  2
TABLES
  0
TABLE
  2
VPORT
  5
7
330
0
100
AcDbSymbolTable
 70
     3
  0
VPORT
  5
2E
330
7
100
AcDbSymbolTableRecord
100
AcDbViewportTableRecord
  2
DCADVPORT
 70
     0
 10
6.88868277949511
 20
15.31959659875498
 11
15.07172086240148
 21
19.00802227029315
 12
6.209999999999999
 22
9.019999999999999
 13
0.0
 23
0.0
 14
1.0
 24
1.0
 15
0.0
 25
0.0
 16
0.0
 26
0.0
 36
1.0
 17
0.0
 27
0.0
 37
0.0
 40
18.04
 41
0.688564
 42
50.0
 43
1.0
 44
1.0
 50
0.0
 51
0.0
 71
     0
 72
   100
 73
     1
 74
     1
 75
     0
 76
     0
 77
     0
 78
     0
  0
VPORT
  5
3F5
330
7
100
AcDbSymbolTableRecord
100
AcDbViewportTableRecord
  2
*ACTIVE
 70
     0
 10
0.0
 20
0.0
 11
1.0
 21
1.0
 12
10.77454814100501
 22
16.65819709727968
 13
0.0
 23
0.0
 14
1.0
 24
1.0
 15
0.0
 25
0.0
 16
0.0
 26
0.0
 36
1.0
 17
0.0
 27
0.0
 37
0.0
 40
8.265785196583696
 41
1.570528967254408
 42
50.0
 43
0.0
 44
0.0
 50
0.0
 51
0.0
 71
     0
 72
   100
 73
     1
 74
     1
 75
     0
 76
     0
 77
     0
 78
     0
  0
ENDTAB
  0
TABLE
  2
LTYPE
  5
4
330
0
100
AcDbSymbolTable
 70
     2
  0
LTYPE
  5
11
330
4
100
AcDbSymbolTableRecord
100
AcDbLinetypeTableRecord
  2
BYBLOCK
 70
     0
  3

 72
    65
 73
     0
 40
0.0
  0
LTYPE
  5
12
330
4
100
AcDbSymbolTableRecord
100
AcDbLinetypeTableRecord
  2
BYLAYER
 70
     0
  3

 72
    65
 73
     0
 40
0.0
  0
LTYPE
  5
13
330
4
100
AcDbSymbolTableRecord
100
AcDbLinetypeTableRecord
  2
CONTINUOUS
 70
     0
  3
Solid line
 72
    65
 73
     0
 40
0.0
  0
LTYPE
  5
1E
330
4
100
AcDbSymbolTableRecord
100
AcDbLinetypeTableRecord
  2
CONTINUOUS
 70
     0
  3
Solid line
 72
    65
 73
     0
 40
0.0
  0
ENDTAB
  0
TABLE
  2
LAYER
  5
2
330
0
100
AcDbSymbolTable
 70
     5
  0
LAYER
  5
14
330
2
100
AcDbSymbolTableRecord
100
AcDbLayerTableRecord
  2
0
 70
     0
 62
     7
  6
CONTINUOUS
  0
LAYER
  5
2A
330
2
100
AcDbSymbolTableRecord
100
AcDbLayerTableRecord
  2
DEFPOINTS
 70
     0
 62
   250
  6
CONTINUOUS
  0
LAYER
  5
2B
330
2
100
AcDbSymbolTableRecord
100
AcDbLayerTableRecord
  2
ADP2DETAIL
 70
     0
 62
   250
  6
CONTINUOUS
  0
LAYER
  5
2C
330
2
100
AcDbSymbolTableRecord
100
AcDbLayerTableRecord
  2
ADPDIM
 70
     0
 62
     3
  6
CONTINUOUS
  0
LAYER
  5
2D
330
2
100
AcDbSymbolTableRecord
100
AcDbLayerTableRecord
  2
ADP1DETAIL
 70
     0
 62
   250
  6
CONTINUOUS
  0
ENDTAB
  0
TABLE
  2
STYLE
  5
3
330
0
100
AcDbSymbolTable
 70
     2
  0
STYLE
  5
17
330
3
100
AcDbSymbolTableRecord
100
AcDbTextStyleTableRecord
  2
STANDARD
 70
     0
 40
0.0
 41
1.0
 50
0.0
 71
     0
 42
0.0
  3
txt
  4

  0
STYLE
  5
28C
330
3
100
AcDbSymbolTableRecord
100
AcDbTextStyleTableRecord
  2
ARIAL_WIDE
 70
     0
 40
0.0
 41
1.25
 50
0.0
 71
     0
 42
0.2
  3
ARIAL.TTF
  4

1001
ACAD
1000
Arial
1071
       34
  0
ENDTAB
  0
TABLE
  2
VIEW
  5
5
330
0
100
AcDbSymbolTable
 70
     0
  0
ENDTAB
  0
TABLE
  2
UCS
  5
6
330
0
100
AcDbSymbolTable
 70
     0
  0
ENDTAB
  0
TABLE
  2
APPID
  5
8
330
0
100
AcDbSymbolTable
 70
     1
  0
APPID
  5
16
330
8
100
AcDbSymbolTableRecord
100
AcDbRegAppTableRecord
  2
ACAD
 70
     0
  0
ENDTAB
  0
TABLE
  2
DIMSTYLE
  5
9
330
0
100
AcDbSymbolTable
 70
     1
  0
DIMSTYLE
105
18
330
9
100
AcDbSymbolTableRecord
100
AcDbDimStyleTableRecord
  2
STANDARD
 70
     0
  3

  4

  5

  6

  7

 40
1.0
 41
0.18
 42
0.0625
 43
0.38
 44
0.18
 45
0.0
 46
0.0
 47
0.0
 48
0.0
140
0.18
141
0.09
142
0.0
143
25.4
144
1.0
145
0.0
146
1.0
147
0.09
 71
     0
 72
     0
 73
     1
 74
     1
 75
     0
 76
     0
 77
     0
 78
     0
170
     0
171
     2
172
     0
173
     0
174
     0
175
     0
176
     0
177
     0
178
     0
270
     2
271
     4
272
     4
273
     2
274
     2
340
17
275
     0
280
     0
281
     0
282
     0
283
     1
284
     0
285
     0
286
     0
287
     0
288
     0
  0
ENDTAB
  0
TABLE
  2
BLOCK_RECORD
  5
1
330
0
100
AcDbSymbolTable
 70
     0
  0
BLOCK_RECORD
  5
A
102
{ACAD_XDICTIONARY
360
2E7
102
}
330
1
100
AcDbSymbolTableRecord
100
AcDbBlockTableRecord
  2
*MODEL_SPACE
  0
BLOCK_RECORD
  5
B
102
{ACAD_XDICTIONARY
360
2E9
102
}
330
1
100
AcDbSymbolTableRecord
100
AcDbBlockTableRecord
  2
*PAPER_SPACE
  0
ENDTAB
  0
ENDSEC
  0
SECTION
  2
BLOCKS
  0
BLOCK
  5
D
330
A
100
AcDbEntity
  8
0
100
AcDbBlockBegin
  2
*MODEL_SPACE
 70
     0
 10
0.0
 20
0.0
 30
0.0
  3
*MODEL_SPACE
  1

  0
ENDBLK
  5
E
330
A
100
AcDbEntity
  8
0
100
AcDbBlockEnd
  0
BLOCK
  5
F
330
B
100
AcDbEntity
 67
     1
  8
0
100
AcDbBlockBegin
  2
*PAPER_SPACE
 70
     0
 10
0.0
 20
0.0
 30
0.0
  3
*PAPER_SPACE
  1

  0
ENDBLK
  5
10
330
B
100
AcDbEntity
 67
     1
  8
0
100
AcDbBlockEnd
  0
ENDSEC
  0
SECTION
  2
ENTITIES
  0
ARC
  5
2F
330
A
100
AcDbEntity
  8
ADP2DETAIL
  6
CONTINUOUS
 62
     5
100
AcDbCircle
 10
-10.6977178814225
 20
16.8464561923999
 30
0.0
 40
0.7499999999999993
210
0.0
220
0.0
230
-1.0
100
AcDbArc
 50
0.0
 51
21.78022512532529
  0
LWPOLYLINE
  5
30
330
A
100
AcDbEntity
  8
ADP1DETAIL
  6
CONTINUOUS
 62
     7
100
AcDbPolyline
 90
        2
 70
   128
 43
0.0
 10
9.126257423244746
 20
18.06299031577344
 10
9.126257423244746
 20
16.4709561923999
  0
LWPOLYLINE
  5
34
330
A
100
AcDbEntity
  8
ADP1DETAIL
  6
CONTINUOUS
 62
     7
100
AcDbPolyline
 90
        2
 70
   128
 43
0.0
 10
9.876257423244746
 20
16.4709561923999
 10
9.876257423244746
 20
18.06299031577344
  0
LWPOLYLINE
  5
38
330
A
100
AcDbEntity
  8
ADP1DETAIL
  6
CONTINUOUS
 62
     7
100
AcDbPolyline
 90
        2
 70
   128
 43
0.0
 10
7.001257423244745
 20
15.35926395646394
 10
7.001257423244745
 20
18.33364842833585
  0
LWPOLYLINE
  5
3C
330
A
100
AcDbEntity
  8
ADP1DETAIL
  6
CONTINUOUS
 62
     7
100
AcDbPolyline
 90
        2
 70
   128
 43
0.0
 10
7.251257423244745
 20
18.23554805520282
 10
7.251257423244745
 20
16.14530123142359
  0
LWPOLYLINE
  5
40
330
A
100
AcDbEntity
  8
ADP1DETAIL
  6
CONTINUOUS
 62
     7
100
AcDbPolyline
 90
        2
 70
   128
 43
0.0
 10
7.751257423244745
 20
17.33864842833585
 10
7.751257423244745
 20
16.35426395646394
  0
LWPOLYLINE
  5
44
330
A
100
AcDbEntity
  8
ADP1DETAIL
  6
CONTINUOUS
 62
     7
100
AcDbPolyline
 90
        2
 70
   128
 43
0.0
 10
7.751257423244745
 20
16.8464561923999
 10
7.751257423244745
 20
17.2839561923999
  0
ARC
  5
48
330
A
100
AcDbEntity
  8
ADP1DETAIL
  6
CONTINUOUS
 62
     7
100
AcDbCircle
 10
-13.57572832524803
 20
16.81558913590842
 30
0.0
 40
1.415949078414777
210
0.0
220
0.0
230
-1.0
100
AcDbArc
 50
141.6952650067844
 51
38.30473499321562
  0
ARC
  5
49
330
A
100
AcDbEntity
  8
ADP1DETAIL
  6
CONTINUOUS
 62
     7
100
AcDbCircle
 10
-13.57572832524803
 20
16.81558913590842
 30
0.0
 40
1.499999999999999
210
0.0
220
0.0
230
-1.0
100
AcDbArc
 50
144.1891266479681
 51
35.81087335203186
  0
ARC
  5
4A
330
A
100
AcDbEntity
  8
ADP1DETAIL
  6
CONTINUOUS
 62
     7
100
AcDbCircle
 10
-13.57572832524803
 20
16.81558913590842
 30
0.0
 40
0.5000000000000013
210
0.0
220
0.0
230
-1.0
100
AcDbArc
 50
138.5038289027596
 51
41.32292462379911
  0
ARC
  5
4B
330
A
100
AcDbEntity
  8
ADP1DETAIL
  6
CONTINUOUS
 62
     7
100
AcDbCircle
 10
-13.57572832524803
 20
16.81558913590842
 30
0.0
 40
0.6249999999999992
210
0.0
220
0.0
230
-1.0
100
AcDbArc
 50
126.8126233266155
 51
53.07278506303045
  0
LWPOLYLINE
  5
4C
330
A
100
AcDbEntity
  8
ADP1DETAIL
  6
CONTINUOUS
 62
     7
100
AcDbPolyline
 90
        2
 70
   128
 43
0.0
 10
13.95022832524804
 20
17.56825651300745
 10
13.95022832524804
 20
16.81875651300745
  0
LWPOLYLINE
  5
50
330
A
100
AcDbEntity
  8
ADP1DETAIL
  6
CONTINUOUS
 62
     7
100
AcDbPolyline
 90
        2
 70
   128
 43
0.0
 10
13.20022832524804
 20
16.81875651300745
 10
13.20022832524804
 20
17.56825651300745
  0
CIRCLE
  5
54
330
A
100
AcDbEntity
  8
ADP1DETAIL
  6
CONTINUOUS
 62
     7
100
AcDbCircle
 10
-13.57572832524803
 20
16.81558913590842
 30
0.0
 40
0.2859512779740925
210
0.0
220
0.0
230
-1.0
  0
CIRCLE
  5
55
330
A
100
AcDbEntity
  8
ADP1DETAIL
  6
CONTINUOUS
 62
     7
100
AcDbCircle
 10
-13.57572832524803
 20
16.81558913590842
 30
0.0
 40
0.3125
210
0.0
220
0.0
230
-1.0
  0
LWPOLYLINE
  5
56
330
A
100
AcDbEntity
  8
ADP1DETAIL
  6
CONTINUOUS
 62
     7
100
AcDbPolyline
 90
        2
 70
   128
 43
0.0
 10
7.876157829291376
 20
17.24995373518748
 10
7.876257423244745
 20
16.8464561923999
  0
LWPOLYLINE
  5
5A
330
A
100
AcDbEntity
  8
ADP1DETAIL
  6
CONTINUOUS
 62
     7
100
AcDbPolyline
 90
        2
 70
   128
 43
0.0
 10
8.617755872345966
 20
16.59728900896137
 10
8.617755872345966
 20
17.09562337583843
  0
LWPOLYLINE
  5
5E
330
A
100
AcDbEntity
  8
ADP1DETAIL
  6
CONTINUOUS
 62
     7
100
AcDbPolyline
 90
        2
 70
   128
 43
0.0
 10
9.126257423244746
 20
16.6589561923999
 10
9.126257423244746
 20
17.0339561923999
  0
LWPOLYLINE
  5
62
330
A
100
AcDbEntity
  8
ADP1DETAIL
  6
CONTINUOUS
 62
     7
100
AcDbPolyline
 90
        2
 70
   128
 43
0.0
 10
9.126257423244746
 20
17.1589561923999
 10
9.126257423244746
 20
16.5339561923999
  0
LWPOLYLINE
  5
66
330
A
100
AcDbEntity
  8
ADP1DETAIL
  6
CONTINUOUS
 62
     7
100
AcDbPolyline
 90
        2
 70
   128
 43
0.0
 10
9.126257423244746
 20
17.1589561923999
 10
9.126257423244746
 20
16.5339561923999
  0
LWPOLYLINE
  5
6A
330
A
100
AcDbEntity
  8
ADP1DETAIL
  6
CONTINUOUS
 62
     7
100
AcDbPolyline
 90
        2
 70
   128
 43
0.0
 10
9.126257423244746
 20
16.6589561923999
 10
9.126257423244746
 20
17.0339561923999
  0
LWPOLYLINE
  5
6E
330
A
100
AcDbEntity
  8
ADP1DETAIL
  6
CONTINUOUS
 62
     7
100
AcDbPolyline
 90
        2
 70
   128
 43
0.0
 10
9.876257423244746
 20
17.0339561923999
 10
9.876257423244746
 20
16.6589561923999
  0
LWPOLYLINE
  5
72
330
A
100
AcDbEntity
  8
ADP1DETAIL
  6
CONTINUOUS
 62
     7
100
AcDbPolyline
 90
        2
 70
   128
 43
0.0
 10
9.876257423244746
 20
17.0339561923999
 10
9.876257423244746
 20
16.6589561923999
  0
LWPOLYLINE
  5
76
330
A
100
AcDbEntity
  8
ADP1DETAIL
  6
CONTINUOUS
 62
     7
100
AcDbPolyline
 90
        2
 70
   128
 43
0.0
 10
10.00125742324474
 20
17.12474171159705
 10
10.00125742324474
 20
16.8464561923999
  0
LWPOLYLINE
  5
7A
330
A
100
AcDbEntity
  8
ADP1DETAIL
  6
CONTINUOUS
 62
     7
100
AcDbPolyline
 90
        2
 70
   128
 43
0.0
 10
10.00125742324474
 20
17.12474171159705
 10
10.00125742324474
 20
16.8464561923999
  0
ARC
  5
7E
330
A
100
AcDbEntity
  8
ADP2DETAIL
  6
CONTINUOUS
 62
     5
100
AcDbCircle
 10
-10.6977178814225
 20
16.8464561923999
 30
0.0
 40
0.7499999999999993
210
0.0
220
0.0
230
-1.0
100
AcDbArc
 50
0.0
 51
21.78022512532529
  0
LWPOLYLINE
  5
7F
330
A
100
AcDbEntity
  8
ADP1DETAIL
  6
CONTINUOUS
 62
     7
100
AcDbPolyline
 90
        2
 70
   128
 43
0.0
 10
9.876257423244746
 20
16.4709561923999
 10
9.126257423244746
 20
16.4709561923999
  0
LWPOLYLINE
  5
83
330
A
100
AcDbEntity
  8
ADP1DETAIL
  6
CONTINUOUS
 62
     7
100
AcDbPolyline
 90
        2
 70
   128
 43
0.0
 10
8.617755872345966
 20
16.59728900896137
 10
7.876257423244745
 20
16.4714561923999
  0
ARC
  5
87
330
A
100
AcDbEntity
  8
ADP1DETAIL
  6
CONTINUOUS
 62
     7
100
AcDbCircle
 10
-7.189257423244744
 20
15.45736432959697
 30
0.0
 40
0.0620000000000005
210
0.0
220
0.0
230
-1.0
100
AcDbArc
 50
180.0
 51
255.9637565320747
  0
LWPOLYLINE
  5
88
330
A
100
AcDbEntity
  8
ADP1DETAIL
  6
CONTINUOUS
 62
     7
100
AcDbPolyline
 90
        2
 70
   128
 43
0.0
 10
7.204294631996998
 20
15.39721549458796
 10
7.01368277949511
 20
15.34956253146249
  0
ARC
  5
8C
330
A
100
AcDbEntity
  8
ADP1DETAIL
  6
CONTINUOUS
 62
     7
100
AcDbCircle
 10
-7.011257423244747
 20
15.35926395646394
 30
0.0
 40
0.0099999999999998
210
0.0
220
0.0
230
-1.0
100
AcDbArc
 50
255.9637565320768
 51
360.0000000000008
  0
LWPOLYLINE
  5
8D
330
A
100
AcDbEntity
  8
ADP1DETAIL
  6
CONTINUOUS
 62
     7
100
AcDbPolyline
 90
        2
 70
   128
 43
0.0
 10
7.74368277949511
 20
16.34456253146249
 10
7.298220214492492
 20
16.23319689021184
  0
LWPOLYLINE
  5
91
330
A
100
AcDbEntity
  8
ADP1DETAIL
  6
CONTINUOUS
 62
     7
100
AcDbPolyline
 90
        2
 70
   128
 43
0.0
 10
7.251257423244745
 20
16.17304805520283
 10
7.251257423244745
 20
15.45736432959697
  0
ARC
  5
95
330
A
100
AcDbEntity
  8
ADP1DETAIL
  6
CONTINUOUS
 62
     7
100
AcDbCircle
 10
-7.313257423244746
 20
16.17304805520283
 30
0.0
 40
0.0619999999999988
210
0.0
220
0.0
230
-1.0
100
AcDbArc
 50
0.0
 51
75.96375653207353
  0
LWPOLYLINE
  5
96
330
A
100
AcDbEntity
  8
ADP1DETAIL
  6
CONTINUOUS
 62
     7
100
AcDbPolyline
 90
        2
 70
   128
 43
0.0
 10
7.751257423244745
 20
16.4089561923999
 10
7.876157829291376
 20
16.44295864961232
  0
LWPOLYLINE
  5
9A
330
A
100
AcDbEntity
  8
ADP1DETAIL
  6
CONTINUOUS
 62
     7
100
AcDbPolyline
 90
        2
 70
   128
 43
0.0
 10
7.751257423244745
 20
16.8464561923999
 10
7.751257423244745
 20
16.4089561923999
  0
ARC
  5
9E
330
A
100
AcDbEntity
  8
ADP1DETAIL
  6
CONTINUOUS
 62
     7
100
AcDbCircle
 10
-7.741257423244747
 20
16.35426395646394
 30
0.0
 40
0.0099999999999991
210
0.0
220
0.0
230
-1.0
100
AcDbArc
 50
180.0
 51
255.9637565320743
  0
LWPOLYLINE
  5
9F
330
A
100
AcDbEntity
  8
ADP1DETAIL
  6
CONTINUOUS
 62
     7
100
AcDbPolyline
 90
        2
 70
   128
 43
0.0
 10
7.876157829291376
 20
16.44295864961232
 10
7.876257423244745
 20
16.8464561923999
  0
LWPOLYLINE
  5
A3
330
A
100
AcDbEntity
  8
ADP1DETAIL
  6
CONTINUOUS
 62
     7
100
AcDbPolyline
 90
        2
 70
   128
 43
0.0
 10
9.119712504307793
 20
16.5339561923999
 10
8.617755872345966
 20
16.59728900896137
  0
LWPOLYLINE
  5
A7
330
A
100
AcDbEntity
  8
ADP1DETAIL
  6
CONTINUOUS
 62
     7
100
AcDbPolyline
 90
        2
 70
   128
 43
0.0
 10
9.876257423244746
 20
16.5339561923999
 10
9.996998151530879
 20
16.56630857303771
  0
LWPOLYLINE
  5
AB
330
A
100
AcDbEntity
  8
ADP1DETAIL
  6
CONTINUOUS
 62
     7
100
AcDbPolyline
 90
        2
 70
   128
 43
0.0
 10
9.876257423244746
 20
16.5339561923999
 10
9.996998151530879
 20
16.56630857303771
  0
LWPOLYLINE
  5
AF
330
A
100
AcDbEntity
  8
ADP1DETAIL
  6
CONTINUOUS
 62
     7
100
AcDbPolyline
 90
        2
 70
   128
 43
0.0
 10
9.876257423244746
 20
16.6589561923999
 10
9.876257423244746
 20
16.5339561923999
  0
LWPOLYLINE
  5
B3
330
A
100
AcDbEntity
  8
ADP1DETAIL
  6
CONTINUOUS
 62
     7
100
AcDbPolyline
 90
        2
 70
   128
 43
0.0
 10
9.876257423244746
 20
16.6589561923999
 10
9.876257423244746
 20
16.5339561923999
  0
ARC
  5
B7
330
A
100
AcDbEntity
  8
ADP2DETAIL
  6
CONTINUOUS
 62
     5
100
AcDbCircle
 10
-10.6977178814225
 20
16.8464561923999
 30
0.0
 40
0.75
210
0.0
220
0.0
230
-1.0
100
AcDbArc
 50
338.2197748746755
 51
360.0000000000008
  0
LWPOLYLINE
  5
B8
330
A
100
AcDbEntity
  8
ADP1DETAIL
  6
CONTINUOUS
 62
     7
100
AcDbPolyline
 90
        2
 70
   128
 43
0.0
 10
10.00125742324474
 20
16.56817067320275
 10
10.00125742324474
 20
16.8464561923999
  0
ARC
  5
BC
330
A
100
AcDbEntity
  8
ADP2DETAIL
  6
CONTINUOUS
 62
     5
100
AcDbCircle
 10
-10.6977178814225
 20
16.8464561923999
 30
0.0
 40
0.75
210
0.0
220
0.0
230
-1.0
100
AcDbArc
 50
338.2197748746755
 51
360.0000000000008
  0
LWPOLYLINE
  5
BD
330
A
100
AcDbEntity
  8
ADP1DETAIL
  6
CONTINUOUS
 62
     7
100
AcDbPolyline
 90
        2
 70
   128
 43
0.0
 10
10.00125742324474
 20
16.56817067320275
 10
10.00125742324474
 20
16.8464561923999
  0
LWPOLYLINE
  5
C1
330
A
100
AcDbEntity
  8
ADP1DETAIL
  6
CONTINUOUS
 62
     7
100
AcDbPolyline
 90
        2
 70
   128
 43
0.0
 10
9.996998151530879
 20
16.56630857303771
 10
9.996998151530879
 20
16.56630857303771
  0
LWPOLYLINE
  5
C5
330
A
100
AcDbEntity
  8
ADP1DETAIL
  6
CONTINUOUS
 62
     7
100
AcDbPolyline
 90
        2
 70
   128
 43
0.0
 10
9.996998151530879
 20
16.56630857303771
 10
9.996998151530879
 20
16.56630857303771
  0
ARC
  5
C9
330
A
100
AcDbEntity
  8
ADP1DETAIL
  6
CONTINUOUS
 62
     7
100
AcDbCircle
 10
-13.57572832524803
 20
16.81875651300745
 30
0.0
 40
0.3745000000000012
210
0.0
220
0.0
230
-1.0
100
AcDbArc
 50
180.0
 51
270.0000000000008
  0
ARC
  5
CA
330
A
100
AcDbEntity
  8
ADP1DETAIL
  6
CONTINUOUS
 62
     7
100
AcDbCircle
 10
-13.57472832524804
 20
16.81875651300745
 30
0.0
 40
0.3744999999999994
210
0.0
220
0.0
230
-1.0
100
AcDbArc
 50
270.0000000000008
 51
360.0000000000008
  0
LWPOLYLINE
  5
CB
330
A
100
AcDbEntity
  8
ADP1DETAIL
  6
CONTINUOUS
 62
     7
100
AcDbPolyline
 90
        2
 70
   128
 43
0.0
 10
13.57572832524803
 20
16.44425651300745
 10
13.57472832524804
 20
16.44425651300745
  0
LWPOLYLINE
  5
CF
330
A
100
AcDbEntity
  8
ADP2DETAIL
  6
CONTINUOUS
 62
     5
100
AcDbPolyline
 90
        2
 70
   128
 43
0.0
 10
12.32522832524804
 20
17.88125651300745
 10
13.32634396882711
 20
17.88125651300745
  0
LWPOLYLINE
  5
D3
330
A
100
AcDbEntity
  8
ADP1DETAIL
  6
CONTINUOUS
 62
     7
100
AcDbPolyline
 90
        2
 70
   128
 43
0.0
 10
12.32522832524804
 20
18.00030191463557
 10
13.07522832524804
 20
18.00030191463557
  0
LWPOLYLINE
  5
D7
330
A
100
AcDbEntity
  8
ADP1DETAIL
  6
CONTINUOUS
 62
     7
100
AcDbPolyline
 90
        2
 70
   128
 43
0.0
 10
13.07522832524804
 20
17.69325651300746
 10
12.32522832524804
 20
17.69325651300746
  0
LWPOLYLINE
  5
DB
330
A
100
AcDbEntity
  8
ADP1DETAIL
  6
CONTINUOUS
 62
     7
100
AcDbPolyline
 90
        2
 70
   128
 43
0.0
 10
9.126257423244746
 20
17.7839561923999
 10
9.876257423244746
 20
17.7839561923999
  0
ARC
  5
DF
330
A
100
AcDbEntity
  8
ADP1DETAIL
  6
CONTINUOUS
 62
     7
100
AcDbCircle
 10
-9.501257423244746
 20
18.7809561923999
 30
0.0
 40
0.8099999999999988
210
0.0
220
0.0
230
-1.0
100
AcDbArc
 50
242.4215320218777
 51
297.5784679781239
  0
LWPOLYLINE
  5
E0
330
A
100
AcDbEntity
  8
ADP1DETAIL
  6
CONTINUOUS
 62
     7
100
AcDbPolyline
 90
        2
 70
   128
 43
0.0
 10
7.876257423244745
 20
17.2214561923999
 10
8.617755872345966
 20
17.0964561923999
  0
LWPOLYLINE
  5
E4
330
A
100
AcDbEntity
  8
ADP1DETAIL
  6
CONTINUOUS
 62
     7
100
AcDbPolyline
 90
        2
 70
   128
 43
0.0
 10
7.298220214492492
 20
17.45971549458796
 10
7.74368277949511
 20
17.34834985333731
  0
ARC
  5
E8
330
A
100
AcDbEntity
  8
ADP1DETAIL
  6
CONTINUOUS
 62
     7
100
AcDbCircle
 10
-7.313257423244746
 20
17.51986432959697
 30
0.0
 40
0.0620000000000003
210
0.0
220
0.0
230
-1.0
100
AcDbArc
 50
284.0362434679273
 51
360.0000000000008
  0
LWPOLYLINE
  5
E9
330
A
100
AcDbEntity
  8
ADP1DETAIL
  6
CONTINUOUS
 62
     7
100
AcDbPolyline
 90
        2
 70
   128
 43
0.0
 10
7.01368277949511
 20
18.34334985333731
 10
7.204294631996998
 20
18.29569689021184
  0
ARC
  5
ED
330
A
100
AcDbEntity
  8
ADP1DETAIL
  6
CONTINUOUS
 62
     7
100
AcDbCircle
 10
-7.011257423244747
 20
18.33364842833585
 30
0.0
 40
0.0099999999999991
210
0.0
220
0.0
230
-1.0
100
AcDbArc
 50
0.0
 51
104.0362434679264
  0
ARC
  5
EE
330
A
100
AcDbEntity
  8
ADP1DETAIL
  6
CONTINUOUS
 62
     7
100
AcDbCircle
 10
-7.189257423244744
 20
18.23554805520282
 30
0.0
 40
0.0620000000000003
210
0.0
220
0.0
230
-1.0
100
AcDbArc
 50
104.0362434679264
 51
180.0
  0
LWPOLYLINE
  5
EF
330
A
100
AcDbEntity
  8
ADP1DETAIL
  6
CONTINUOUS
 62
     7
100
AcDbPolyline
 90
        2
 70
   128
 43
0.0
 10
7.751257423244745
 20
17.2839561923999
 10
7.876157829291376
 20
17.24995373518748
  0
ARC
  5
F3
330
A
100
AcDbEntity
  8
ADP1DETAIL
  6
CONTINUOUS
 62
     7
100
AcDbCircle
 10
-7.741257423244747
 20
17.33864842833585
 30
0.0
 40
0.0099999999999998
210
0.0
220
0.0
230
-1.0
100
AcDbArc
 50
104.0362434679264
 51
180.0
  0
LWPOLYLINE
  5
F4
330
A
100
AcDbEntity
  8
ADP1DETAIL
  6
CONTINUOUS
 62
     7
100
AcDbPolyline
 90
        2
 70
   128
 43
0.0
 10
8.617755872345966
 20
17.0964561923999
 10
9.119712504307793
 20
17.1589561923999
  0
LWPOLYLINE
  5
F8
330
A
100
AcDbEntity
  8
ADP2DETAIL
  6
CONTINUOUS
 62
     5
100
AcDbPolyline
 90
        2
 70
   128
 43
0.0
 10
9.407257423244745
 20
17.8459561923999
 10
9.345257423244746
 20
17.7839561923999
  0
LWPOLYLINE
  5
FC
330
A
100
AcDbEntity
  8
ADP2DETAIL
  6
CONTINUOUS
 62
     5
100
AcDbPolyline
 90
        2
 70
   128
 43
0.0
 10
9.407257423244745
 20
17.9709561923999
 10
9.407257423244745
 20
17.8459561923999
  0
LWPOLYLINE
  5
100
330
A
100
AcDbEntity
  8
ADP1DETAIL
  6
CONTINUOUS
 62
     7
100
AcDbPolyline
 90
        2
 70
   128
 43
0.0
 10
9.876257423244746
 20
17.1589561923999
 10
9.996998151530879
 20
17.12660381176208
  0
LWPOLYLINE
  5
104
330
A
100
AcDbEntity
  8
ADP1DETAIL
  6
CONTINUOUS
 62
     7
100
AcDbPolyline
 90
        2
 70
   128
 43
0.0
 10
9.876257423244746
 20
17.1589561923999
 10
9.996998151530879
 20
17.12660381176208
  0
LWPOLYLINE
  5
108
330
A
100
AcDbEntity
  8
ADP1DETAIL
  6
CONTINUOUS
 62
     7
100
AcDbPolyline
 90
        2
 70
   128
 43
0.0
 10
9.876257423244746
 20
17.0339561923999
 10
9.876257423244746
 20
17.1589561923999
  0
LWPOLYLINE
  5
10C
330
A
100
AcDbEntity
  8
ADP1DETAIL
  6
CONTINUOUS
 62
     7
100
AcDbPolyline
 90
        2
 70
   128
 43
0.0
 10
9.876257423244746
 20
17.0339561923999
 10
9.876257423244746
 20
17.1589561923999
  0
LWPOLYLINE
  5
110
330
A
100
AcDbEntity
  8
ADP1DETAIL
  6
CONTINUOUS
 62
     7
100
AcDbPolyline
 90
        2
 70
   128
 43
0.0
 10
9.996998151530879
 20
17.12660381176208
 10
9.996998151530879
 20
17.12660381176208
  0
LWPOLYLINE
  5
114
330
A
100
AcDbEntity
  8
ADP1DETAIL
  6
CONTINUOUS
 62
     7
100
AcDbPolyline
 90
        2
 70
   128
 43
0.0
 10
9.996998151530879
 20
17.12660381176208
 10
9.996998151530879
 20
17.12660381176208
  0
LWPOLYLINE
  5
118
330
A
100
AcDbEntity
  8
ADP2DETAIL
  6
CONTINUOUS
 62
     5
100
AcDbPolyline
 90
        2
 70
   128
 43
0.0
 10
9.595257423244746
 20
17.8459561923999
 10
9.657257423244747
 20
17.7839561923999
  0
LWPOLYLINE
  5
11C
330
A
100
AcDbEntity
  8
ADP2DETAIL
  6
CONTINUOUS
 62
     5
100
AcDbPolyline
 90
        2
 70
   128
 43
0.0
 10
9.595257423244746
 20
17.9709561923999
 10
9.595257423244746
 20
17.8459561923999
  0
LWPOLYLINE
  5
120
330
A
100
AcDbEntity
  8
ADP1DETAIL
  6
CONTINUOUS
 62
     7
100
AcDbPolyline
 90
        2
 70
   128
 43
0.0
 10
12.32522832524804
 20
17.69325651300746
 10
12.32522832524804
 20
18.00030191463557
  0
ARC
  5
124
330
A
100
AcDbEntity
  8
ADP1DETAIL
  6
CONTINUOUS
 62
     7
100
AcDbCircle
 10
-14.07522832524804
 20
17.68888893346353
 30
0.0
 40
0.3124999999999995
210
0.0
220
0.0
230
-1.0
100
AcDbArc
 50
0.0
 51
90.08306715293981
  0
ARC
  5
125
330
A
100
AcDbEntity
  8
ADP1DETAIL
  6
CONTINUOUS
 62
     7
100
AcDbCircle
 10
-13.57572832524803
 20
16.81558913590842
 30
0.0
 40
1.415949078414779
210
0.0
220
0.0
230
-1.0
100
AcDbArc
 50
56.79239802097721
 51
123.1566787040791
  0
ARC
  5
126
330
A
100
AcDbEntity
  8
ADP1DETAIL
  6
CONTINUOUS
 62
     7
100
AcDbCircle
 10
-13.57572832524803
 20
16.81558913590842
 30
0.0
 40
1.499999999999999
210
0.0
220
0.0
230
-1.0
100
AcDbArc
 50
52.16762091227259
 51
127.8025664359293
  0
ARC
  5
127
330
A
100
AcDbEntity
  8
ADP1DETAIL
  6
CONTINUOUS
 62
     7
100
AcDbCircle
 10
-13.07522832524804
 20
17.68780191463557
 30
0.0
 40
0.3125
210
0.0
220
0.0
230
-1.0
100
AcDbArc
 50
90.0
 51
180.0
  0
ARC
  5
128
330
A
100
AcDbEntity
  8
ADP1DETAIL
  6
CONTINUOUS
 62
     7
100
AcDbCircle
 10
-13.07522832524804
 20
17.56825651300745
 30
0.0
 40
0.125
210
0.0
220
0.0
230
-1.0
100
AcDbArc
 50
90.0
 51
180.0
  0
LWPOLYLINE
  5
129
330
A
100
AcDbEntity
  8
ADP2DETAIL
  6
CONTINUOUS
 62
     5
100
AcDbPolyline
 90
        2
 70
   128
 43
0.0
 10
12.56974639889658
 20
17.76175741407399
 10
12.50774639889658
 20
17.69975741407399
  0
LWPOLYLINE
  5
12D
330
A
100
AcDbEntity
  8
ADP2DETAIL
  6
CONTINUOUS
 62
     5
100
AcDbPolyline
 90
        2
 70
   128
 43
0.0
 10
12.56974639889658
 20
17.88675741407399
 10
12.56974639889658
 20
17.76175741407399
  0
LWPOLYLINE
  5
131
330
A
100
AcDbEntity
  8
ADP2DETAIL
  6
CONTINUOUS
 62
     5
100
AcDbPolyline
 90
        2
 70
   128
 43
0.0
 10
12.75774639889658
 20
17.76175741407399
 10
12.81974639889658
 20
17.69975741407399
  0
LWPOLYLINE
  5
135
330
A
100
AcDbEntity
  8
ADP2DETAIL
  6
CONTINUOUS
 62
     5
100
AcDbPolyline
 90
        2
 70
   128
 43
0.0
 10
12.75774639889658
 20
17.88675741407399
 10
12.75774639889658
 20
17.76175741407399
  0
LWPOLYLINE
  5
139
330
A
100
AcDbEntity
  8
ADP1DETAIL
  6
CONTINUOUS
 62
     7
100
AcDbPolyline
 90
        2
 70
   128
 43
0.0
 10
13.38772832524804
 20
17.06521335348356
 10
13.38772832524804
 20
18.01976085226711
  0
LWPOLYLINE
  5
13D
330
A
100
AcDbEntity
  8
ADP1DETAIL
  6
CONTINUOUS
 62
     7
100
AcDbPolyline
 90
        2
 70
   128
 43
0.0
 10
13.76158305809378
 20
17.06521335348356
 10
13.76158305809378
 20
18.01976085226711
  0
LWPOLYLINE
  5
141
330
A
100
AcDbEntity
  8
ADP2DETAIL
  6
CONTINUOUS
 62
     5
100
AcDbPolyline
 90
        2
 70
   128
 43
0.0
 10
13.38658305809378
 20
17.90023838387126
 10
13.76158305809378
 20
17.90023838387126
  0
LWPOLYLINE
  5
145
330
A
100
AcDbEntity
  8
ADP1DETAIL
  6
CONTINUOUS
 62
     7
100
AcDbPolyline
 90
        2
 70
   128
 43
0.0
 10
13.39484052619339
 20
18.01928378549938
 10
13.76158305809378
 20
18.01928378549938
  0
LWPOLYLINE
  5
149
330
A
100
AcDbEntity
  8
ADP2DETAIL
  6
CONTINUOUS
 62
     5
100
AcDbPolyline
 90
        2
 70
   128
 43
0.0
 10
14.5775235623182
 20
17.74969157209212
 10
14.6395235623182
 20
17.68769157209212
  0
LWPOLYLINE
  5
14D
330
A
100
AcDbEntity
  8
ADP1DETAIL
  6
CONTINUOUS
 62
     7
100
AcDbPolyline
 90
        2
 70
   128
 43
0.0
 10
14.82522832524804
 20
18.00030191463557
 10
14.07568138612653
 20
18.0013886050407
  0
LWPOLYLINE
  5
151
330
A
100
AcDbEntity
  8
ADP2DETAIL
  6
CONTINUOUS
 62
     5
100
AcDbPolyline
 90
        2
 70
   128
 43
0.0
 10
14.82522832524804
 20
17.88125651300745
 10
13.85041048575177
 20
17.88234320341258
  0
LWPOLYLINE
  5
155
330
A
100
AcDbEntity
  8
ADP1DETAIL
  6
CONTINUOUS
 62
     7
100
AcDbPolyline
 90
        2
 70
   128
 43
0.0
 10
14.82522832524804
 20
17.69325651300746
 10
14.07522832524804
 20
17.69325651300746
  0
ARC
  5
159
330
A
100
AcDbEntity
  8
ADP1DETAIL
  6
CONTINUOUS
 62
     7
100
AcDbCircle
 10
-14.07522832524804
 20
17.56825651300745
 30
0.0
 40
0.125
210
0.0
220
0.0
230
-1.0
100
AcDbArc
 50
0.0
 51
90.0
  0
LWPOLYLINE
  5
15A
330
A
100
AcDbEntity
  8
ADP2DETAIL
  6
CONTINUOUS
 62
     5
100
AcDbPolyline
 90
        2
 70
   128
 43
0.0
 10
14.5775235623182
 20
17.87469157209212
 10
14.5775235623182
 20
17.74969157209212
  0
LWPOLYLINE
  5
15E
330
A
100
AcDbEntity
  8
ADP2DETAIL
  6
CONTINUOUS
 62
     5
100
AcDbPolyline
 90
        2
 70
   128
 43
0.0
 10
14.3895235623182
 20
17.74969157209212
 10
14.3275235623182
 20
17.68769157209212
  0
LWPOLYLINE
  5
162
330
A
100
AcDbEntity
  8
ADP2DETAIL
  6
CONTINUOUS
 62
     5
100
AcDbPolyline
 90
        2
 70
   128
 43
0.0
 10
14.3895235623182
 20
17.87469157209212
 10
14.3895235623182
 20
17.74969157209212
  0
LWPOLYLINE
  5
166
330
A
100
AcDbEntity
  8
ADP1DETAIL
  6
CONTINUOUS
 62
     7
100
AcDbPolyline
 90
        2
 70
   128
 43
0.0
 10
14.82961825687848
 20
17.69510126166168
 10
14.82961825687848
 20
18.00214666328979
  0
LWPOLYLINE
  5
16A
330
A
100
AcDbEntity
  8
ADPDIM
  6
CONTINUOUS
 62
     3
 48
0.125
100
AcDbPolyline
 90
        2
 70
   128
 43
0.0
 10
12.26272832524804
 20
17.88125651300745
 10
11.3374970793627
 20
17.88125651300745
  0
LWPOLYLINE
  5
16E
330
A
100
AcDbEntity
  8
ADPDIM
  6
CONTINUOUS
 62
     3
 48
0.125
100
AcDbPolyline
 90
        2
 70
   128
 43
0.0
 10
13.42322832524803
 20
16.81558913590842
 10
11.3374970793627
 20
16.81558913590842
  0
LWPOLYLINE
  5
172
330
A
100
AcDbEntity
  8
ADPDIM
  6
CONTINUOUS
 62
     3
 48
0.125
100
AcDbPolyline
 90
        2
 70
   128
 43
0.0
 10
11.5174970793627
 20
17.88125651300745
 10
11.5174970793627
 20
18.13125651300745
  0
LWPOLYLINE
  5
176
330
A
100
AcDbEntity
  8
ADPDIM
  6
CONTINUOUS
 62
     3
 48
0.125
100
AcDbPolyline
 90
        2
 70
   128
 43
0.0
 10
11.5174970793627
 20
16.81558913590842
 10
11.5174970793627
 20
16.56558913590842
  0
LWPOLYLINE
  5
17A
330
A
100
AcDbEntity
  8
ADPDIM
  6
CONTINUOUS
 62
     3
 48
0.125
100
AcDbPolyline
 90
        2
 70
   128
 43
0.0
 10
11.6424970793627
 20
17.75625651300745
 10
11.3924970793627
 20
18.00625651300745
  0
LWPOLYLINE
  5
17E
330
A
100
AcDbEntity
  8
ADPDIM
  6
CONTINUOUS
 62
     3
 48
0.125
100
AcDbPolyline
 90
        2
 70
   128
 43
0.0
 10
11.6424970793627
 20
16.69058913590842
 10
11.3924970793627
 20
16.94058913590842
  0
TEXT
  5
182
330
A
100
AcDbEntity
  8
ADPDIM
 62
     3
 48
0.0
100
AcDbText
 10
11.5799970793627
 20
15.85725580257509
 30
0.0
 40
0.125
  1
1 1/16
 50
90.0
 72
     5
 11
11.5799970793627
 21
16.44058913590842
 31
0.0
100
AcDbText
  0
LWPOLYLINE
  5
183
330
A
100
AcDbEntity
  8
ADPDIM
  6
CONTINUOUS
 62
     3
 48
0.125
100
AcDbPolyline
 90
        2
 70
   128
 43
0.0
 10
12.34407119610619
 20
15.95942284584904
 10
12.01859935030008
 20
15.7331764204849
  0
LWPOLYLINE
  5
187
330
A
100
AcDbEntity
  8
ADPDIM
  6
CONTINUOUS
 62
     3
 48
0.125
100
AcDbPolyline
 90
        2
 70
   128
 43
0.0
 10
12.31278029284932
 20
15.7854375609156
 10
12.37536209936306
 20
16.13340813078247
  0
LWPOLYLINE
  5
18B
330
A
100
AcDbEntity
  8
ADPDIM
  6
CONTINUOUS
 62
     3
 48
0.125
100
AcDbPolyline
 90
        2
 70
   128
 43
0.0
 10
13.38822832524804
 20
16.81558913590843
 10
13.76322832524804
 20
16.81558913590843
  0
LWPOLYLINE
  5
18F
330
A
100
AcDbEntity
  8
ADPDIM
  6
CONTINUOUS
 62
     3
 48
0.125
100
AcDbPolyline
 90
        2
 70
   128
 43
0.0
 10
13.57572832524804
 20
16.62808913590843
 10
13.57572832524804
 20
17.00308913590843
  0
TEXT
  5
193
330
A
100
AcDbEntity
  8
ADPDIM
 62
     3
 48
0.0
100
AcDbText
 10
11.78057136146547
 20
15.49159819786857
 30
0.0
 40
0.1250000000000001
  1
%%c3
 50
34.80446286883247
 72
     5
 11
11.95163485162406
 21
15.61051018259904
 31
0.0
100
AcDbText
  0
LWPOLYLINE
  5
194
330
A
100
AcDbEntity
  8
ADPDIM
  6
CONTINUOUS
 62
     3
 48
0.125
100
AcDbPolyline
 90
        2
 70
   128
 43
0.0
 10
12.32522832524804
 20
18.06280191463557
 10
12.32522832524804
 20
19.00802227029315
  0
LWPOLYLINE
  5
198
330
A
100
AcDbEntity
  8
ADPDIM
  6
CONTINUOUS
 62
     3
 48
0.125
100
AcDbPolyline
 90
        2
 70
   128
 43
0.0
 10
14.82522832524804
 20
18.00625651300745
 10
14.82522832524804
 20
19.00802227029315
  0
LWPOLYLINE
  5
19C
330
A
100
AcDbEntity
  8
ADPDIM
  6
CONTINUOUS
 62
     3
 48
0.125
100
AcDbPolyline
 90
        2
 70
   128
 43
0.0
 10
12.32522832524804
 20
18.82802227029315
 10
13.17939499191471
 20
18.82802227029315
  0
LWPOLYLINE
  5
1A0
330
A
100
AcDbEntity
  8
ADPDIM
  6
CONTINUOUS
 62
     3
 48
0.125
100
AcDbPolyline
 90
        2
 70
   128
 43
0.0
 10
14.82522832524804
 20
18.82802227029315
 10
13.97106165858137
 20
18.82802227029315
  0
LWPOLYLINE
  5
1A4
330
A
100
AcDbEntity
  8
ADPDIM
  6
CONTINUOUS
 62
     3
 48
0.125
100
AcDbPolyline
 90
        2
 70
   128
 43
0.0
 10
12.20022832524804
 20
18.70302227029315
 10
12.45022832524804
 20
18.95302227029315
  0
LWPOLYLINE
  5
1A8
330
A
100
AcDbEntity
  8
ADPDIM
  6
CONTINUOUS
 62
     3
 48
0.125
100
AcDbPolyline
 90
        2
 70
   128
 43
0.0
 10
14.70022832524804
 20
18.70302227029315
 10
14.95022832524804
 20
18.95302227029315
  0
TEXT
  5
1AC
330
A
100
AcDbEntity
  8
ADPDIM
 62
     3
 48
0.0
100
AcDbText
 10
13.30439499191471
 20
18.76552227029315
 30
0.0
 40
0.125
  1
2 1/2
 72
     5
 11
13.84606165858137
 21
18.76552227029315
 31
0.0
100
AcDbText
  0
LWPOLYLINE
  5
1AD
330
A
100
AcDbEntity
  8
ADPDIM
  6
CONTINUOUS
 62
     3
 48
0.125
100
AcDbPolyline
 90
        2
 70
   128
 43
0.0
 10
9.513257423244747
 20
18.12549031577344
 10
9.513257423244747
 20
18.66391809637546
  0
LWPOLYLINE
  5
1B1
330
A
100
AcDbEntity
  8
ADPDIM
  6
CONTINUOUS
 62
     3
 48
0.125
100
AcDbPolyline
 90
        2
 70
   128
 43
0.0
 10
7.01368277949511
 20
18.40584985333731
 10
7.01368277949511
 20
18.66391809637546
  0
LWPOLYLINE
  5
1B5
330
A
100
AcDbEntity
  8
ADPDIM
  6
CONTINUOUS
 62
     3
 48
0.125
100
AcDbPolyline
 90
        2
 70
   128
 43
0.0
 10
9.513257423244747
 20
18.48391809637546
 10
8.659303434703263
 20
18.48391809637546
  0
LWPOLYLINE
  5
1B9
330
A
100
AcDbEntity
  8
ADPDIM
  6
CONTINUOUS
 62
     3
 48
0.125
100
AcDbPolyline
 90
        2
 70
   128
 43
0.0
 10
7.01368277949511
 20
18.48391809637546
 10
7.867636768036596
 20
18.48391809637546
  0
LWPOLYLINE
  5
1BD
330
A
100
AcDbEntity
  8
ADPDIM
  6
CONTINUOUS
 62
     3
 48
0.125
100
AcDbPolyline
 90
        2
 70
   128
 43
0.0
 10
9.388257423244747
 20
18.35891809637546
 10
9.638257423244747
 20
18.60891809637546
  0
LWPOLYLINE
  5
1C1
330
A
100
AcDbEntity
  8
ADPDIM
  6
CONTINUOUS
 62
     3
 48
0.125
100
AcDbPolyline
 90
        2
 70
   128
 43
0.0
 10
6.88868277949511
 20
18.35891809637546
 10
7.13868277949511
 20
18.60891809637546
  0
TEXT
  5
1C5
330
A
100
AcDbEntity
  8
ADPDIM
 62
     3
 48
0.0
100
AcDbText
 10
7.992636768036596
 20
18.42141809637546
 30
0.0
 40
0.125
  1
2 1/2
 72
     5
 11
8.534303434703261
 21
18.42141809637546
 31
0.0
100
AcDbText
  0
LWPOLYLINE
  5
1C6
330
A
100
AcDbEntity
  8
ADPDIM
  6
CONTINUOUS
 62
     3
 48
0.125
100
AcDbPolyline
 90
        2
 70
   128
 43
0.0
 10
9.126257423244746
 20
18.12549031577344
 10
9.126257423244746
 20
18.38408803774496
  0
LWPOLYLINE
  5
1CA
330
A
100
AcDbEntity
  8
ADPDIM
  6
CONTINUOUS
 62
     3
 48
0.125
100
AcDbPolyline
 90
        2
 70
   128
 43
0.0
 10
9.876257423244746
 20
18.12549031577344
 10
9.876257423244746
 20
18.38408803774496
  0
LWPOLYLINE
  5
1CE
330
A
100
AcDbEntity
  8
ADPDIM
  6
CONTINUOUS
 62
     3
 48
0.125
100
AcDbPolyline
 90
        2
 70
   128
 43
0.0
 10
9.126257423244746
 20
18.20408803774496
 10
8.876257423244746
 20
18.20408803774496
  0
LWPOLYLINE
  5
1D2
330
A
100
AcDbEntity
  8
ADPDIM
  6
CONTINUOUS
 62
     3
 48
0.125
100
AcDbPolyline
 90
        2
 70
   128
 43
0.0
 10
9.876257423244746
 20
18.20408803774496
 10
10.12625742324474
 20
18.20408803774496
  0
LWPOLYLINE
  5
1D6
330
A
100
AcDbEntity
  8
ADPDIM
  6
CONTINUOUS
 62
     3
 48
0.125
100
AcDbPolyline
 90
        2
 70
   128
 43
0.0
 10
9.001257423244746
 20
18.07908803774496
 10
9.251257423244746
 20
18.32908803774496
  0
LWPOLYLINE
  5
1DA
330
A
100
AcDbEntity
  8
ADPDIM
  6
CONTINUOUS
 62
     3
 48
0.125
100
AcDbPolyline
 90
        2
 70
   128
 43
0.0
 10
9.751257423244746
 20
18.07908803774496
 10
10.00125742324474
 20
18.32908803774496
  0
TEXT
  5
1DE
330
A
100
AcDbEntity
  8
ADPDIM
 62
     3
 48
0.0
100
AcDbText
 10
10.25125742324474
 20
18.14158803774496
 30
0.0
 40
0.125
  1
3/4
 72
     5
 11
10.58459075657807
 21
18.14158803774496
 31
0.0
100
AcDbText
  0
LWPOLYLINE
  5
1DF
330
A
100
AcDbEntity
  8
ADPDIM
  6
CONTINUOUS
 62
     3
 48
0.125
100
AcDbPolyline
 90
        2
 70
   128
 43
0.0
 10
12.66256112235615
 20
17.82608915925524
 10
12.66333263052712
 20
18.65256957856535
  0
LWPOLYLINE
  5
1E3
330
A
100
AcDbEntity
  8
ADPDIM
  6
CONTINUOUS
 62
     3
 48
0.125
100
AcDbPolyline
 90
        2
 70
   128
 43
0.0
 10
14.47933218648352
 20
17.83987869294881
 10
14.47793871881365
 20
18.64395112000687
  0
LWPOLYLINE
  5
1E7
330
A
100
AcDbEntity
  8
ADPDIM
  6
CONTINUOUS
 62
     3
 48
0.125
100
AcDbPolyline
 90
        2
 70
   128
 43
0.0
 10
12.66333263052712
 20
18.47256957856535
 10
13.07999929719378
 20
18.47256957856535
  0
LWPOLYLINE
  5
1EB
330
A
100
AcDbEntity
  8
ADPDIM
  6
CONTINUOUS
 62
     3
 48
0.125
100
AcDbPolyline
 90
        2
 70
   128
 43
0.0
 10
14.47793871881365
 20
18.46395112000688
 10
14.06127205214699
 20
18.46395112000688
  0
LWPOLYLINE
  5
1EF
330
A
100
AcDbEntity
  8
ADPDIM
  6
CONTINUOUS
 62
     3
 48
0.125
100
AcDbPolyline
 90
        2
 70
   128
 43
0.0
 10
12.53833263052712
 20
18.34756957856535
 10
12.78833263052712
 20
18.59756957856535
  0
LWPOLYLINE
  5
1F3
330
A
100
AcDbEntity
  8
ADPDIM
  6
CONTINUOUS
 62
     3
 48
0.125
100
AcDbPolyline
 90
        2
 70
   128
 43
0.0
 10
14.35293871881365
 20
18.33895112000687
 10
14.60293871881365
 20
18.58895112000688
  0
TEXT
  5
1F7
330
A
100
AcDbEntity
  8
ADPDIM
 62
     3
 48
0.0
100
AcDbText
 10
13.18440651724511
 20
18.40644422046866
 30
0.0
 40
0.125
  1
1 13/16
 72
     5
 11
13.94273985057844
 21
18.40644422046866
 31
0.0
100
AcDbText
  0
LWPOLYLINE
  5
1F8
330
A
100
AcDbEntity
  8
DEFPOINTS
  6
CONTINUOUS
 62
     3
 48
0.125
100
AcDbPolyline
 90
        2
 70
   128
 43
0.0
 10
12.32522832524804
 20
17.88125651300745
 10
12.32522832524804
 20
17.88125651300745
  0
LWPOLYLINE
  5
1FC
330
A
100
AcDbEntity
  8
DEFPOINTS
  6
CONTINUOUS
 62
     3
 48
0.125
100
AcDbPolyline
 90
        2
 70
   128
 43
0.0
 10
12.32522832524804
 20
17.88125651300745
 10
12.32522832524804
 20
17.88125651300745
  0
LWPOLYLINE
  5
200
330
A
100
AcDbEntity
  8
DEFPOINTS
  6
CONTINUOUS
 62
     3
 48
0.125
100
AcDbPolyline
 90
        2
 70
   128
 43
0.0
 10
13.48572832524804
 20
16.81558913590842
 10
13.48572832524804
 20
16.81558913590842
  0
LWPOLYLINE
  5
204
330
A
100
AcDbEntity
  8
DEFPOINTS
  6
CONTINUOUS
 62
     3
 48
0.125
100
AcDbPolyline
 90
        2
 70
   128
 43
0.0
 10
13.48572832524804
 20
16.81558913590842
 10
13.48572832524804
 20
16.81558913590842
  0
LWPOLYLINE
  5
208
330
A
100
AcDbEntity
  8
DEFPOINTS
  6
CONTINUOUS
 62
     3
 48
0.125
100
AcDbPolyline
 90
        2
 70
   128
 43
0.0
 10
11.5174970793627
 20
16.81558913590842
 10
11.5174970793627
 20
16.81558913590842
  0
LWPOLYLINE
  5
20C
330
A
100
AcDbEntity
  8
DEFPOINTS
  6
CONTINUOUS
 62
     3
 48
0.125
100
AcDbPolyline
 90
        2
 70
   128
 43
0.0
 10
11.5174970793627
 20
16.81558913590842
 10
11.5174970793627
 20
16.81558913590842
  0
LWPOLYLINE
  5
210
330
A
100
AcDbEntity
  8
DEFPOINTS
  6
CONTINUOUS
 62
     3
 48
0.125
100
AcDbPolyline
 90
        2
 70
   128
 43
0.0
 10
12.34407119610619
 20
15.95942284584904
 10
12.34407119610619
 20
15.95942284584904
  0
LWPOLYLINE
  5
214
330
A
100
AcDbEntity
  8
DEFPOINTS
  6
CONTINUOUS
 62
     3
 48
0.125
100
AcDbPolyline
 90
        2
 70
   128
 43
0.0
 10
12.34407119610619
 20
15.95942284584904
 10
12.34407119610619
 20
15.95942284584904
  0
LWPOLYLINE
  5
218
330
A
100
AcDbEntity
  8
DEFPOINTS
  6
CONTINUOUS
 62
     3
 48
0.125
100
AcDbPolyline
 90
        2
 70
   128
 43
0.0
 10
14.80738545438989
 20
17.67175542596782
 10
14.80738545438989
 20
17.67175542596782
  0
LWPOLYLINE
  5
21C
330
A
100
AcDbEntity
  8
DEFPOINTS
  6
CONTINUOUS
 62
     3
 48
0.125
100
AcDbPolyline
 90
        2
 70
   128
 43
0.0
 10
14.80738545438989
 20
17.67175542596782
 10
14.80738545438989
 20
17.67175542596782
  0
LWPOLYLINE
  5
220
330
A
100
AcDbEntity
  8
DEFPOINTS
  6
CONTINUOUS
 62
     3
 48
0.125
100
AcDbPolyline
 90
        2
 70
   128
 43
0.0
 10
12.32522832524804
 20
18.00030191463557
 10
12.32522832524804
 20
18.00030191463557
  0
LWPOLYLINE
  5
224
330
A
100
AcDbEntity
  8
DEFPOINTS
  6
CONTINUOUS
 62
     3
 48
0.125
100
AcDbPolyline
 90
        2
 70
   128
 43
0.0
 10
12.32522832524804
 20
18.00030191463557
 10
12.32522832524804
 20
18.00030191463557
  0
LWPOLYLINE
  5
228
330
A
100
AcDbEntity
  8
DEFPOINTS
  6
CONTINUOUS
 62
     3
 48
0.125
100
AcDbPolyline
 90
        2
 70
   128
 43
0.0
 10
14.82522832524804
 20
17.94375651300745
 10
14.82522832524804
 20
17.94375651300745
  0
LWPOLYLINE
  5
22C
330
A
100
AcDbEntity
  8
DEFPOINTS
  6
CONTINUOUS
 62
     3
 48
0.125
100
AcDbPolyline
 90
        2
 70
   128
 43
0.0
 10
14.82522832524804
 20
17.94375651300745
 10
14.82522832524804
 20
17.94375651300745
  0
LWPOLYLINE
  5
230
330
A
100
AcDbEntity
  8
DEFPOINTS
  6
CONTINUOUS
 62
     3
 48
0.125
100
AcDbPolyline
 90
        2
 70
   128
 43
0.0
 10
14.82522832524804
 20
18.82802227029315
 10
14.82522832524804
 20
18.82802227029315
  0
LWPOLYLINE
  5
234
330
A
100
AcDbEntity
  8
DEFPOINTS
  6
CONTINUOUS
 62
     3
 48
0.125
100
AcDbPolyline
 90
        2
 70
   128
 43
0.0
 10
14.82522832524804
 20
18.82802227029315
 10
14.82522832524804
 20
18.82802227029315
  0
LWPOLYLINE
  5
238
330
A
100
AcDbEntity
  8
DEFPOINTS
  6
CONTINUOUS
 62
     3
 48
0.125
100
AcDbPolyline
 90
        2
 70
   128
 43
0.0
 10
9.513257423244747
 20
18.06299031577344
 10
9.513257423244747
 20
18.06299031577344
  0
LWPOLYLINE
  5
23C
330
A
100
AcDbEntity
  8
DEFPOINTS
  6
CONTINUOUS
 62
     3
 48
0.125
100
AcDbPolyline
 90
        2
 70
   128
 43
0.0
 10
9.513257423244747
 20
18.06299031577344
 10
9.513257423244747
 20
18.06299031577344
  0
LWPOLYLINE
  5
240
330
A
100
AcDbEntity
  8
DEFPOINTS
  6
CONTINUOUS
 62
     3
 48
0.125
100
AcDbPolyline
 90
        2
 70
   128
 43
0.0
 10
7.01368277949511
 20
18.34334985333731
 10
7.01368277949511
 20
18.34334985333731
  0
LWPOLYLINE
  5
244
330
A
100
AcDbEntity
  8
DEFPOINTS
  6
CONTINUOUS
 62
     3
 48
0.125
100
AcDbPolyline
 90
        2
 70
   128
 43
0.0
 10
7.01368277949511
 20
18.34334985333731
 10
7.01368277949511
 20
18.34334985333731
  0
LWPOLYLINE
  5
248
330
A
100
AcDbEntity
  8
DEFPOINTS
  6
CONTINUOUS
 62
     3
 48
0.125
100
AcDbPolyline
 90
        2
 70
   128
 43
0.0
 10
7.01368277949511
 20
18.48391809637546
 10
7.01368277949511
 20
18.48391809637546
  0
LWPOLYLINE
  5
24C
330
A
100
AcDbEntity
  8
DEFPOINTS
  6
CONTINUOUS
 62
     3
 48
0.125
100
AcDbPolyline
 90
        2
 70
   128
 43
0.0
 10
7.01368277949511
 20
18.48391809637546
 10
7.01368277949511
 20
18.48391809637546
  0
LWPOLYLINE
  5
250
330
A
100
AcDbEntity
  8
DEFPOINTS
  6
CONTINUOUS
 62
     3
 48
0.125
100
AcDbPolyline
 90
        2
 70
   128
 43
0.0
 10
9.126257423244746
 20
18.06299031577344
 10
9.126257423244746
 20
18.06299031577344
  0
LWPOLYLINE
  5
254
330
A
100
AcDbEntity
  8
DEFPOINTS
  6
CONTINUOUS
 62
     3
 48
0.125
100
AcDbPolyline
 90
        2
 70
   128
 43
0.0
 10
9.126257423244746
 20
18.06299031577344
 10
9.126257423244746
 20
18.06299031577344
  0
LWPOLYLINE
  5
258
330
A
100
AcDbEntity
  8
DEFPOINTS
  6
CONTINUOUS
 62
     3
 48
0.125
100
AcDbPolyline
 90
        2
 70
   128
 43
0.0
 10
9.876257423244746
 20
18.06299031577344
 10
9.876257423244746
 20
18.06299031577344
  0
LWPOLYLINE
  5
25C
330
A
100
AcDbEntity
  8
DEFPOINTS
  6
CONTINUOUS
 62
     3
 48
0.125
100
AcDbPolyline
 90
        2
 70
   128
 43
0.0
 10
9.876257423244746
 20
18.06299031577344
 10
9.876257423244746
 20
18.06299031577344
  0
LWPOLYLINE
  5
260
330
A
100
AcDbEntity
  8
DEFPOINTS
  6
CONTINUOUS
 62
     3
 48
0.125
100
AcDbPolyline
 90
        2
 70
   128
 43
0.0
 10
9.876257423244746
 20
18.20408803774496
 10
9.876257423244746
 20
18.20408803774496
  0
LWPOLYLINE
  5
264
330
A
100
AcDbEntity
  8
DEFPOINTS
  6
CONTINUOUS
 62
     3
 48
0.125
100
AcDbPolyline
 90
        2
 70
   128
 43
0.0
 10
9.876257423244746
 20
18.20408803774496
 10
9.876257423244746
 20
18.20408803774496
  0
LWPOLYLINE
  5
268
330
A
100
AcDbEntity
  8
DEFPOINTS
  6
CONTINUOUS
 62
     3
 48
0.125
100
AcDbPolyline
 90
        2
 70
   128
 43
0.0
 10
12.66333263052711
 20
17.89951522165113
 10
12.66333263052711
 20
17.89951522165113
  0
LWPOLYLINE
  5
26C
330
A
100
AcDbEntity
  8
DEFPOINTS
  6
CONTINUOUS
 62
     3
 48
0.125
100
AcDbPolyline
 90
        2
 70
   128
 43
0.0
 10
12.66333263052711
 20
17.89951522165113
 10
12.66333263052711
 20
17.89951522165113
  0
LWPOLYLINE
  5
270
330
A
100
AcDbEntity
  8
DEFPOINTS
  6
CONTINUOUS
 62
     3
 48
0.125
100
AcDbPolyline
 90
        2
 70
   128
 43
0.0
 10
14.48310979394874
 20
17.88744937966927
 10
14.48310979394874
 20
17.88744937966927
  0
LWPOLYLINE
  5
274
330
A
100
AcDbEntity
  8
DEFPOINTS
  6
CONTINUOUS
 62
     3
 48
0.125
100
AcDbPolyline
 90
        2
 70
   128
 43
0.0
 10
14.48310979394874
 20
17.88744937966927
 10
14.48310979394874
 20
17.88744937966927
  0
LWPOLYLINE
  5
278
330
A
100
AcDbEntity
  8
DEFPOINTS
  6
CONTINUOUS
 62
     3
 48
0.125
100
AcDbPolyline
 90
        2
 70
   128
 43
0.0
 10
14.47793871881365
 20
18.46395112000688
 10
14.47793871881365
 20
18.46395112000688
  0
LWPOLYLINE
  5
27C
330
A
100
AcDbEntity
  8
DEFPOINTS
  6
CONTINUOUS
 62
     3
 48
0.125
100
AcDbPolyline
 90
        2
 70
   128
 43
0.0
 10
14.47793871881365
 20
18.46395112000688
 10
14.47793871881365
 20
18.46395112000688
  0
TEXT
  5
32C
330
A
100
AcDbEntity
  8
ADPDIM
100
AcDbText
 10
4.315509764978361
 20
14.34572591108176
 30
0.0
 40
0.125
  1
J U L I U S  B L U M  &  C O . ,  I N C .      ( 8 0 0 )  5 2 6 - 6 2 9 3        W W W . J U L I U S B L U M . C O M        P A R T  N O .  2 2 1
 41
1.25
  7
ARIAL_WIDE
 72
     1
 11
10.77441153851178
 21
14.47072591108176
 31
0.0
100
AcDbText
 73
     3
  0
ENDSEC
  0
SECTION
  2
OBJECTS
  0
DICTIONARY
  5
19
330
0
100
AcDbDictionary
  3
ACAD_GROUP
350
1A
  3
ACAD_LAYOUT
350
285
  3
ACAD_MLINESTYLE
350
1B
  3
ACAD_PLOTSETTINGS
350
286
  3
ACAD_PLOTSTYLENAME
350
283
  3
ACDBHEADERROUNDTRIPXREC
350
3F6
  3
ACDBVARIABLEDICTIONARY
350
2F3
  0
DICTIONARY
  5
2E7
330
A
100
AcDbDictionary
280
     1
  3
ACAD_LAYOUTSELFREF
360
416
  0
DICTIONARY
  5
2E9
330
B
100
AcDbDictionary
280
     1
  3
ACAD_LAYOUTSELFREF
360
417
  0
DICTIONARY
  5
1A
102
{ACAD_REACTORS
330
19
102
}
330
19
100
AcDbDictionary
  0
DICTIONARY
  5
285
102
{ACAD_REACTORS
330
19
102
}
330
19
100
AcDbDictionary
  0
DICTIONARY
  5
1B
102
{ACAD_REACTORS
330
19
102
}
330
19
100
AcDbDictionary
  3
STANDARD
350
1C
  0
DICTIONARY
  5
286
102
{ACAD_REACTORS
330
19
102
}
330
19
100
AcDbDictionary
  0
ACDBDICTIONARYWDFLT
  5
283
102
{ACAD_REACTORS
330
19
102
}
330
19
100
AcDbDictionary
281
     1
  3
Normal
350
284
100
AcDbDictionaryWithDefault
340
284
  0
DICTIONARY
  5
3F6
102
{ACAD_REACTORS
330
19
102
}
330
19
100
AcDbDictionary
  3
CEPSNTYPE
350
400
  3
FINGERPRINTGUID
350
401
  3
HYPERLINKBASE
350
3F9
  3
INSUNITS
350
3FF
  3
LAYOUTDICT
350
3FB
  3
LWETCUNION
350
3FE
  3
PLOTSETDICT
350
3FC
  3
PLOTSTYLNAMDICT
350
3FD
  3
PSVPSCALE
350
403
  3
PUCSBASE
350
406
  3
PUCSORGBACK
350
40C
  3
PUCSORGBOTTOM
350
408
  3
PUCSORGFRONT
350
40B
  3
PUCSORGLEFT
350
409
  3
PUCSORGRIGHT
350
40A
  3
PUCSORGTOP
350
407
  3
PUCSORTHOREF
350
404
  3
PUCSORTHOVIEW
350
405
  3
STYLESHEET
350
3FA
  3
TSTACKALIGN
350
3F7
  3
TSTACKSIZE
350
3F8
  3
UCSBASE
350
40F
  3
UCSORGBACK
350
415
  3
UCSORGBOTTOM
350
411
  3
UCSORGFRONT
350
414
  3
UCSORGLEFT
350
412
  3
UCSORGRIGHT
350
413
  3
UCSORGTOP
350
410
  3
UCSORTHOREF
350
40D
  3
UCSORTHOVIEW
350
40E
  3
VERSIONGUID
350
402
  0
DICTIONARY
  5
2F3
102
{ACAD_REACTORS
330
19
102
}
330
19
100
AcDbDictionary
  3
DIMASSOC
350
2F4
  0
XRECORD
  5
416
102
{ACAD_REACTORS
330
2E7
102
}
330
2E7
100
AcDbXrecord
340
A
  0
XRECORD
  5
417
102
{ACAD_REACTORS
330
2E9
102
}
330
2E9
100
AcDbXrecord
340
B
  0
MLINESTYLE
  5
1C
102
{ACAD_REACTORS
330
1B
102
}
330
1B
100
AcDbMlineStyle
  2
STANDARD
 70
     0
  3

 62
     0
 51
90.00000000000019
 52
90.00000000000019
 71
     2
 49
0.5
 62
   256
  6
BYLAYER
 49
-0.5
 62
   256
  6
BYLAYER
  0
ACDBPLACEHOLDER
  5
284
102
{ACAD_REACTORS
330
283
102
}
330
283
100
AcDbPlaceHolder
280
     0
  0
XRECORD
  5
400
102
{ACAD_REACTORS
330
3F6
102
}
330
3F6
100
AcDbXrecord
 90
        0
  0
XRECORD
  5
401
102
{ACAD_REACTORS
330
3F6
102
}
330
3F6
100
AcDbXrecord
  1
{2E9B72B1-D669-41C2-A277-510BE2585C68}
  0
XRECORD
  5
3F9
102
{ACAD_REACTORS
330
3F6
102
}
330
3F6
100
AcDbXrecord
  1

  0
XRECORD
  5
3FF
102
{ACAD_REACTORS
330
3F6
102
}
330
3F6
100
AcDbXrecord
 90
        0
  0
XRECORD
  5
3FB
102
{ACAD_REACTORS
330
3F6
102
}
330
3F6
100
AcDbXrecord
340
285
  0
XRECORD
  5
3FE
102
{ACAD_REACTORS
330
3F6
102
}
330
3F6
100
AcDbXrecord
 90
    14877
  0
XRECORD
  5
3FC
102
{ACAD_REACTORS
330
3F6
102
}
330
3F6
100
AcDbXrecord
340
286
  0
XRECORD
  5
3FD
102
{ACAD_REACTORS
330
3F6
102
}
330
3F6
100
AcDbXrecord
340
283
  0
XRECORD
  5
403
102
{ACAD_REACTORS
330
3F6
102
}
330
3F6
100
AcDbXrecord
 40
0.0
  0
XRECORD
  5
406
102
{ACAD_REACTORS
330
3F6
102
}
330
3F6
100
AcDbXrecord
340
0
  0
XRECORD
  5
40C
102
{ACAD_REACTORS
330
3F6
102
}
330
3F6
100
AcDbXrecord
 10
0.0
 20
0.0
 30
0.0
  0
XRECORD
  5
408
102
{ACAD_REACTORS
330
3F6
102
}
330
3F6
100
AcDbXrecord
 10
0.0
 20
0.0
 30
0.0
  0
XRECORD
  5
40B
102
{ACAD_REACTORS
330
3F6
102
}
330
3F6
100
AcDbXrecord
 10
0.0
 20
0.0
 30
0.0
  0
XRECORD
  5
409
102
{ACAD_REACTORS
330
3F6
102
}
330
3F6
100
AcDbXrecord
 10
0.0
 20
0.0
 30
0.0
  0
XRECORD
  5
40A
102
{ACAD_REACTORS
330
3F6
102
}
330
3F6
100
AcDbXrecord
 10
0.0
 20
0.0
 30
0.0
  0
XRECORD
  5
407
102
{ACAD_REACTORS
330
3F6
102
}
330
3F6
100
AcDbXrecord
 10
0.0
 20
0.0
 30
0.0
  0
XRECORD
  5
404
102
{ACAD_REACTORS
330
3F6
102
}
330
3F6
100
AcDbXrecord
340
0
  0
XRECORD
  5
405
102
{ACAD_REACTORS
330
3F6
102
}
330
3F6
100
AcDbXrecord
 70
     0
  0
XRECORD
  5
3FA
102
{ACAD_REACTORS
330
3F6
102
}
330
3F6
100
AcDbXrecord
  1

  0
XRECORD
  5
3F7
102
{ACAD_REACTORS
330
3F6
102
}
330
3F6
100
AcDbXrecord
 90
        1
  0
XRECORD
  5
3F8
102
{ACAD_REACTORS
330
3F6
102
}
330
3F6
100
AcDbXrecord
 90
       70
  0
XRECORD
  5
40F
102
{ACAD_REACTORS
330
3F6
102
}
330
3F6
100
AcDbXrecord
340
0
  0
XRECORD
  5
415
102
{ACAD_REACTORS
330
3F6
102
}
330
3F6
100
AcDbXrecord
 10
0.0
 20
0.0
 30
0.0
  0
XRECORD
  5
411
102
{ACAD_REACTORS
330
3F6
102
}
330
3F6
100
AcDbXrecord
 10
0.0
 20
0.0
 30
0.0
  0
XRECORD
  5
414
102
{ACAD_REACTORS
330
3F6
102
}
330
3F6
100
AcDbXrecord
 10
0.0
 20
0.0
 30
0.0
  0
XRECORD
  5
412
102
{ACAD_REACTORS
330
3F6
102
}
330
3F6
100
AcDbXrecord
 10
0.0
 20
0.0
 30
0.0
  0
XRECORD
  5
413
102
{ACAD_REACTORS
330
3F6
102
}
330
3F6
100
AcDbXrecord
 10
0.0
 20
0.0
 30
0.0
  0
XRECORD
  5
410
102
{ACAD_REACTORS
330
3F6
102
}
330
3F6
100
AcDbXrecord
 10
0.0
 20
0.0
 30
0.0
  0
XRECORD
  5
40D
102
{ACAD_REACTORS
330
3F6
102
}
330
3F6
100
AcDbXrecord
340
0
  0
XRECORD
  5
40E
102
{ACAD_REACTORS
330
3F6
102
}
330
3F6
100
AcDbXrecord
 70
     0
  0
XRECORD
  5
402
102
{ACAD_REACTORS
330
3F6
102
}
330
3F6
100
AcDbXrecord
  1
{4DEF1988-9A7F-42C6-A5BB-877BAAF7214B}
  0
DICTIONARYVAR
  5
2F4
102
{ACAD_REACTORS
330
2F3
102
}
330
2F3
100
DictionaryVariables
280
     0
  1
1
  0
ENDSEC
  0
EOF
