  0
SECTION
  2
HEADER
  9
$ACADVER
  1
AC1014
  9
$ACADMAINTVER
 70
     9
  9
$DWGCODEPAGE
  3
ANSI_1252
  9
$INSBASE
 10
0.0
 20
0.0
 30
0.0
  9
$EXTMIN
 10
22.37919311833943
 20
7.09033257621601
 30
0.0
  9
$EXTMAX
 10
35.29699666540628
 20
12.15226219921341
 30
0.0
  9
$LIMMIN
 10
0.0
 20
0.0
  9
$LIMMAX
 10
0.0
 20
0.0
  9
$ORTHOMODE
 70
     1
  9
$REGENMODE
 70
     1
  9
$FILLMODE
 70
     1
  9
$QTEXTMODE
 70
     0
  9
$MIRRTEXT
 70
     1
  9
$DRAGMODE
 70
     0
  9
$LTSCALE
 40
1.0
  9
$OSMODE
 70
    37
  9
$ATTMODE
 70
     1
  9
$TEXTSIZE
 40
0.0
  9
$TRACEWID
 40
0.05
  9
$TEXTSTYLE
  7
STANDARD
  9
$CLAYER
  8
0
  9
$CELTYPE
  6
CONTINUOUS
  9
$CECOLOR
 62
   256
  9
$CELTSCALE
 40
1.0
  9
$DELOBJ
 70
     1
  9
$DISPSILH
 70
     0
  9
$DIMSCALE
 40
1.0
  9
$DIMASZ
 40
0.18
  9
$DIMEXO
 40
0.0625
  9
$DIMDLI
 40
0.38
  9
$DIMRND
 40
0.0
  9
$DIMDLE
 40
0.0
  9
$DIMEXE
 40
0.18
  9
$DIMTP
 40
0.0
  9
$DIMTM
 40
0.0
  9
$DIMTXT
 40
0.18
  9
$DIMCEN
 40
0.09
  9
$DIMTSZ
 40
0.0
  9
$DIMTOL
 70
     0
  9
$DIMLIM
 70
     0
  9
$DIMTIH
 70
     1
  9
$DIMTOH
 70
     1
  9
$DIMSE1
 70
     0
  9
$DIMSE2
 70
     0
  9
$DIMTAD
 70
     0
  9
$DIMZIN
 70
     0
  9
$DIMBLK
  1

  9
$DIMASO
 70
     1
  9
$DIMSHO
 70
     1
  9
$DIMPOST
  1

  9
$DIMAPOST
  1

  9
$DIMALT
 70
     0
  9
$DIMALTD
 70
     2
  9
$DIMALTF
 40
25.4
  9
$DIMLFAC
 40
1.0
  9
$DIMTOFL
 70
     0
  9
$DIMTVP
 40
0.0
  9
$DIMTIX
 70
     0
  9
$DIMSOXD
 70
     0
  9
$DIMSAH
 70
     0
  9
$DIMBLK1
  1

  9
$DIMBLK2
  1

  9
$DIMSTYLE
  2
STANDARD
  9
$DIMCLRD
 70
     0
  9
$DIMCLRE
 70
     0
  9
$DIMCLRT
 70
     0
  9
$DIMTFAC
 40
1.0
  9
$DIMGAP
 40
0.09
  9
$DIMJUST
 70
     0
  9
$DIMSD1
 70
     0
  9
$DIMSD2
 70
     0
  9
$DIMTOLJ
 70
     1
  9
$DIMTZIN
 70
     0
  9
$DIMALTZ
 70
     0
  9
$DIMALTTZ
 70
     0
  9
$DIMFIT
 70
     3
  9
$DIMUPT
 70
     0
  9
$DIMUNIT
 70
     2
  9
$DIMDEC
 70
     4
  9
$DIMTDEC
 70
     4
  9
$DIMALTU
 70
     2
  9
$DIMALTTD
 70
     2
  9
$DIMTXSTY
  7
STANDARD
  9
$DIMAUNIT
 70
     0
  9
$LUNITS
 70
     4
  9
$LUPREC
 70
     4
  9
$SKETCHINC
 40
0.1
  9
$FILLETRAD
 40
0.0
  9
$AUNITS
 70
     0
  9
$AUPREC
 70
     0
  9
$MENU
  1
acad
  9
$ELEVATION
 40
0.0
  9
$PELEVATION
 40
0.0
  9
$THICKNESS
 40
0.0
  9
$LIMCHECK
 70
     0
  9
$BLIPMODE
 70
     0
  9
$CHAMFERA
 40
0.0
  9
$CHAMFERB
 40
0.0
  9
$CHAMFERC
 40
0.0
  9
$CHAMFERD
 40
0.0
  9
$SKPOLY
 70
     0
  9
$TDCREATE
 40
2452292.677964409
  9
$TDUPDATE
 40
2452297.064691840
  9
$TDINDWG
 40
0.0020927199
  9
$TDUSRTIMER
 40
0.0020927199
  9
$USRTIMER
 70
     1
  9
$ANGBASE
 50
0.0
  9
$ANGDIR
 70
     0
  9
$PDMODE
 70
     0
  9
$PDSIZE
 40
0.0
  9
$PLINEWID
 40
0.0
  9
$COORDS
 70
     2
  9
$SPLFRAME
 70
     0
  9
$SPLINETYPE
 70
     6
  9
$SPLINESEGS
 70
     8
  9
$ATTDIA
 70
     0
  9
$ATTREQ
 70
     1
  9
$HANDLING
 70
 22529
  9
$HANDSEED
  5
2DB
  9
$SURFTAB1
 70
     6
  9
$SURFTAB2
 70
     6
  9
$SURFTYPE
 70
     6
  9
$SURFU
 70
     6
  9
$SURFV
 70
     6
  9
$UCSNAME
  2

  9
$UCSORG
 10
0.0
 20
0.0
 30
0.0
  9
$UCSXDIR
 10
1.0
 20
0.0
 30
0.0
  9
$UCSYDIR
 10
0.0
 20
1.0
 30
0.0
  9
$PUCSNAME
  2

  9
$PUCSORG
 10
0.0
 20
0.0
 30
0.0
  9
$PUCSXDIR
 10
1.0
 20
0.0
 30
0.0
  9
$PUCSYDIR
 10
0.0
 20
1.0
 30
0.0
  9
$USERI1
 70
     0
  9
$USERI2
 70
     0
  9
$USERI3
 70
     0
  9
$USERI4
 70
     0
  9
$USERI5
 70
     0
  9
$USERR1
 40
0.0
  9
$USERR2
 40
0.0
  9
$USERR3
 40
0.0
  9
$USERR4
 40
0.0
  9
$USERR5
 40
0.0
  9
$WORLDVIEW
 70
     1
  9
$SHADEDGE
 70
     3
  9
$SHADEDIF
 70
    70
  9
$TILEMODE
 70
     1
  9
$MAXACTVP
 70
    16
  9
$PINSBASE
 10
0.0
 20
0.0
 30
0.0
  9
$PLIMCHECK
 70
     0
  9
$PEXTMIN
 10
1.000000000000000E+20
 20
1.000000000000000E+20
 30
1.000000000000000E+20
  9
$PEXTMAX
 10
-1.000000000000000E+20
 20
-1.000000000000000E+20
 30
-1.000000000000000E+20
  9
$PLIMMIN
 10
0.0
 20
0.0
  9
$PLIMMAX
 10
12.0
 20
9.0
  9
$UNITMODE
 70
     0
  9
$VISRETAIN
 70
     0
  9
$PLINEGEN
 70
     0
  9
$PSLTSCALE
 70
     0
  9
$TREEDEPTH
 70
  3020
  9
$PICKSTYLE
 70
     1
  9
$CMLSTYLE
  2
STANDARD
  9
$CMLJUST
 70
     0
  9
$CMLSCALE
 40
1.0
  9
$PROXYGRAPHICS
 70
     1
  9
$MEASUREMENT
 70
     0
  0
ENDSEC
  0
SECTION
  2
CLASSES
  0
CLASS
  1
LWPOLYLINE
  2
AcDbPolyline
  3
AutoCAD 2000
 90
        0
280
     0
281
     1
  0
CLASS
  1
IMAGE
  2
AcDbRasterImage
  3
ISM
 90
      127
280
     0
281
     1
  0
CLASS
  1
OLE2FRAME
  2
AcDbOle2Frame
  3
AutoCAD 2000
 90
        0
280
     0
281
     1
  0
CLASS
  1
HATCH
  2
AcDbHatch
  3
AutoCAD 2000
 90
        0
280
     0
281
     1
  0
CLASS
  1
DICTIONARYVAR
  2
AcDbDictionaryVar
  3
AutoCAD 2000
 90
        0
280
     0
281
     0
  0
CLASS
  1
RASTERVARIABLES
  2
AcDbRasterVariables
  3
ISM
 90
        0
280
     0
281
     0
  0
CLASS
  1
IMAGEDEF
  2
AcDbRasterImageDef
  3
ISM
 90
        0
280
     0
281
     0
  0
CLASS
  1
IMAGEDEF_REACTOR
  2
AcDbRasterImageDefReactor
  3
ISM
 90
        1
280
     0
281
     0
  0
CLASS
  1
IDBUFFER
  2
AcDbIdBuffer
  3
AutoCAD 2000
 90
        0
280
     0
281
     0
  0
CLASS
  1
SPATIAL_FILTER
  2
AcDbSpatialFilter
  3
AutoCAD 2000
 90
        0
280
     0
281
     0
  0
CLASS
  1
XRECORD
  2
AcDbXrecord
  3
AutoCAD 2000
 90
        0
280
     0
281
     0
  0
CLASS
  1
SORTENTSTABLE
  2
AcDbSortentsTable
  3
AutoCAD 2000
 90
        0
280
     0
281
     0
  0
CLASS
  1
LAYER_INDEX
  2
AcDbLayerIndex
  3
AutoCAD 2000
 90
        0
280
     0
281
     0
  0
CLASS
  1
SPATIAL_INDEX
  2
AcDbSpatialIndex
  3
AutoCAD 2000
 90
        0
280
     0
281
     0
  0
CLASS
  1
OBJECT_PTR
  2
CAseDLPNTableRecord
  3
ASE-LPNTableRecord
 90
        1
280
     0
281
     0
  0
CLASS
  1
ACDBDICTIONARYWDFLT
  2
AcDbDictionaryWithDefault
  3
AutoCAD 2000
 90
        0
280
     0
281
     0
  0
CLASS
  1
ACDBPLACEHOLDER
  2
AcDbPlaceHolder
  3
AutoCAD 2000
 90
        0
280
     0
281
     0
  0
CLASS
  1
LAYOUT
  2
AcDbLayout
  3
AutoCAD 2000
 90
        0
280
     0
281
     0
  0
CLASS
  1
LONG_TRANSACTION
  2
AcDbLongTransaction
  3
AutoCAD 2000
 90
        0
280
     0
281
     0
  0
CLASS
  1
LWPOLYLINE
  2
AcDbPolyline
  3
AutoCAD 2000
 90
        0
280
     0
281
     1
  0
CLASS
  1
HATCH
  2
AcDbHatch
  3
AutoCAD 2000
 90
        0
280
     0
281
     1
  0
CLASS
  1
XRECORD
  2
AcDbXrecord
  3
AutoCAD 2000
 90
        0
280
     0
281
     0
  0
CLASS
  1
LONG_TRANSACTION
  2
AcDbLongTransaction
  3
AutoCAD 2000
 90
        0
280
     0
281
     0
  0
CLASS
  1
LWPOLYLINE
  2
AcDbPolyline
  3
AutoCAD 2000
 90
        0
280
     0
281
     1
  0
CLASS
  1
HATCH
  2
AcDbHatch
  3
AutoCAD 2000
 90
        0
280
     0
281
     1
  0
CLASS
  1
XRECORD
  2
AcDbXrecord
  3
AutoCAD 2000
 90
        0
280
     0
281
     0
  0
CLASS
  1
LONG_TRANSACTION
  2
AcDbLongTransaction
  3
AutoCAD 2000
 90
        0
280
     0
281
     0
  0
CLASS
  1
LWPOLYLINE
  2
AcDbPolyline
  3
AutoCAD 2000
 90
        0
280
     0
281
     1
  0
CLASS
  1
HATCH
  2
AcDbHatch
  3
AutoCAD 2000
 90
        0
280
     0
281
     1
  0
CLASS
  1
XRECORD
  2
AcDbXrecord
  3
AutoCAD 2000
 90
        0
280
     0
281
     0
  0
CLASS
  1
LONG_TRANSACTION
  2
AcDbLongTransaction
  3
AutoCAD 2000
 90
        0
280
     0
281
     0
  0
CLASS
  1
LWPOLYLINE
  2
AcDbPolyline
  3
AutoCAD 2000
 90
        0
280
     0
281
     1
  0
CLASS
  1
HATCH
  2
AcDbHatch
  3
AutoCAD 2000
 90
        0
280
     0
281
     1
  0
CLASS
  1
XRECORD
  2
AcDbXrecord
  3
AutoCAD 2000
 90
        0
280
     0
281
     0
  0
CLASS
  1
LONG_TRANSACTION
  2
AcDbLongTransaction
  3
AutoCAD 2000
 90
        0
280
     0
281
     0
  0
CLASS
  1
LWPOLYLINE
  2
AcDbPolyline
  3
AutoCAD 2000
 90
        0
280
     0
281
     1
  0
CLASS
  1
HATCH
  2
AcDbHatch
  3
AutoCAD 2000
 90
        0
280
     0
281
     1
  0
CLASS
  1
XRECORD
  2
AcDbXrecord
  3
AutoCAD 2000
 90
        0
280
     0
281
     0
  0
ENDSEC
  0
SECTION
  2
TABLES
  0
TABLE
  2
VPORT
  5
7
330
0
100
AcDbSymbolTable
 70
     3
  0
VPORT
  5
2E
330
7
100
AcDbSymbolTableRecord
100
AcDbViewportTableRecord
  2
DCADVPORT
 70
     0
 10
24.78474495395203
 20
8.200134360033807
 11
32.91321427247097
 21
12.15226219921341
 12
6.209999999999999
 22
9.019999999999999
 13
0.0
 23
0.0
 14
1.0
 24
1.0
 15
0.0
 25
0.0
 16
0.0
 26
0.0
 36
1.0
 17
0.0
 27
0.0
 37
0.0
 40
18.04
 41
0.688564
 42
50.0
 43
1.0
 44
1.0
 50
0.0
 51
0.0
 71
     0
 72
   100
 73
     1
 74
     1
 75
     0
 76
     0
 77
     0
 78
     0
  0
VPORT
  5
2B8
330
7
100
AcDbSymbolTableRecord
100
AcDbViewportTableRecord
  2
*ACTIVE
 70
     0
 10
0.0
 20
0.0
 11
1.0
 21
1.0
 12
28.83841745420138
 22
9.621213176851068
 13
0.0
 23
0.0
 14
1.0
 24
1.0
 15
0.0
 25
0.0
 16
0.0
 26
0.0
 36
1.0
 17
0.0
 27
0.0
 37
0.0
 40
8.265417067415942
 41
1.570528967254408
 42
50.0
 43
0.0
 44
0.0
 50
0.0
 51
0.0
 71
     0
 72
   100
 73
     1
 74
     0
 75
     0
 76
     0
 77
     0
 78
     0
  0
ENDTAB
  0
TABLE
  2
LTYPE
  5
4
330
0
100
AcDbSymbolTable
 70
     2
  0
LTYPE
  5
11
330
4
100
AcDbSymbolTableRecord
100
AcDbLinetypeTableRecord
  2
BYBLOCK
 70
     0
  3

 72
    65
 73
     0
 40
0.0
  0
LTYPE
  5
12
330
4
100
AcDbSymbolTableRecord
100
AcDbLinetypeTableRecord
  2
BYLAYER
 70
     0
  3

 72
    65
 73
     0
 40
0.0
  0
LTYPE
  5
13
330
4
100
AcDbSymbolTableRecord
100
AcDbLinetypeTableRecord
  2
CONTINUOUS
 70
     0
  3
Solid line
 72
    65
 73
     0
 40
0.0
  0
LTYPE
  5
1E
330
4
100
AcDbSymbolTableRecord
100
AcDbLinetypeTableRecord
  2
CONTINUOUS
 70
     0
  3
Solid line
 72
    65
 73
     0
 40
0.0
  0
ENDTAB
  0
TABLE
  2
LAYER
  5
2
330
0
100
AcDbSymbolTable
 70
     5
  0
LAYER
  5
14
330
2
100
AcDbSymbolTableRecord
100
AcDbLayerTableRecord
  2
0
 70
     0
 62
     7
  6
CONTINUOUS
  0
LAYER
  5
2A
330
2
100
AcDbSymbolTableRecord
100
AcDbLayerTableRecord
  2
ADP1DETAIL
 70
     0
 62
   250
  6
CONTINUOUS
  0
LAYER
  5
2B
330
2
100
AcDbSymbolTableRecord
100
AcDbLayerTableRecord
  2
DEFPOINTS
 70
     0
 62
   250
  6
CONTINUOUS
  0
LAYER
  5
2C
330
2
100
AcDbSymbolTableRecord
100
AcDbLayerTableRecord
  2
ADP2DETAIL
 70
     0
 62
   250
  6
CONTINUOUS
  0
LAYER
  5
2D
330
2
100
AcDbSymbolTableRecord
100
AcDbLayerTableRecord
  2
ADPDIM
 70
     0
 62
     3
  6
CONTINUOUS
  0
ENDTAB
  0
TABLE
  2
STYLE
  5
3
330
0
100
AcDbSymbolTable
 70
     2
  0
STYLE
  5
17
330
3
100
AcDbSymbolTableRecord
100
AcDbTextStyleTableRecord
  2
STANDARD
 70
     0
 40
0.0
 41
1.0
 50
0.0
 71
     0
 42
0.0
  3
txt
  4

  0
STYLE
  5
1A8
330
3
100
AcDbSymbolTableRecord
100
AcDbTextStyleTableRecord
  2
ARIAL_WIDE
 70
     0
 40
0.0
 41
1.25
 50
0.0
 71
     0
 42
0.2
  3
ARIAL.TTF
  4

1001
ACAD
1000
Arial
1071
       34
  0
ENDTAB
  0
TABLE
  2
VIEW
  5
5
330
0
100
AcDbSymbolTable
 70
     0
  0
ENDTAB
  0
TABLE
  2
UCS
  5
6
330
0
100
AcDbSymbolTable
 70
     0
  0
ENDTAB
  0
TABLE
  2
APPID
  5
8
330
0
100
AcDbSymbolTable
 70
     1
  0
APPID
  5
16
330
8
100
AcDbSymbolTableRecord
100
AcDbRegAppTableRecord
  2
ACAD
 70
     0
  0
ENDTAB
  0
TABLE
  2
DIMSTYLE
  5
9
330
0
100
AcDbSymbolTable
 70
     1
  0
DIMSTYLE
105
18
330
9
100
AcDbSymbolTableRecord
100
AcDbDimStyleTableRecord
  2
STANDARD
 70
     0
  3

  4

  5

  6

  7

 40
1.0
 41
0.18
 42
0.0625
 43
0.38
 44
0.18
 45
0.0
 46
0.0
 47
0.0
 48
0.0
140
0.18
141
0.09
142
0.0
143
25.4
144
1.0
145
0.0
146
1.0
147
0.09
 71
     0
 72
     0
 73
     1
 74
     1
 75
     0
 76
     0
 77
     0
 78
     0
170
     0
171
     2
172
     0
173
     0
174
     0
175
     0
176
     0
177
     0
178
     0
270
     2
271
     4
272
     4
273
     2
274
     2
340
17
275
     0
280
     0
281
     0
282
     0
283
     1
284
     0
285
     0
286
     0
287
     0
288
     0
  0
ENDTAB
  0
TABLE
  2
BLOCK_RECORD
  5
1
330
0
100
AcDbSymbolTable
 70
     0
  0
BLOCK_RECORD
  5
A
102
{ACAD_XDICTIONARY
360
1DE
102
}
330
1
100
AcDbSymbolTableRecord
100
AcDbBlockTableRecord
  2
*MODEL_SPACE
  0
BLOCK_RECORD
  5
B
102
{ACAD_XDICTIONARY
360
1E0
102
}
330
1
100
AcDbSymbolTableRecord
100
AcDbBlockTableRecord
  2
*PAPER_SPACE
  0
ENDTAB
  0
ENDSEC
  0
SECTION
  2
BLOCKS
  0
BLOCK
  5
D
330
A
100
AcDbEntity
  8
0
100
AcDbBlockBegin
  2
*MODEL_SPACE
 70
     0
 10
0.0
 20
0.0
 30
0.0
  3
*MODEL_SPACE
  1

  0
ENDBLK
  5
E
330
A
100
AcDbEntity
  8
0
100
AcDbBlockEnd
  0
BLOCK
  5
F
330
B
100
AcDbEntity
 67
     1
  8
0
100
AcDbBlockBegin
  2
*PAPER_SPACE
 70
     0
 10
0.0
 20
0.0
 30
0.0
  3
*PAPER_SPACE
  1

  0
ENDBLK
  5
10
330
B
100
AcDbEntity
 67
     1
  8
0
100
AcDbBlockEnd
  0
ENDSEC
  0
SECTION
  2
ENTITIES
  0
ARC
  5
2F
330
A
100
AcDbEntity
  8
ADP1DETAIL
  6
CONTINUOUS
 62
     7
100
AcDbCircle
 10
-27.40974495395203
 20
11.5051343600338
 30
0.0
 40
0.4300000000000007
210
0.0
220
0.0
230
-1.0
100
AcDbArc
 50
325.9639372340056
 51
342.0774649961551
  0
ARC
  5
30
330
A
100
AcDbEntity
  8
ADP1DETAIL
  6
CONTINUOUS
 62
     7
100
AcDbCircle
 10
-27.03010704985807
 20
11.38234974464919
 30
0.0
 40
0.0309999999999995
210
0.0
220
0.0
230
-1.0
100
AcDbArc
 50
342.0774649961555
 51
116.1630243394199
  0
ARC
  5
31
330
A
100
AcDbEntity
  8
ADP1DETAIL
  6
CONTINUOUS
 62
     7
100
AcDbCircle
 10
-27.40974495395203
 20
11.5051343600338
 30
0.0
 40
0.4300000000000007
210
0.0
220
0.0
230
-1.0
100
AcDbArc
 50
197.9225350038464
 51
342.0774649961551
  0
ARC
  5
32
330
A
100
AcDbEntity
  8
ADP1DETAIL
  6
CONTINUOUS
 62
     7
100
AcDbCircle
 10
-26.58647927989541
 20
10.6686343600338
 30
0.0
 40
0.5
210
0.0
220
0.0
230
-1.0
100
AcDbArc
 50
180.0
 51
270.0000000000008
  0
ARC
  5
33
330
A
100
AcDbEntity
  8
ADP1DETAIL
  6
CONTINUOUS
 62
     7
100
AcDbCircle
 10
-26.80547927989541
 20
10.3251343600338
 30
0.0
 40
1.0
210
0.0
220
0.0
230
-1.0
100
AcDbArc
 50
180.0
 51
270.0000000000008
  0
LWPOLYLINE
  5
34
330
A
100
AcDbEntity
  8
ADP1DETAIL
  6
CONTINUOUS
 62
     7
100
AcDbPolyline
 90
        2
 70
   128
 43
0.0
 10
25.15083668040212
 20
11.20833319637492
 10
25.15083668040212
 20
8.322179778554302
  0
LWPOLYLINE
  5
38
330
A
100
AcDbEntity
  8
ADP1DETAIL
  6
CONTINUOUS
 62
     7
100
AcDbPolyline
 90
        2
 70
   128
 43
0.0
 10
24.90974495395203
 20
8.200134360033807
 10
24.90974495395203
 20
11.3251343600338
  0
LWPOLYLINE
  5
3C
330
A
100
AcDbEntity
  8
ADP1DETAIL
  6
CONTINUOUS
 62
     7
100
AcDbPolyline
 90
        2
 70
   128
 43
0.0
 10
26.80547927989541
 20
9.325134360033807
 10
25.402866524977
 20
9.26932607117564
  0
LWPOLYLINE
  5
40
330
A
100
AcDbEntity
  8
ADP1DETAIL
  6
CONTINUOUS
 62
     7
100
AcDbPolyline
 90
        2
 70
   128
 43
0.0
 10
25.03474495395203
 20
8.200134360033807
 10
24.90974495395203
 20
8.200134360033807
  0
ARC
  5
44
330
A
100
AcDbEntity
  8
ADP1DETAIL
  6
CONTINUOUS
 62
     7
100
AcDbCircle
 10
-25.04052816587053
 20
8.311172451386088
 30
0.0
 40
0.111188593260513
210
0.0
220
0.0
230
-1.0
100
AcDbArc
 50
172.7863485952815
 51
272.981449895532
  0
ARC
  5
45
330
A
100
AcDbEntity
  8
ADP1DETAIL
  6
CONTINUOUS
 62
     7
100
AcDbCircle
 10
-25.40974495395203
 20
9.019420714660748
 30
0.0
 40
0.2500000000000002
210
0.0
220
0.0
230
-1.0
100
AcDbArc
 50
0.0
 51
88.4233812395851
  0
LWPOLYLINE
  5
46
330
A
100
AcDbEntity
  8
ADP1DETAIL
  6
CONTINUOUS
 62
     7
100
AcDbPolyline
 90
        2
 70
   128
 43
0.0
 10
25.40057962678839
 20
10.25160054392985
 10
26.58647927989541
 20
10.1686343600338
  0
ARC
  5
4A
330
A
100
AcDbEntity
  8
ADP1DETAIL
  6
CONTINUOUS
 62
     7
100
AcDbCircle
 10
-25.04052816587053
 20
11.21409626868152
 30
0.0
 40
0.1111885932605115
210
0.0
220
0.0
230
-1.0
100
AcDbArc
 50
87.01855010446882
 51
187.2136514047201
  0
ARC
  5
4B
330
A
100
AcDbEntity
  8
ADP1DETAIL
  6
CONTINUOUS
 62
     7
100
AcDbCircle
 10
-25.44618124060276
 20
10.54686269030497
 30
0.0
 40
0.2987628528858886
210
0.0
220
0.0
230
-1.0
100
AcDbArc
 50
278.7796491505083
 51
351.3245121306567
  0
LWPOLYLINE
  5
4C
330
A
100
AcDbEntity
  8
ADP1DETAIL
  6
CONTINUOUS
 62
     7
100
AcDbPolyline
 90
        2
 70
   128
 43
0.0
 10
24.90974495395203
 20
11.3251343600338
 10
25.03474495395203
 20
11.3251343600338
  0
ARC
  5
50
330
A
100
AcDbEntity
  8
ADP1DETAIL
  6
CONTINUOUS
 62
     7
100
AcDbCircle
 10
-31.74088069027687
 20
10.92693040137404
 30
0.0
 40
0.125
210
0.0
220
0.0
230
-1.0
100
AcDbArc
 50
355.6177596408565
 51
90.0
  0
LWPOLYLINE
  5
51
330
A
100
AcDbEntity
  8
ADP1DETAIL
  6
CONTINUOUS
 62
     7
100
AcDbPolyline
 90
        2
 70
   128
 43
0.0
 10
31.61624612971663
 20
10.91737915465146
 10
31.72655606445291
 20
9.822149315961162
  0
LWPOLYLINE
  5
55
330
A
100
AcDbEntity
  8
ADP2DETAIL
  6
CONTINUOUS
 62
     5
100
AcDbPolyline
 90
        2
 70
   128
 43
0.0
 10
32.35593492752278
 20
11.32970972736057
 10
30.35593492752278
 20
11.32970972736057
  0
ARC
  5
59
330
A
100
AcDbEntity
  8
ADP1DETAIL
  6
CONTINUOUS
 62
     7
100
AcDbCircle
 10
-31.35593492752278
 20
9.765009374933702
 30
0.0
 40
0.3750000000000003
210
0.0
220
0.0
230
-1.0
100
AcDbArc
 50
171.2355192817099
 51
8.764480718289465
  0
ARC
  5
5A
330
A
100
AcDbEntity
  8
ADP1DETAIL
  6
CONTINUOUS
 62
     7
100
AcDbCircle
 10
-31.35593492752278
 20
9.767097765101393
 30
0.0
 40
1.5625
210
0.0
220
0.0
230
-1.0
100
AcDbArc
 50
124.6850163783781
 51
55.31498362162181
  0
LWPOLYLINE
  5
5B
330
A
100
AcDbEntity
  8
ADP1DETAIL
  6
CONTINUOUS
 62
     7
100
AcDbPolyline
 90
        2
 70
   128
 43
0.0
 10
30.35593492752278
 20
11.41786073336163
 10
32.35593492752278
 20
11.41786073336163
  0
LWPOLYLINE
  5
5F
330
A
100
AcDbEntity
  8
ADP1DETAIL
  6
CONTINUOUS
 62
     7
100
AcDbPolyline
 90
        2
 70
   128
 43
0.0
 10
31.74326208670013
 20
11.05193040137405
 10
30.35593492752278
 20
11.05193040137405
  0
LWPOLYLINE
  5
63
330
A
100
AcDbEntity
  8
ADP1DETAIL
  6
CONTINUOUS
 62
     7
100
AcDbPolyline
 90
        2
 70
   128
 43
0.0
 10
30.98531379059265
 20
9.822149315961159
 10
31.09562372532892
 20
10.91737915465146
  0
ARC
  5
67
330
A
100
AcDbEntity
  8
ADP1DETAIL
  6
CONTINUOUS
 62
     7
100
AcDbCircle
 10
-27.40974495395203
 20
11.5051343600338
 30
0.0
 40
0.4299999999999982
210
0.0
220
0.0
230
-1.0
100
AcDbArc
 50
197.9225350038464
 51
214.9319072011684
  0
ARC
  5
68
330
A
100
AcDbEntity
  8
ADP1DETAIL
  6
CONTINUOUS
 62
     7
100
AcDbCircle
 10
-27.40974495395203
 20
12.1551343600338
 30
0.0
 40
0.8299999999999998
210
0.0
220
0.0
230
-1.0
100
AcDbArc
 50
243.8369756605782
 51
296.1630243394233
  0
LWPOLYLINE
  5
69
330
A
100
AcDbEntity
  8
ADP2DETAIL
  6
CONTINUOUS
 62
     5
100
AcDbPolyline
 90
        2
 70
   128
 43
0.0
 10
27.51074023940597
 20
11.25896281843534
 10
27.62129657692284
 20
11.15152285980285
  0
LWPOLYLINE
  5
6D
330
A
100
AcDbEntity
  8
ADP2DETAIL
  6
CONTINUOUS
 62
     5
100
AcDbPolyline
 90
        2
 70
   128
 43
0.0
 10
27.51245814455783
 20
11.32149103178084
 10
27.51074023940597
 20
11.25896281843534
  0
LWPOLYLINE
  5
71
330
A
100
AcDbEntity
  8
ADP2DETAIL
  6
CONTINUOUS
 62
     5
100
AcDbPolyline
 90
        2
 70
   128
 43
0.0
 10
27.2963482390808
 20
11.25896281843534
 10
27.20024146975282
 20
11.13335263701021
  0
LWPOLYLINE
  5
75
330
A
100
AcDbEntity
  8
ADP2DETAIL
  6
CONTINUOUS
 62
     5
100
AcDbPolyline
 90
        2
 70
   128
 43
0.0
 10
27.2963482390808
 20
11.3254623271756
 10
27.2963482390808
 20
11.25896281843534
  0
ARC
  5
79
330
A
100
AcDbEntity
  8
ADP1DETAIL
  6
CONTINUOUS
 62
     7
100
AcDbCircle
 10
-26.84623885168025
 20
11.12452843167421
 30
0.0
 40
0.2500000000000004
210
0.0
220
0.0
230
-1.0
100
AcDbArc
 50
145.963937234005
 51
180.7291989558213
  0
LWPOLYLINE
  5
7A
330
A
100
AcDbEntity
  8
ADP1DETAIL
  6
CONTINUOUS
 62
     7
100
AcDbPolyline
 90
        2
 70
   128
 43
0.0
 10
27.08647927989542
 20
10.6686343600338
 10
27.09621860513342
 20
11.12134678689646
  0
LWPOLYLINE
  5
7E
330
A
100
AcDbEntity
  8
ADP2DETAIL
  6
CONTINUOUS
 62
     5
100
AcDbPolyline
 90
        2
 70
   128
 43
0.0
 10
27.28895541067095
 20
11.25896281843534
 10
27.51074023940597
 20
11.25896281843534
  0
ARC
  5
82
330
A
100
AcDbEntity
  8
ADP1DETAIL
  6
CONTINUOUS
 62
     7
100
AcDbCircle
 10
-27.96723148157187
 20
11.1157646494471
 30
0.0
 40
0.2499999999999994
210
0.0
220
0.0
230
-1.0
100
AcDbArc
 50
355.3842356244807
 51
34.93190720116764
  0
LWPOLYLINE
  5
83
330
A
100
AcDbEntity
  8
ADP1DETAIL
  6
CONTINUOUS
 62
     7
100
AcDbPolyline
 90
        2
 70
   128
 43
0.0
 10
27.7180422878782
 20
11.09564635562537
 10
27.80547927989541
 20
10.3251343600338
  0
ARC
  5
87
330
A
100
AcDbEntity
  8
ADP1DETAIL
  6
CONTINUOUS
 62
     7
100
AcDbCircle
 10
-27.78938285804599
 20
11.38234974464919
 30
0.0
 40
0.0309999999999995
210
0.0
220
0.0
230
-1.0
100
AcDbArc
 50
63.83697566058
 51
197.922535003846
  0
LWPOLYLINE
  5
88
330
A
100
AcDbEntity
  8
ADP2DETAIL
  6
CONTINUOUS
 62
     5
100
AcDbPolyline
 90
        2
 70
   128
 43
0.0
 10
30.53206409201502
 20
11.18186171198737
 10
30.75384892075003
 20
11.18186171198737
  0
LWPOLYLINE
  5
8C
330
A
100
AcDbEntity
  8
ADP2DETAIL
  6
CONTINUOUS
 62
     5
100
AcDbPolyline
 90
        2
 70
   128
 43
0.0
 10
30.53945692042487
 20
11.18186171198737
 10
30.44335015109688
 20
11.05625153056224
  0
LWPOLYLINE
  5
90
330
A
100
AcDbEntity
  8
ADP1DETAIL
  6
CONTINUOUS
 62
     7
100
AcDbPolyline
 90
        2
 70
   128
 43
0.0
 10
30.35593492752278
 20
11.05193040137405
 10
30.35593492752278
 20
11.41786073336163
  0
ARC
  5
94
330
A
100
AcDbEntity
  8
ADP1DETAIL
  6
CONTINUOUS
 62
     7
100
AcDbCircle
 10
-30.97098916476868
 20
10.92693040137404
 30
0.0
 40
0.1250000000000014
210
0.0
220
0.0
230
-1.0
100
AcDbArc
 50
90.0
 51
184.382240359145
  0
LWPOLYLINE
  5
95
330
A
100
AcDbEntity
  8
ADP2DETAIL
  6
CONTINUOUS
 62
     5
100
AcDbPolyline
 90
        2
 70
   128
 43
0.0
 10
30.53945692042487
 20
11.29564230875046
 10
30.53945692042487
 20
11.18186171198737
  0
LWPOLYLINE
  5
99
330
A
100
AcDbEntity
  8
ADP2DETAIL
  6
CONTINUOUS
 62
     5
100
AcDbPolyline
 90
        2
 70
   128
 43
0.0
 10
30.75384892075003
 20
11.18186171198737
 10
30.87952700371739
 20
11.04886269450684
  0
LWPOLYLINE
  5
9D
330
A
100
AcDbEntity
  8
ADP2DETAIL
  6
CONTINUOUS
 62
     5
100
AcDbPolyline
 90
        2
 70
   128
 43
0.0
 10
30.75384892075003
 20
11.30747189341249
 10
30.75384892075003
 20
11.18186171198737
  0
LWPOLYLINE
  5
A1
330
A
100
AcDbEntity
  8
ADP1DETAIL
  6
CONTINUOUS
 62
     7
100
AcDbPolyline
 90
        2
 70
   128
 43
0.0
 10
32.35593492752278
 20
11.41786073336163
 10
32.35593492752278
 20
11.05193040137405
  0
LWPOLYLINE
  5
A5
330
A
100
AcDbEntity
  8
ADP1DETAIL
  6
CONTINUOUS
 62
     7
100
AcDbPolyline
 90
        2
 70
   128
 43
0.0
 10
32.35593492752278
 20
11.05193040137405
 10
31.74088069027687
 20
11.05193040137405
  0
LWPOLYLINE
  5
A9
330
A
100
AcDbEntity
  8
ADP2DETAIL
  6
CONTINUOUS
 62
     5
100
AcDbPolyline
 90
        2
 70
   128
 43
0.0
 10
32.13630776270999
 20
11.18186171198737
 10
32.26198584567736
 20
11.04886269450684
  0
LWPOLYLINE
  5
AD
330
A
100
AcDbEntity
  8
ADP2DETAIL
  6
CONTINUOUS
 62
     5
100
AcDbPolyline
 90
        2
 70
   128
 43
0.0
 10
32.13630776270999
 20
11.30747189341249
 10
32.13630776270999
 20
11.18186171198737
  0
LWPOLYLINE
  5
B1
330
A
100
AcDbEntity
  8
ADP2DETAIL
  6
CONTINUOUS
 62
     5
100
AcDbPolyline
 90
        2
 70
   128
 43
0.0
 10
31.92191576238482
 20
11.18186171198737
 10
31.82580899305685
 20
11.05625153056224
  0
LWPOLYLINE
  5
B5
330
A
100
AcDbEntity
  8
ADP2DETAIL
  6
CONTINUOUS
 62
     5
100
AcDbPolyline
 90
        2
 70
   128
 43
0.0
 10
31.92379250411166
 20
11.29564230875046
 10
31.92191576238482
 20
11.18186171198737
  0
LWPOLYLINE
  5
B9
330
A
100
AcDbEntity
  8
ADP2DETAIL
  6
CONTINUOUS
 62
     5
100
AcDbPolyline
 90
        2
 70
   128
 43
0.0
 10
31.91452293397498
 20
11.18186171198737
 10
32.13630776270999
 20
11.18186171198737
  0
LWPOLYLINE
  5
BD
330
A
100
AcDbEntity
  8
ADPDIM
  6
CONTINUOUS
 62
     3
 48
0.125
100
AcDbPolyline
 90
        2
 70
   128
 43
0.0
 10
24.90974495395203
 20
11.3876343600338
 10
24.90974495395203
 20
11.90397143833177
  0
LWPOLYLINE
  5
C1
330
A
100
AcDbEntity
  8
ADPDIM
  6
CONTINUOUS
 62
     3
 48
0.125
100
AcDbPolyline
 90
        2
 70
   128
 43
0.0
 10
27.40974495395203
 20
11.3876343600338
 10
27.40974495395203
 20
11.90397143833177
  0
LWPOLYLINE
  5
C5
330
A
100
AcDbEntity
  8
ADPDIM
  6
CONTINUOUS
 62
     3
 48
0.125
100
AcDbPolyline
 90
        2
 70
   128
 43
0.0
 10
24.90974495395203
 20
11.72397143833177
 10
25.7639116206187
 20
11.72397143833177
  0
LWPOLYLINE
  5
C9
330
A
100
AcDbEntity
  8
ADPDIM
  6
CONTINUOUS
 62
     3
 48
0.125
100
AcDbPolyline
 90
        2
 70
   128
 43
0.0
 10
27.40974495395203
 20
11.72397143833177
 10
26.55557828728536
 20
11.72397143833177
  0
LWPOLYLINE
  5
CD
330
A
100
AcDbEntity
  8
ADPDIM
  6
CONTINUOUS
 62
     3
 48
0.125
100
AcDbPolyline
 90
        2
 70
   128
 43
0.0
 10
24.78474495395203
 20
11.59897143833177
 10
25.03474495395203
 20
11.84897143833177
  0
LWPOLYLINE
  5
D1
330
A
100
AcDbEntity
  8
ADPDIM
  6
CONTINUOUS
 62
     3
 48
0.125
100
AcDbPolyline
 90
        2
 70
   128
 43
0.0
 10
27.28474495395203
 20
11.59897143833177
 10
27.53474495395203
 20
11.84897143833177
  0
TEXT
  5
D5
330
A
100
AcDbEntity
  8
ADPDIM
 62
     3
 48
0.0
100
AcDbText
 10
25.8889116206187
 20
11.66147143833176
 30
0.0
 40
0.125
  1
2 1/2
 72
     5
 11
26.43057828728537
 21
11.66147143833176
 31
0.0
100
AcDbText
  0
LWPOLYLINE
  5
D6
330
A
100
AcDbEntity
  8
ADPDIM
  6
CONTINUOUS
 62
     3
 48
0.125
100
AcDbPolyline
 90
        2
 70
   128
 43
0.0
 10
30.35593492752278
 20
11.48036073336162
 10
30.35593492752278
 20
12.15226219921341
  0
LWPOLYLINE
  5
DA
330
A
100
AcDbEntity
  8
ADPDIM
  6
CONTINUOUS
 62
     3
 48
0.125
100
AcDbPolyline
 90
        2
 70
   128
 43
0.0
 10
32.35593492752278
 20
11.48036073336162
 10
32.35593492752278
 20
12.15226219921341
  0
LWPOLYLINE
  5
DE
330
A
100
AcDbEntity
  8
ADPDIM
  6
CONTINUOUS
 62
     3
 48
0.125
100
AcDbPolyline
 90
        2
 70
   128
 43
0.0
 10
30.35593492752278
 20
11.97226219921341
 10
31.18926826085611
 20
11.97226219921341
  0
LWPOLYLINE
  5
E2
330
A
100
AcDbEntity
  8
ADPDIM
  6
CONTINUOUS
 62
     3
 48
0.125
100
AcDbPolyline
 90
        2
 70
   128
 43
0.0
 10
32.35593492752278
 20
11.97226219921341
 10
31.52260159418945
 20
11.97226219921341
  0
LWPOLYLINE
  5
E6
330
A
100
AcDbEntity
  8
ADPDIM
  6
CONTINUOUS
 62
     3
 48
0.125
100
AcDbPolyline
 90
        2
 70
   128
 43
0.0
 10
30.23093492752278
 20
11.8472621992134
 10
30.48093492752278
 20
12.0972621992134
  0
LWPOLYLINE
  5
EA
330
A
100
AcDbEntity
  8
ADPDIM
  6
CONTINUOUS
 62
     3
 48
0.125
100
AcDbPolyline
 90
        2
 70
   128
 43
0.0
 10
32.23093492752278
 20
11.8472621992134
 10
32.48093492752278
 20
12.0972621992134
  0
TEXT
  5
EE
330
A
100
AcDbEntity
  8
ADPDIM
 62
     3
 48
0.0
100
AcDbText
 10
31.31426826085611
 20
11.9097621992134
 30
0.0
 40
0.125
  1
2
 72
     5
 11
31.39760159418945
 21
11.9097621992134
 31
0.0
100
AcDbText
  0
LWPOLYLINE
  5
EF
330
A
100
AcDbEntity
  8
ADPDIM
  6
CONTINUOUS
 62
     3
 48
0.125
100
AcDbPolyline
 90
        2
 70
   128
 43
0.0
 10
30.64295650638253
 20
11.24436171198737
 10
30.64295650638253
 20
11.82496982803255
  0
LWPOLYLINE
  5
F3
330
A
100
AcDbEntity
  8
ADPDIM
  6
CONTINUOUS
 62
     3
 48
0.125
100
AcDbPolyline
 90
        2
 70
   128
 43
0.0
 10
32.02541534834249
 20
11.24436171198737
 10
32.02541534834249
 20
11.82496982803255
  0
LWPOLYLINE
  5
F7
330
A
100
AcDbEntity
  8
ADPDIM
  6
CONTINUOUS
 62
     3
 48
0.125
100
AcDbPolyline
 90
        2
 70
   128
 43
0.0
 10
30.64295650638253
 20
11.64496982803255
 10
30.93835259402918
 20
11.64496982803255
  0
LWPOLYLINE
  5
FB
330
A
100
AcDbEntity
  8
ADPDIM
  6
CONTINUOUS
 62
     3
 48
0.125
100
AcDbPolyline
 90
        2
 70
   128
 43
0.0
 10
32.02541534834249
 20
11.64496982803255
 10
31.73001926069584
 20
11.64496982803255
  0
LWPOLYLINE
  5
FF
330
A
100
AcDbEntity
  8
ADPDIM
  6
CONTINUOUS
 62
     3
 48
0.125
100
AcDbPolyline
 90
        2
 70
   128
 43
0.0
 10
30.51795650638252
 20
11.51996982803255
 10
30.76795650638253
 20
11.76996982803255
  0
LWPOLYLINE
  5
103
330
A
100
AcDbEntity
  8
ADPDIM
  6
CONTINUOUS
 62
     3
 48
0.125
100
AcDbPolyline
 90
        2
 70
   128
 43
0.0
 10
31.90041534834249
 20
11.51996982803255
 10
32.15041534834249
 20
11.76996982803255
  0
TEXT
  5
107
330
A
100
AcDbEntity
  8
ADPDIM
 62
     3
 48
0.0
100
AcDbText
 10
31.06335259402918
 20
11.58246982803255
 30
0.0
 40
0.125
  1
1 3/8
 72
     5
 11
31.60501926069584
 21
11.58246982803255
 31
0.0
100
AcDbText
  0
LWPOLYLINE
  5
108
330
A
100
AcDbEntity
  8
ADPDIM
  6
CONTINUOUS
 62
     3
 48
0.125
100
AcDbPolyline
 90
        2
 70
   128
 43
0.0
 10
30.05567183810712
 20
8.90065552911375
 10
29.84762974380062
 20
8.762024771355727
  0
LWPOLYLINE
  5
10C
330
A
100
AcDbEntity
  8
ADPDIM
  6
CONTINUOUS
 62
     3
 48
0.125
100
AcDbPolyline
 90
        2
 70
   128
 43
0.0
 10
30.02096616983288
 20
8.727319103081487
 10
30.09037750638136
 20
9.073991955146013
  0
LWPOLYLINE
  5
110
330
A
100
AcDbEntity
  8
ADPDIM
  6
CONTINUOUS
 62
     3
 48
0.125
100
AcDbPolyline
 90
        2
 70
   128
 43
0.0
 10
31.16843492752278
 20
9.767097765101393
 10
31.54343492752278
 20
9.767097765101393
  0
LWPOLYLINE
  5
114
330
A
100
AcDbEntity
  8
ADPDIM
  6
CONTINUOUS
 62
     3
 48
0.125
100
AcDbPolyline
 90
        2
 70
   128
 43
0.0
 10
31.35593492752278
 20
9.579597765101393
 10
31.35593492752278
 20
9.954597765101393
  0
TEXT
  5
118
330
A
100
AcDbEntity
  8
ADPDIM
 62
     3
 48
0.0
100
AcDbText
 10
29.22348746793619
 20
8.271016848212029
 30
0.0
 40
0.1249999999999994
  1
%%c3 1/8
 50
33.67786862690649
 72
     5
 11
29.77826638608688
 21
8.640698868900091
 31
0.0
100
AcDbText
  0
LWPOLYLINE
  5
119
330
A
100
AcDbEntity
  8
ADPDIM
  6
CONTINUOUS
 62
     3
 48
0.125
100
AcDbPolyline
 90
        2
 70
   128
 43
0.0
 10
31.31792651696674
 20
9.771502940407996
 10
29.31474578514512
 20
9.771502940407996
  0
LWPOLYLINE
  5
11D
330
A
100
AcDbEntity
  8
ADPDIM
  6
CONTINUOUS
 62
     3
 48
0.125
100
AcDbPolyline
 90
        2
 70
   128
 43
0.0
 10
30.2791083447391
 20
11.31767745685169
 10
29.31474578514512
 20
11.31767745685169
  0
LWPOLYLINE
  5
121
330
A
100
AcDbEntity
  8
ADPDIM
  6
CONTINUOUS
 62
     3
 48
0.125
100
AcDbPolyline
 90
        2
 70
   128
 43
0.0
 10
29.49474578514512
 20
9.771502940407996
 10
29.49474578514512
 20
10.10709019862984
  0
LWPOLYLINE
  5
125
330
A
100
AcDbEntity
  8
ADPDIM
  6
CONTINUOUS
 62
     3
 48
0.125
100
AcDbPolyline
 90
        2
 70
   128
 43
0.0
 10
29.49474578514512
 20
11.31767745685169
 10
29.49474578514512
 20
10.98209019862984
  0
LWPOLYLINE
  5
129
330
A
100
AcDbEntity
  8
ADPDIM
  6
CONTINUOUS
 62
     3
 48
0.125
100
AcDbPolyline
 90
        2
 70
   128
 43
0.0
 10
29.61974578514512
 20
9.646502940407996
 10
29.36974578514512
 20
9.896502940407996
  0
LWPOLYLINE
  5
12D
330
A
100
AcDbEntity
  8
ADPDIM
  6
CONTINUOUS
 62
     3
 48
0.125
100
AcDbPolyline
 90
        2
 70
   128
 43
0.0
 10
29.61974578514512
 20
11.19267745685169
 10
29.36974578514512
 20
11.44267745685169
  0
TEXT
  5
131
330
A
100
AcDbEntity
  8
ADPDIM
 62
     3
 48
0.0
100
AcDbText
 10
29.55724578514512
 20
10.23209019862984
 30
0.0
 40
0.125
  1
1 9/16
 50
90.0
 72
     5
 11
29.55724578514512
 21
10.85709019862984
 31
0.0
100
AcDbText
  0
LWPOLYLINE
  5
132
330
A
100
AcDbEntity
  8
DEFPOINTS
  6
CONTINUOUS
 62
     3
 48
0.125
100
AcDbPolyline
 90
        2
 70
   128
 43
0.0
 10
24.90974495395204
 20
11.3251343600338
 10
24.90974495395204
 20
11.3251343600338
  0
LWPOLYLINE
  5
136
330
A
100
AcDbEntity
  8
DEFPOINTS
  6
CONTINUOUS
 62
     3
 48
0.125
100
AcDbPolyline
 90
        2
 70
   128
 43
0.0
 10
24.90974495395204
 20
11.3251343600338
 10
24.90974495395204
 20
11.3251343600338
  0
LWPOLYLINE
  5
13A
330
A
100
AcDbEntity
  8
DEFPOINTS
  6
CONTINUOUS
 62
     3
 48
0.125
100
AcDbPolyline
 90
        2
 70
   128
 43
0.0
 10
27.40974495395203
 20
11.3251343600338
 10
27.40974495395203
 20
11.3251343600338
  0
LWPOLYLINE
  5
13E
330
A
100
AcDbEntity
  8
DEFPOINTS
  6
CONTINUOUS
 62
     3
 48
0.125
100
AcDbPolyline
 90
        2
 70
   128
 43
0.0
 10
27.40974495395203
 20
11.3251343600338
 10
27.40974495395203
 20
11.3251343600338
  0
LWPOLYLINE
  5
142
330
A
100
AcDbEntity
  8
DEFPOINTS
  6
CONTINUOUS
 62
     3
 48
0.125
100
AcDbPolyline
 90
        2
 70
   128
 43
0.0
 10
27.40974495395203
 20
11.72397143833177
 10
27.40974495395203
 20
11.72397143833177
  0
LWPOLYLINE
  5
146
330
A
100
AcDbEntity
  8
DEFPOINTS
  6
CONTINUOUS
 62
     3
 48
0.125
100
AcDbPolyline
 90
        2
 70
   128
 43
0.0
 10
27.40974495395203
 20
11.72397143833177
 10
27.40974495395203
 20
11.72397143833177
  0
LWPOLYLINE
  5
14A
330
A
100
AcDbEntity
  8
DEFPOINTS
  6
CONTINUOUS
 62
     3
 48
0.125
100
AcDbPolyline
 90
        2
 70
   128
 43
0.0
 10
30.35593492752278
 20
11.41786073336163
 10
30.35593492752278
 20
11.41786073336163
  0
LWPOLYLINE
  5
14E
330
A
100
AcDbEntity
  8
DEFPOINTS
  6
CONTINUOUS
 62
     3
 48
0.125
100
AcDbPolyline
 90
        2
 70
   128
 43
0.0
 10
30.35593492752278
 20
11.41786073336163
 10
30.35593492752278
 20
11.41786073336163
  0
LWPOLYLINE
  5
152
330
A
100
AcDbEntity
  8
DEFPOINTS
  6
CONTINUOUS
 62
     3
 48
0.125
100
AcDbPolyline
 90
        2
 70
   128
 43
0.0
 10
32.35593492752278
 20
11.41786073336163
 10
32.35593492752278
 20
11.41786073336163
  0
LWPOLYLINE
  5
156
330
A
100
AcDbEntity
  8
DEFPOINTS
  6
CONTINUOUS
 62
     3
 48
0.125
100
AcDbPolyline
 90
        2
 70
   128
 43
0.0
 10
32.35593492752278
 20
11.41786073336163
 10
32.35593492752278
 20
11.41786073336163
  0
LWPOLYLINE
  5
15A
330
A
100
AcDbEntity
  8
DEFPOINTS
  6
CONTINUOUS
 62
     3
 48
0.125
100
AcDbPolyline
 90
        2
 70
   128
 43
0.0
 10
32.35593492752278
 20
11.97226219921341
 10
32.35593492752278
 20
11.97226219921341
  0
LWPOLYLINE
  5
15E
330
A
100
AcDbEntity
  8
DEFPOINTS
  6
CONTINUOUS
 62
     3
 48
0.125
100
AcDbPolyline
 90
        2
 70
   128
 43
0.0
 10
32.35593492752278
 20
11.97226219921341
 10
32.35593492752278
 20
11.97226219921341
  0
LWPOLYLINE
  5
162
330
A
100
AcDbEntity
  8
DEFPOINTS
  6
CONTINUOUS
 62
     3
 48
0.125
100
AcDbPolyline
 90
        2
 70
   128
 43
0.0
 10
30.64295650638253
 20
11.18186171198737
 10
30.64295650638253
 20
11.18186171198737
  0
LWPOLYLINE
  5
166
330
A
100
AcDbEntity
  8
DEFPOINTS
  6
CONTINUOUS
 62
     3
 48
0.125
100
AcDbPolyline
 90
        2
 70
   128
 43
0.0
 10
30.64295650638253
 20
11.18186171198737
 10
30.64295650638253
 20
11.18186171198737
  0
LWPOLYLINE
  5
16A
330
A
100
AcDbEntity
  8
DEFPOINTS
  6
CONTINUOUS
 62
     3
 48
0.125
100
AcDbPolyline
 90
        2
 70
   128
 43
0.0
 10
32.02541534834249
 20
11.18186171198737
 10
32.02541534834249
 20
11.18186171198737
  0
LWPOLYLINE
  5
16E
330
A
100
AcDbEntity
  8
DEFPOINTS
  6
CONTINUOUS
 62
     3
 48
0.125
100
AcDbPolyline
 90
        2
 70
   128
 43
0.0
 10
32.02541534834249
 20
11.18186171198737
 10
32.02541534834249
 20
11.18186171198737
  0
LWPOLYLINE
  5
172
330
A
100
AcDbEntity
  8
DEFPOINTS
  6
CONTINUOUS
 62
     3
 48
0.125
100
AcDbPolyline
 90
        2
 70
   128
 43
0.0
 10
32.02541534834249
 20
11.64496982803255
 10
32.02541534834249
 20
11.64496982803255
  0
LWPOLYLINE
  5
176
330
A
100
AcDbEntity
  8
DEFPOINTS
  6
CONTINUOUS
 62
     3
 48
0.125
100
AcDbPolyline
 90
        2
 70
   128
 43
0.0
 10
32.02541534834249
 20
11.64496982803255
 10
32.02541534834249
 20
11.64496982803255
  0
LWPOLYLINE
  5
17A
330
A
100
AcDbEntity
  8
DEFPOINTS
  6
CONTINUOUS
 62
     3
 48
0.125
100
AcDbPolyline
 90
        2
 70
   128
 43
0.0
 10
30.05567183810713
 20
8.900655529113752
 10
30.05567183810713
 20
8.900655529113752
  0
LWPOLYLINE
  5
17E
330
A
100
AcDbEntity
  8
DEFPOINTS
  6
CONTINUOUS
 62
     3
 48
0.125
100
AcDbPolyline
 90
        2
 70
   128
 43
0.0
 10
30.05567183810713
 20
8.900655529113752
 10
30.05567183810713
 20
8.900655529113752
  0
LWPOLYLINE
  5
182
330
A
100
AcDbEntity
  8
DEFPOINTS
  6
CONTINUOUS
 62
     3
 48
0.125
100
AcDbPolyline
 90
        2
 70
   128
 43
0.0
 10
32.65619801693844
 20
10.63354000108903
 10
32.65619801693844
 20
10.63354000108903
  0
LWPOLYLINE
  5
186
330
A
100
AcDbEntity
  8
DEFPOINTS
  6
CONTINUOUS
 62
     3
 48
0.125
100
AcDbPolyline
 90
        2
 70
   128
 43
0.0
 10
32.65619801693844
 20
10.63354000108903
 10
32.65619801693844
 20
10.63354000108903
  0
LWPOLYLINE
  5
18A
330
A
100
AcDbEntity
  8
DEFPOINTS
  6
CONTINUOUS
 62
     3
 48
0.125
100
AcDbPolyline
 90
        2
 70
   128
 43
0.0
 10
31.38042651696674
 20
9.771502940407998
 10
31.38042651696674
 20
9.771502940407998
  0
LWPOLYLINE
  5
18E
330
A
100
AcDbEntity
  8
DEFPOINTS
  6
CONTINUOUS
 62
     3
 48
0.125
100
AcDbPolyline
 90
        2
 70
   128
 43
0.0
 10
31.38042651696674
 20
9.771502940407998
 10
31.38042651696674
 20
9.771502940407998
  0
LWPOLYLINE
  5
192
330
A
100
AcDbEntity
  8
DEFPOINTS
  6
CONTINUOUS
 62
     3
 48
0.125
100
AcDbPolyline
 90
        2
 70
   128
 43
0.0
 10
30.3416083447391
 20
11.31767745685169
 10
30.3416083447391
 20
11.31767745685169
  0
LWPOLYLINE
  5
196
330
A
100
AcDbEntity
  8
DEFPOINTS
  6
CONTINUOUS
 62
     3
 48
0.125
100
AcDbPolyline
 90
        2
 70
   128
 43
0.0
 10
30.3416083447391
 20
11.31767745685169
 10
30.3416083447391
 20
11.31767745685169
  0
LWPOLYLINE
  5
19A
330
A
100
AcDbEntity
  8
DEFPOINTS
  6
CONTINUOUS
 62
     3
 48
0.125
100
AcDbPolyline
 90
        2
 70
   128
 43
0.0
 10
29.49474578514513
 20
11.31767745685169
 10
29.49474578514513
 20
11.31767745685169
  0
LWPOLYLINE
  5
19E
330
A
100
AcDbEntity
  8
DEFPOINTS
  6
CONTINUOUS
 62
     3
 48
0.125
100
AcDbPolyline
 90
        2
 70
   128
 43
0.0
 10
29.49474578514513
 20
11.31767745685169
 10
29.49474578514513
 20
11.31767745685169
  0
TEXT
  5
1AF
330
A
100
AcDbEntity
  8
ADPDIM
100
AcDbText
 10
22.37919311833943
 20
7.127338033241931
 30
0.0
 40
0.125
  1
J U L I U S  B L U M  &  C O . ,  I N C .      ( 8 0 0 )  5 2 6 - 6 2 9 3        W W W . J U L I U S B L U M . C O M        P A R T  N O .  1 7 6
 41
1.25
  7
ARIAL_WIDE
 72
     1
 11
28.83809489187285
 21
7.252338033241931
 31
0.0
100
AcDbText
 73
     3
  0
ENDSEC
  0
SECTION
  2
OBJECTS
  0
DICTIONARY
  5
19
330
0
100
AcDbDictionary
  3
ACAD_GROUP
350
1A
  3
ACAD_LAYOUT
350
1B4
  3
ACAD_MLINESTYLE
350
1B
  3
ACAD_PLOTSETTINGS
350
1B5
  3
ACAD_PLOTSTYLENAME
350
1B2
  3
ACDBHEADERROUNDTRIPXREC
350
2B9
  3
ACDBVARIABLEDICTIONARY
350
1EA
  0
DICTIONARY
  5
1DE
330
A
100
AcDbDictionary
280
     1
  3
ACAD_LAYOUTSELFREF
360
2D9
  0
DICTIONARY
  5
1E0
330
B
100
AcDbDictionary
280
     1
  3
ACAD_LAYOUTSELFREF
360
2DA
  0
DICTIONARY
  5
1A
102
{ACAD_REACTORS
330
19
102
}
330
19
100
AcDbDictionary
  0
DICTIONARY
  5
1B4
102
{ACAD_REACTORS
330
19
102
}
330
19
100
AcDbDictionary
  0
DICTIONARY
  5
1B
102
{ACAD_REACTORS
330
19
102
}
330
19
100
AcDbDictionary
  3
STANDARD
350
1C
  0
DICTIONARY
  5
1B5
102
{ACAD_REACTORS
330
19
102
}
330
19
100
AcDbDictionary
  0
ACDBDICTIONARYWDFLT
  5
1B2
102
{ACAD_REACTORS
330
19
102
}
330
19
100
AcDbDictionary
281
     1
  3
Normal
350
1B3
100
AcDbDictionaryWithDefault
340
1B3
  0
DICTIONARY
  5
2B9
102
{ACAD_REACTORS
330
19
102
}
330
19
100
AcDbDictionary
  3
CEPSNTYPE
350
2C3
  3
FINGERPRINTGUID
350
2C4
  3
HYPERLINKBASE
350
2BC
  3
INSUNITS
350
2C2
  3
LAYOUTDICT
350
2BE
  3
LWETCUNION
350
2C1
  3
PLOTSETDICT
350
2BF
  3
PLOTSTYLNAMDICT
350
2C0
  3
PSVPSCALE
350
2C6
  3
PUCSBASE
350
2C9
  3
PUCSORGBACK
350
2CF
  3
PUCSORGBOTTOM
350
2CB
  3
PUCSORGFRONT
350
2CE
  3
PUCSORGLEFT
350
2CC
  3
PUCSORGRIGHT
350
2CD
  3
PUCSORGTOP
350
2CA
  3
PUCSORTHOREF
350
2C7
  3
PUCSORTHOVIEW
350
2C8
  3
STYLESHEET
350
2BD
  3
TSTACKALIGN
350
2BA
  3
TSTACKSIZE
350
2BB
  3
UCSBASE
350
2D2
  3
UCSORGBACK
350
2D8
  3
UCSORGBOTTOM
350
2D4
  3
UCSORGFRONT
350
2D7
  3
UCSORGLEFT
350
2D5
  3
UCSORGRIGHT
350
2D6
  3
UCSORGTOP
350
2D3
  3
UCSORTHOREF
350
2D0
  3
UCSORTHOVIEW
350
2D1
  3
VERSIONGUID
350
2C5
  0
DICTIONARY
  5
1EA
102
{ACAD_REACTORS
330
19
102
}
330
19
100
AcDbDictionary
  3
DIMASSOC
350
1EB
  0
XRECORD
  5
2D9
102
{ACAD_REACTORS
330
1DE
102
}
330
1DE
100
AcDbXrecord
340
A
  0
XRECORD
  5
2DA
102
{ACAD_REACTORS
330
1E0
102
}
330
1E0
100
AcDbXrecord
340
B
  0
MLINESTYLE
  5
1C
102
{ACAD_REACTORS
330
1B
102
}
330
1B
100
AcDbMlineStyle
  2
STANDARD
 70
     0
  3

 62
     0
 51
90.00000000000019
 52
90.00000000000019
 71
     2
 49
0.5
 62
   256
  6
BYLAYER
 49
-0.5
 62
   256
  6
BYLAYER
  0
ACDBPLACEHOLDER
  5
1B3
102
{ACAD_REACTORS
330
1B2
102
}
330
1B2
100
AcDbPlaceHolder
280
     0
  0
XRECORD
  5
2C3
102
{ACAD_REACTORS
330
2B9
102
}
330
2B9
100
AcDbXrecord
 90
        0
  0
XRECORD
  5
2C4
102
{ACAD_REACTORS
330
2B9
102
}
330
2B9
100
AcDbXrecord
  1
{43C0E3C6-B944-46E7-B14C-42CDA246CD29}
  0
XRECORD
  5
2BC
102
{ACAD_REACTORS
330
2B9
102
}
330
2B9
100
AcDbXrecord
  1

  0
XRECORD
  5
2C2
102
{ACAD_REACTORS
330
2B9
102
}
330
2B9
100
AcDbXrecord
 90
        0
  0
XRECORD
  5
2BE
102
{ACAD_REACTORS
330
2B9
102
}
330
2B9
100
AcDbXrecord
340
1B4
  0
XRECORD
  5
2C1
102
{ACAD_REACTORS
330
2B9
102
}
330
2B9
100
AcDbXrecord
 90
    14877
  0
XRECORD
  5
2BF
102
{ACAD_REACTORS
330
2B9
102
}
330
2B9
100
AcDbXrecord
340
1B5
  0
XRECORD
  5
2C0
102
{ACAD_REACTORS
330
2B9
102
}
330
2B9
100
AcDbXrecord
340
1B2
  0
XRECORD
  5
2C6
102
{ACAD_REACTORS
330
2B9
102
}
330
2B9
100
AcDbXrecord
 40
0.0
  0
XRECORD
  5
2C9
102
{ACAD_REACTORS
330
2B9
102
}
330
2B9
100
AcDbXrecord
340
0
  0
XRECORD
  5
2CF
102
{ACAD_REACTORS
330
2B9
102
}
330
2B9
100
AcDbXrecord
 10
0.0
 20
0.0
 30
0.0
  0
XRECORD
  5
2CB
102
{ACAD_REACTORS
330
2B9
102
}
330
2B9
100
AcDbXrecord
 10
0.0
 20
0.0
 30
0.0
  0
XRECORD
  5
2CE
102
{ACAD_REACTORS
330
2B9
102
}
330
2B9
100
AcDbXrecord
 10
0.0
 20
0.0
 30
0.0
  0
XRECORD
  5
2CC
102
{ACAD_REACTORS
330
2B9
102
}
330
2B9
100
AcDbXrecord
 10
0.0
 20
0.0
 30
0.0
  0
XRECORD
  5
2CD
102
{ACAD_REACTORS
330
2B9
102
}
330
2B9
100
AcDbXrecord
 10
0.0
 20
0.0
 30
0.0
  0
XRECORD
  5
2CA
102
{ACAD_REACTORS
330
2B9
102
}
330
2B9
100
AcDbXrecord
 10
0.0
 20
0.0
 30
0.0
  0
XRECORD
  5
2C7
102
{ACAD_REACTORS
330
2B9
102
}
330
2B9
100
AcDbXrecord
340
0
  0
XRECORD
  5
2C8
102
{ACAD_REACTORS
330
2B9
102
}
330
2B9
100
AcDbXrecord
 70
     0
  0
XRECORD
  5
2BD
102
{ACAD_REACTORS
330
2B9
102
}
330
2B9
100
AcDbXrecord
  1

  0
XRECORD
  5
2BA
102
{ACAD_REACTORS
330
2B9
102
}
330
2B9
100
AcDbXrecord
 90
        1
  0
XRECORD
  5
2BB
102
{ACAD_REACTORS
330
2B9
102
}
330
2B9
100
AcDbXrecord
 90
       70
  0
XRECORD
  5
2D2
102
{ACAD_REACTORS
330
2B9
102
}
330
2B9
100
AcDbXrecord
340
0
  0
XRECORD
  5
2D8
102
{ACAD_REACTORS
330
2B9
102
}
330
2B9
100
AcDbXrecord
 10
0.0
 20
0.0
 30
0.0
  0
XRECORD
  5
2D4
102
{ACAD_REACTORS
330
2B9
102
}
330
2B9
100
AcDbXrecord
 10
0.0
 20
0.0
 30
0.0
  0
XRECORD
  5
2D7
102
{ACAD_REACTORS
330
2B9
102
}
330
2B9
100
AcDbXrecord
 10
0.0
 20
0.0
 30
0.0
  0
XRECORD
  5
2D5
102
{ACAD_REACTORS
330
2B9
102
}
330
2B9
100
AcDbXrecord
 10
0.0
 20
0.0
 30
0.0
  0
XRECORD
  5
2D6
102
{ACAD_REACTORS
330
2B9
102
}
330
2B9
100
AcDbXrecord
 10
0.0
 20
0.0
 30
0.0
  0
XRECORD
  5
2D3
102
{ACAD_REACTORS
330
2B9
102
}
330
2B9
100
AcDbXrecord
 10
0.0
 20
0.0
 30
0.0
  0
XRECORD
  5
2D0
102
{ACAD_REACTORS
330
2B9
102
}
330
2B9
100
AcDbXrecord
340
0
  0
XRECORD
  5
2D1
102
{ACAD_REACTORS
330
2B9
102
}
330
2B9
100
AcDbXrecord
 70
     0
  0
XRECORD
  5
2C5
102
{ACAD_REACTORS
330
2B9
102
}
330
2B9
100
AcDbXrecord
  1
{069EECB3-5697-490D-986B-C6C3E5214262}
  0
DICTIONARYVAR
  5
1EB
102
{ACAD_REACTORS
330
1EA
102
}
330
1EA
100
DictionaryVariables
280
     0
  1
1
  0
ENDSEC
  0
EOF
