  0
SECTION
  2
HEADER
  9
$ACADVER
  1
AC1014
  9
$ACADMAINTVER
 70
     9
  9
$DWGCODEPAGE
  3
ANSI_1252
  9
$INSBASE
 10
0.0
 20
0.0
 30
0.0
  9
$EXTMIN
 10
11.47161596680887
 20
6.601809956183862
 30
0.0
  9
$EXTMAX
 10
24.38941951387572
 20
11.84434267234027
 30
0.0
  9
$LIMMIN
 10
0.0
 20
0.0
  9
$LIMMAX
 10
0.0
 20
0.0
  9
$ORTHOMODE
 70
     1
  9
$REGENMODE
 70
     1
  9
$FILLMODE
 70
     1
  9
$QTEXTMODE
 70
     0
  9
$MIRRTEXT
 70
     1
  9
$DRAGMODE
 70
     0
  9
$LTSCALE
 40
1.0
  9
$OSMODE
 70
    37
  9
$ATTMODE
 70
     1
  9
$TEXTSIZE
 40
0.0
  9
$TRACEWID
 40
0.05
  9
$TEXTSTYLE
  7
STANDARD
  9
$CLAYER
  8
0
  9
$CELTYPE
  6
CONTINUOUS
  9
$CECOLOR
 62
   256
  9
$CELTSCALE
 40
1.0
  9
$DELOBJ
 70
     1
  9
$DISPSILH
 70
     0
  9
$DIMSCALE
 40
1.0
  9
$DIMASZ
 40
0.18
  9
$DIMEXO
 40
0.0625
  9
$DIMDLI
 40
0.38
  9
$DIMRND
 40
0.0
  9
$DIMDLE
 40
0.0
  9
$DIMEXE
 40
0.18
  9
$DIMTP
 40
0.0
  9
$DIMTM
 40
0.0
  9
$DIMTXT
 40
0.18
  9
$DIMCEN
 40
0.09
  9
$DIMTSZ
 40
0.0
  9
$DIMTOL
 70
     0
  9
$DIMLIM
 70
     0
  9
$DIMTIH
 70
     1
  9
$DIMTOH
 70
     1
  9
$DIMSE1
 70
     0
  9
$DIMSE2
 70
     0
  9
$DIMTAD
 70
     0
  9
$DIMZIN
 70
     0
  9
$DIMBLK
  1

  9
$DIMASO
 70
     1
  9
$DIMSHO
 70
     1
  9
$DIMPOST
  1

  9
$DIMAPOST
  1

  9
$DIMALT
 70
     0
  9
$DIMALTD
 70
     2
  9
$DIMALTF
 40
25.4
  9
$DIMLFAC
 40
1.0
  9
$DIMTOFL
 70
     0
  9
$DIMTVP
 40
0.0
  9
$DIMTIX
 70
     0
  9
$DIMSOXD
 70
     0
  9
$DIMSAH
 70
     0
  9
$DIMBLK1
  1

  9
$DIMBLK2
  1

  9
$DIMSTYLE
  2
STANDARD
  9
$DIMCLRD
 70
     0
  9
$DIMCLRE
 70
     0
  9
$DIMCLRT
 70
     0
  9
$DIMTFAC
 40
1.0
  9
$DIMGAP
 40
0.09
  9
$DIMJUST
 70
     0
  9
$DIMSD1
 70
     0
  9
$DIMSD2
 70
     0
  9
$DIMTOLJ
 70
     1
  9
$DIMTZIN
 70
     0
  9
$DIMALTZ
 70
     0
  9
$DIMALTTZ
 70
     0
  9
$DIMFIT
 70
     3
  9
$DIMUPT
 70
     0
  9
$DIMUNIT
 70
     2
  9
$DIMDEC
 70
     4
  9
$DIMTDEC
 70
     4
  9
$DIMALTU
 70
     2
  9
$DIMALTTD
 70
     2
  9
$DIMTXSTY
  7
STANDARD
  9
$DIMAUNIT
 70
     0
  9
$LUNITS
 70
     4
  9
$LUPREC
 70
     4
  9
$SKETCHINC
 40
0.1
  9
$FILLETRAD
 40
0.0
  9
$AUNITS
 70
     0
  9
$AUPREC
 70
     0
  9
$MENU
  1
acad
  9
$ELEVATION
 40
0.0
  9
$PELEVATION
 40
0.0
  9
$THICKNESS
 40
0.0
  9
$LIMCHECK
 70
     0
  9
$BLIPMODE
 70
     0
  9
$CHAMFERA
 40
0.0
  9
$CHAMFERB
 40
0.0
  9
$CHAMFERC
 40
0.0
  9
$CHAMFERD
 40
0.0
  9
$SKPOLY
 70
     0
  9
$TDCREATE
 40
2452292.674287650
  9
$TDUPDATE
 40
2452297.064525463
  9
$TDINDWG
 40
0.0033276968
  9
$TDUSRTIMER
 40
0.0033276968
  9
$USRTIMER
 70
     1
  9
$ANGBASE
 50
0.0
  9
$ANGDIR
 70
     0
  9
$PDMODE
 70
     0
  9
$PDSIZE
 40
0.0
  9
$PLINEWID
 40
0.0
  9
$COORDS
 70
     2
  9
$SPLFRAME
 70
     0
  9
$SPLINETYPE
 70
     6
  9
$SPLINESEGS
 70
     8
  9
$ATTDIA
 70
     0
  9
$ATTREQ
 70
     1
  9
$HANDLING
 70
 22529
  9
$HANDSEED
  5
2DD
  9
$SURFTAB1
 70
     6
  9
$SURFTAB2
 70
     6
  9
$SURFTYPE
 70
     6
  9
$SURFU
 70
     6
  9
$SURFV
 70
     6
  9
$UCSNAME
  2

  9
$UCSORG
 10
0.0
 20
0.0
 30
0.0
  9
$UCSXDIR
 10
1.0
 20
0.0
 30
0.0
  9
$UCSYDIR
 10
0.0
 20
1.0
 30
0.0
  9
$PUCSNAME
  2

  9
$PUCSORG
 10
0.0
 20
0.0
 30
0.0
  9
$PUCSXDIR
 10
1.0
 20
0.0
 30
0.0
  9
$PUCSYDIR
 10
0.0
 20
1.0
 30
0.0
  9
$USERI1
 70
     0
  9
$USERI2
 70
     0
  9
$USERI3
 70
     0
  9
$USERI4
 70
     0
  9
$USERI5
 70
     0
  9
$USERR1
 40
0.0
  9
$USERR2
 40
0.0
  9
$USERR3
 40
0.0
  9
$USERR4
 40
0.0
  9
$USERR5
 40
0.0
  9
$WORLDVIEW
 70
     1
  9
$SHADEDGE
 70
     3
  9
$SHADEDIF
 70
    70
  9
$TILEMODE
 70
     1
  9
$MAXACTVP
 70
    16
  9
$PINSBASE
 10
0.0
 20
0.0
 30
0.0
  9
$PLIMCHECK
 70
     0
  9
$PEXTMIN
 10
1.000000000000000E+20
 20
1.000000000000000E+20
 30
1.000000000000000E+20
  9
$PEXTMAX
 10
-1.000000000000000E+20
 20
-1.000000000000000E+20
 30
-1.000000000000000E+20
  9
$PLIMMIN
 10
0.0
 20
0.0
  9
$PLIMMAX
 10
12.0
 20
9.0
  9
$UNITMODE
 70
     0
  9
$VISRETAIN
 70
     0
  9
$PLINEGEN
 70
     0
  9
$PSLTSCALE
 70
     0
  9
$TREEDEPTH
 70
  3020
  9
$PICKSTYLE
 70
     1
  9
$CMLSTYLE
  2
STANDARD
  9
$CMLJUST
 70
     0
  9
$CMLSCALE
 40
1.0
  9
$PROXYGRAPHICS
 70
     1
  9
$MEASUREMENT
 70
     0
  0
ENDSEC
  0
SECTION
  2
CLASSES
  0
CLASS
  1
LWPOLYLINE
  2
AcDbPolyline
  3
AutoCAD 2000
 90
        0
280
     0
281
     1
  0
CLASS
  1
IMAGE
  2
AcDbRasterImage
  3
ISM
 90
      127
280
     0
281
     1
  0
CLASS
  1
OLE2FRAME
  2
AcDbOle2Frame
  3
AutoCAD 2000
 90
        0
280
     0
281
     1
  0
CLASS
  1
HATCH
  2
AcDbHatch
  3
AutoCAD 2000
 90
        0
280
     0
281
     1
  0
CLASS
  1
DICTIONARYVAR
  2
AcDbDictionaryVar
  3
AutoCAD 2000
 90
        0
280
     0
281
     0
  0
CLASS
  1
RASTERVARIABLES
  2
AcDbRasterVariables
  3
ISM
 90
        0
280
     0
281
     0
  0
CLASS
  1
IMAGEDEF
  2
AcDbRasterImageDef
  3
ISM
 90
        0
280
     0
281
     0
  0
CLASS
  1
IMAGEDEF_REACTOR
  2
AcDbRasterImageDefReactor
  3
ISM
 90
        1
280
     0
281
     0
  0
CLASS
  1
IDBUFFER
  2
AcDbIdBuffer
  3
AutoCAD 2000
 90
        0
280
     0
281
     0
  0
CLASS
  1
SPATIAL_FILTER
  2
AcDbSpatialFilter
  3
AutoCAD 2000
 90
        0
280
     0
281
     0
  0
CLASS
  1
XRECORD
  2
AcDbXrecord
  3
AutoCAD 2000
 90
        0
280
     0
281
     0
  0
CLASS
  1
SORTENTSTABLE
  2
AcDbSortentsTable
  3
AutoCAD 2000
 90
        0
280
     0
281
     0
  0
CLASS
  1
LAYER_INDEX
  2
AcDbLayerIndex
  3
AutoCAD 2000
 90
        0
280
     0
281
     0
  0
CLASS
  1
SPATIAL_INDEX
  2
AcDbSpatialIndex
  3
AutoCAD 2000
 90
        0
280
     0
281
     0
  0
CLASS
  1
OBJECT_PTR
  2
CAseDLPNTableRecord
  3
ASE-LPNTableRecord
 90
        1
280
     0
281
     0
  0
CLASS
  1
ACDBDICTIONARYWDFLT
  2
AcDbDictionaryWithDefault
  3
AutoCAD 2000
 90
        0
280
     0
281
     0
  0
CLASS
  1
ACDBPLACEHOLDER
  2
AcDbPlaceHolder
  3
AutoCAD 2000
 90
        0
280
     0
281
     0
  0
CLASS
  1
LAYOUT
  2
AcDbLayout
  3
AutoCAD 2000
 90
        0
280
     0
281
     0
  0
CLASS
  1
LONG_TRANSACTION
  2
AcDbLongTransaction
  3
AutoCAD 2000
 90
        0
280
     0
281
     0
  0
CLASS
  1
LWPOLYLINE
  2
AcDbPolyline
  3
AutoCAD 2000
 90
        0
280
     0
281
     1
  0
CLASS
  1
HATCH
  2
AcDbHatch
  3
AutoCAD 2000
 90
        0
280
     0
281
     1
  0
CLASS
  1
XRECORD
  2
AcDbXrecord
  3
AutoCAD 2000
 90
        0
280
     0
281
     0
  0
CLASS
  1
LONG_TRANSACTION
  2
AcDbLongTransaction
  3
AutoCAD 2000
 90
        0
280
     0
281
     0
  0
CLASS
  1
LWPOLYLINE
  2
AcDbPolyline
  3
AutoCAD 2000
 90
        0
280
     0
281
     1
  0
CLASS
  1
HATCH
  2
AcDbHatch
  3
AutoCAD 2000
 90
        0
280
     0
281
     1
  0
CLASS
  1
XRECORD
  2
AcDbXrecord
  3
AutoCAD 2000
 90
        0
280
     0
281
     0
  0
CLASS
  1
LONG_TRANSACTION
  2
AcDbLongTransaction
  3
AutoCAD 2000
 90
        0
280
     0
281
     0
  0
CLASS
  1
LWPOLYLINE
  2
AcDbPolyline
  3
AutoCAD 2000
 90
        0
280
     0
281
     1
  0
CLASS
  1
HATCH
  2
AcDbHatch
  3
AutoCAD 2000
 90
        0
280
     0
281
     1
  0
CLASS
  1
XRECORD
  2
AcDbXrecord
  3
AutoCAD 2000
 90
        0
280
     0
281
     0
  0
CLASS
  1
LONG_TRANSACTION
  2
AcDbLongTransaction
  3
AutoCAD 2000
 90
        0
280
     0
281
     0
  0
CLASS
  1
LWPOLYLINE
  2
AcDbPolyline
  3
AutoCAD 2000
 90
        0
280
     0
281
     1
  0
CLASS
  1
HATCH
  2
AcDbHatch
  3
AutoCAD 2000
 90
        0
280
     0
281
     1
  0
CLASS
  1
XRECORD
  2
AcDbXrecord
  3
AutoCAD 2000
 90
        0
280
     0
281
     0
  0
CLASS
  1
LONG_TRANSACTION
  2
AcDbLongTransaction
  3
AutoCAD 2000
 90
        0
280
     0
281
     0
  0
CLASS
  1
LWPOLYLINE
  2
AcDbPolyline
  3
AutoCAD 2000
 90
        0
280
     0
281
     1
  0
CLASS
  1
HATCH
  2
AcDbHatch
  3
AutoCAD 2000
 90
        0
280
     0
281
     1
  0
CLASS
  1
XRECORD
  2
AcDbXrecord
  3
AutoCAD 2000
 90
        0
280
     0
281
     0
  0
ENDSEC
  0
SECTION
  2
TABLES
  0
TABLE
  2
VPORT
  5
7
330
0
100
AcDbSymbolTable
 70
     3
  0
VPORT
  5
2E
330
7
100
AcDbSymbolTableRecord
100
AcDbViewportTableRecord
  2
DCADVPORT
 70
     0
 10
13.69799037014531
 20
7.78767968353741
 11
22.37588062826807
 21
11.84434267234027
 12
6.209999999999999
 22
9.019999999999999
 13
0.0
 23
0.0
 14
1.0
 24
1.0
 15
0.0
 25
0.0
 16
0.0
 26
0.0
 36
1.0
 17
0.0
 27
0.0
 37
0.0
 40
18.04
 41
0.688564
 42
50.0
 43
1.0
 44
1.0
 50
0.0
 51
0.0
 71
     0
 72
   100
 73
     1
 74
     1
 75
     0
 76
     0
 77
     0
 78
     0
  0
VPORT
  5
2BA
330
7
100
AcDbSymbolTableRecord
100
AcDbViewportTableRecord
  2
*ACTIVE
 70
     0
 10
0.0
 20
0.0
 11
1.0
 21
1.0
 12
17.93071652157523
 22
9.222899729232457
 13
0.0
 23
0.0
 14
1.0
 24
1.0
 15
0.0
 25
0.0
 16
0.0
 26
0.0
 36
1.0
 17
0.0
 27
0.0
 37
0.0
 40
8.265698504189385
 41
1.570528967254408
 42
50.0
 43
0.0
 44
0.0
 50
0.0
 51
0.0
 71
     0
 72
   100
 73
     1
 74
     1
 75
     0
 76
     0
 77
     0
 78
     0
  0
ENDTAB
  0
TABLE
  2
LTYPE
  5
4
330
0
100
AcDbSymbolTable
 70
     2
  0
LTYPE
  5
11
330
4
100
AcDbSymbolTableRecord
100
AcDbLinetypeTableRecord
  2
BYBLOCK
 70
     0
  3

 72
    65
 73
     0
 40
0.0
  0
LTYPE
  5
12
330
4
100
AcDbSymbolTableRecord
100
AcDbLinetypeTableRecord
  2
BYLAYER
 70
     0
  3

 72
    65
 73
     0
 40
0.0
  0
LTYPE
  5
13
330
4
100
AcDbSymbolTableRecord
100
AcDbLinetypeTableRecord
  2
CONTINUOUS
 70
     0
  3
Solid line
 72
    65
 73
     0
 40
0.0
  0
LTYPE
  5
1E
330
4
100
AcDbSymbolTableRecord
100
AcDbLinetypeTableRecord
  2
CONTINUOUS
 70
     0
  3
Solid line
 72
    65
 73
     0
 40
0.0
  0
ENDTAB
  0
TABLE
  2
LAYER
  5
2
330
0
100
AcDbSymbolTable
 70
     5
  0
LAYER
  5
14
330
2
100
AcDbSymbolTableRecord
100
AcDbLayerTableRecord
  2
0
 70
     0
 62
     7
  6
CONTINUOUS
  0
LAYER
  5
2A
330
2
100
AcDbSymbolTableRecord
100
AcDbLayerTableRecord
  2
ADP1DETAIL
 70
     0
 62
   250
  6
CONTINUOUS
  0
LAYER
  5
2B
330
2
100
AcDbSymbolTableRecord
100
AcDbLayerTableRecord
  2
DEFPOINTS
 70
     0
 62
   250
  6
CONTINUOUS
  0
LAYER
  5
2C
330
2
100
AcDbSymbolTableRecord
100
AcDbLayerTableRecord
  2
ADP2DETAIL
 70
     0
 62
   250
  6
CONTINUOUS
  0
LAYER
  5
2D
330
2
100
AcDbSymbolTableRecord
100
AcDbLayerTableRecord
  2
ADPDIM
 70
     0
 62
     3
  6
CONTINUOUS
  0
ENDTAB
  0
TABLE
  2
STYLE
  5
3
330
0
100
AcDbSymbolTable
 70
     2
  0
STYLE
  5
17
330
3
100
AcDbSymbolTableRecord
100
AcDbTextStyleTableRecord
  2
STANDARD
 70
     0
 40
0.0
 41
1.0
 50
0.0
 71
     0
 42
0.0
  3
txt
  4

  0
STYLE
  5
1AA
330
3
100
AcDbSymbolTableRecord
100
AcDbTextStyleTableRecord
  2
ARIAL_WIDE
 70
     0
 40
0.0
 41
1.25
 50
0.0
 71
     0
 42
0.2
  3
ARIAL.TTF
  4

1001
ACAD
1000
Arial
1071
       34
  0
ENDTAB
  0
TABLE
  2
VIEW
  5
5
330
0
100
AcDbSymbolTable
 70
     0
  0
ENDTAB
  0
TABLE
  2
UCS
  5
6
330
0
100
AcDbSymbolTable
 70
     0
  0
ENDTAB
  0
TABLE
  2
APPID
  5
8
330
0
100
AcDbSymbolTable
 70
     1
  0
APPID
  5
16
330
8
100
AcDbSymbolTableRecord
100
AcDbRegAppTableRecord
  2
ACAD
 70
     0
  0
ENDTAB
  0
TABLE
  2
DIMSTYLE
  5
9
330
0
100
AcDbSymbolTable
 70
     1
  0
DIMSTYLE
105
18
330
9
100
AcDbSymbolTableRecord
100
AcDbDimStyleTableRecord
  2
STANDARD
 70
     0
  3

  4

  5

  6

  7

 40
1.0
 41
0.18
 42
0.0625
 43
0.38
 44
0.18
 45
0.0
 46
0.0
 47
0.0
 48
0.0
140
0.18
141
0.09
142
0.0
143
25.4
144
1.0
145
0.0
146
1.0
147
0.09
 71
     0
 72
     0
 73
     1
 74
     1
 75
     0
 76
     0
 77
     0
 78
     0
170
     0
171
     2
172
     0
173
     0
174
     0
175
     0
176
     0
177
     0
178
     0
270
     2
271
     4
272
     4
273
     2
274
     2
340
17
275
     0
280
     0
281
     0
282
     0
283
     1
284
     0
285
     0
286
     0
287
     0
288
     0
  0
ENDTAB
  0
TABLE
  2
BLOCK_RECORD
  5
1
330
0
100
AcDbSymbolTable
 70
     0
  0
BLOCK_RECORD
  5
A
102
{ACAD_XDICTIONARY
360
1E0
102
}
330
1
100
AcDbSymbolTableRecord
100
AcDbBlockTableRecord
  2
*MODEL_SPACE
  0
BLOCK_RECORD
  5
B
102
{ACAD_XDICTIONARY
360
1E2
102
}
330
1
100
AcDbSymbolTableRecord
100
AcDbBlockTableRecord
  2
*PAPER_SPACE
  0
ENDTAB
  0
ENDSEC
  0
SECTION
  2
BLOCKS
  0
BLOCK
  5
D
330
A
100
AcDbEntity
  8
0
100
AcDbBlockBegin
  2
*MODEL_SPACE
 70
     0
 10
0.0
 20
0.0
 30
0.0
  3
*MODEL_SPACE
  1

  0
ENDBLK
  5
E
330
A
100
AcDbEntity
  8
0
100
AcDbBlockEnd
  0
BLOCK
  5
F
330
B
100
AcDbEntity
 67
     1
  8
0
100
AcDbBlockBegin
  2
*PAPER_SPACE
 70
     0
 10
0.0
 20
0.0
 30
0.0
  3
*PAPER_SPACE
  1

  0
ENDBLK
  5
10
330
B
100
AcDbEntity
 67
     1
  8
0
100
AcDbBlockEnd
  0
ENDSEC
  0
SECTION
  2
ENTITIES
  0
ARC
  5
2F
330
A
100
AcDbEntity
  8
ADP1DETAIL
  6
CONTINUOUS
 62
     7
100
AcDbCircle
 10
-14.35942665679605
 20
10.24456444999223
 30
0.0
 40
0.2987628528858904
210
0.0
220
0.0
230
-1.0
100
AcDbArc
 50
278.7796491505083
 51
351.3245121306568
  0
ARC
  5
30
330
A
100
AcDbEntity
  8
ADP1DETAIL
  6
CONTINUOUS
 62
     7
100
AcDbCircle
 10
-15.4997246960887
 20
10.36633611972106
 30
0.0
 40
0.5
210
0.0
220
0.0
230
-1.0
100
AcDbArc
 50
180.0
 51
270.0000000000008
  0
LWPOLYLINE
  5
31
330
A
100
AcDbEntity
  8
ADP1DETAIL
  6
CONTINUOUS
 62
     7
100
AcDbPolyline
 90
        2
 70
   128
 43
0.0
 10
13.82299037014531
 20
7.897836119721066
 10
13.82299037014531
 20
11.02283611972106
  0
LWPOLYLINE
  5
35
330
A
100
AcDbEntity
  8
ADP1DETAIL
  6
CONTINUOUS
 62
     7
100
AcDbPolyline
 90
        2
 70
   128
 43
0.0
 10
14.0640820965954
 20
10.90603495606218
 10
14.0640820965954
 20
8.019881538241561
  0
LWPOLYLINE
  5
39
330
A
100
AcDbEntity
  8
ADP1DETAIL
  6
CONTINUOUS
 62
     7
100
AcDbPolyline
 90
        2
 70
   128
 43
0.0
 10
16.63128770407148
 20
10.85584811531263
 10
16.7187246960887
 20
10.02283611972106
  0
LWPOLYLINE
  5
3D
330
A
100
AcDbEntity
  8
ADP1DETAIL
  6
CONTINUOUS
 62
     7
100
AcDbPolyline
 90
        2
 70
   128
 43
0.0
 10
15.71872469608869
 20
9.022836119721066
 10
14.31611194117028
 20
8.9670278308629
  0
LWPOLYLINE
  5
41
330
A
100
AcDbEntity
  8
ADP1DETAIL
  6
CONTINUOUS
 62
     7
100
AcDbPolyline
 90
        2
 70
   128
 43
0.0
 10
14.31382504298167
 20
9.949302303617118
 10
15.4997246960887
 20
9.866336119721067
  0
ARC
  5
45
330
A
100
AcDbEntity
  8
ADP1DETAIL
  6
CONTINUOUS
 62
     7
100
AcDbCircle
 10
-14.32299037014531
 20
8.717122474348007
 30
0.0
 40
0.2500000000000001
210
0.0
220
0.0
230
-1.0
100
AcDbArc
 50
0.0
 51
88.42338123958551
  0
LWPOLYLINE
  5
46
330
A
100
AcDbEntity
  8
ADP1DETAIL
  6
CONTINUOUS
 62
     7
100
AcDbPolyline
 90
        2
 70
   128
 43
0.0
 10
13.94799037014531
 20
7.897836119721066
 10
13.82299037014531
 20
7.897836119721066
  0
ARC
  5
4A
330
A
100
AcDbEntity
  8
ADP1DETAIL
  6
CONTINUOUS
 62
     7
100
AcDbCircle
 10
-13.95377358206381
 20
8.008874211073347
 30
0.0
 40
0.111188593260513
210
0.0
220
0.0
230
-1.0
100
AcDbArc
 50
172.7863485952816
 51
272.9814498955311
  0
ARC
  5
4B
330
A
100
AcDbEntity
  8
ADP1DETAIL
  6
CONTINUOUS
 62
     7
100
AcDbCircle
 10
-15.71872469608869
 20
10.02283611972106
 30
0.0
 40
1.0
210
0.0
220
0.0
230
-1.0
100
AcDbArc
 50
180.0
 51
270.0000000000008
  0
LWPOLYLINE
  5
4C
330
A
100
AcDbEntity
  8
ADP1DETAIL
  6
CONTINUOUS
 62
     7
100
AcDbPolyline
 90
        2
 70
   128
 43
0.0
 10
13.82299037014531
 20
11.02283611972106
 10
13.94799037014531
 20
11.02283611972106
  0
ARC
  5
50
330
A
100
AcDbEntity
  8
ADP1DETAIL
  6
CONTINUOUS
 62
     7
100
AcDbCircle
 10
-13.95377358206381
 20
10.91179802836878
 30
0.0
 40
0.1111885932605115
210
0.0
220
0.0
230
-1.0
100
AcDbArc
 50
87.01855010446973
 51
187.2136514047201
  0
LWPOLYLINE
  5
51
330
A
100
AcDbEntity
  8
ADP2DETAIL
  6
CONTINUOUS
 62
     5
100
AcDbPolyline
 90
        2
 70
   128
 43
0.0
 10
16.42147899661921
 20
11.01267662021673
 10
16.53335017584016
 20
10.89673665559319
  0
LWPOLYLINE
  5
55
330
A
100
AcDbEntity
  8
ADP1DETAIL
  6
CONTINUOUS
 62
     7
100
AcDbPolyline
 90
        2
 70
   128
 43
0.0
 10
16.79174037014531
 20
10.89733611972106
 10
15.85424037014531
 20
10.89733611972106
  0
LWPOLYLINE
  5
59
330
A
100
AcDbEntity
  8
ADP1DETAIL
  6
CONTINUOUS
 62
     7
100
AcDbPolyline
 90
        2
 70
   128
 43
0.0
 10
15.85424037014531
 20
11.08533611972106
 10
16.79174037014531
 20
11.08533611972106
  0
LWPOLYLINE
  5
5D
330
A
100
AcDbEntity
  8
ADP1DETAIL
  6
CONTINUOUS
 62
     7
100
AcDbPolyline
 90
        2
 70
   128
 43
0.0
 10
15.85424037014531
 20
10.89733611972106
 10
15.85424037014531
 20
11.08533611972106
  0
LWPOLYLINE
  5
61
330
A
100
AcDbEntity
  8
ADP2DETAIL
  6
CONTINUOUS
 62
     5
100
AcDbPolyline
 90
        2
 70
   128
 43
0.0
 10
16.42147899661921
 20
11.079176128957
 10
16.42147899661921
 20
11.01267662021673
  0
LWPOLYLINE
  5
65
330
A
100
AcDbEntity
  8
ADP2DETAIL
  6
CONTINUOUS
 62
     5
100
AcDbPolyline
 90
        2
 70
   128
 43
0.0
 10
16.20708699629404
 20
11.01267662021673
 10
16.11944412277012
 20
10.89673665559319
  0
LWPOLYLINE
  5
69
330
A
100
AcDbEntity
  8
ADP2DETAIL
  6
CONTINUOUS
 62
     5
100
AcDbPolyline
 90
        2
 70
   128
 43
0.0
 10
16.20708699629404
 20
11.079176128957
 10
16.20708699629404
 20
11.01267662021673
  0
LWPOLYLINE
  5
6D
330
A
100
AcDbEntity
  8
ADP1DETAIL
  6
CONTINUOUS
 62
     7
100
AcDbPolyline
 90
        2
 70
   128
 43
0.0
 10
15.9997246960887
 20
10.36633611972106
 10
16.00946402132671
 20
10.88154854658372
  0
LWPOLYLINE
  5
71
330
A
100
AcDbEntity
  8
ADP2DETAIL
  6
CONTINUOUS
 62
     5
100
AcDbPolyline
 90
        2
 70
   128
 43
0.0
 10
16.1996941678842
 20
11.01267662021673
 10
16.42147899661921
 20
11.01267662021673
  0
LWPOLYLINE
  5
75
330
A
100
AcDbEntity
  8
ADP1DETAIL
  6
CONTINUOUS
 62
     7
100
AcDbPolyline
 90
        2
 70
   128
 43
0.0
 10
16.79174037014531
 20
11.08533611972106
 10
16.79174037014531
 20
10.89733611972106
  0
ARC
  5
79
330
A
100
AcDbEntity
  8
ADP1DETAIL
  6
CONTINUOUS
 62
     7
100
AcDbCircle
 10
-20.23806519344627
 20
9.510861357058312
 30
0.0
 40
1.553095096189132
210
0.0
220
0.0
230
-1.0
100
AcDbArc
 50
124.0780053484467
 51
56.4629404172151
  0
LWPOLYLINE
  5
7A
330
A
100
AcDbEntity
  8
ADP1DETAIL
  6
CONTINUOUS
 62
     7
100
AcDbPolyline
 90
        2
 70
   128
 43
0.0
 10
19.89855920678593
 20
9.519851075648418
 10
20.0088691415222
 20
10.73335936659994
  0
LWPOLYLINE
  5
7E
330
A
100
AcDbEntity
  8
ADP1DETAIL
  6
CONTINUOUS
 62
     7
100
AcDbPolyline
 90
        2
 70
   128
 43
0.0
 10
20.52949154590991
 20
10.73335936659994
 10
20.63980148064618
 20
9.519851075648421
  0
ARC
  5
82
330
A
100
AcDbEntity
  8
ADP1DETAIL
  6
CONTINUOUS
 62
     7
100
AcDbCircle
 10
-20.26918034371606
 20
9.462711134620962
 30
0.0
 40
0.3750000000000003
210
0.0
220
0.0
230
-1.0
100
AcDbArc
 50
171.2355192817099
 51
8.764480718289465
  0
ARC
  5
83
330
A
100
AcDbEntity
  8
ADP1DETAIL
  6
CONTINUOUS
 62
     7
100
AcDbCircle
 10
-19.88423458096196
 20
10.74291061332253
 30
0.0
 40
0.1250000000000014
210
0.0
220
0.0
230
-1.0
100
AcDbArc
 50
90.0
 51
184.382240359145
  0
LWPOLYLINE
  5
84
330
A
100
AcDbEntity
  8
ADP1DETAIL
  6
CONTINUOUS
 62
     7
100
AcDbPolyline
 90
        2
 70
   128
 43
0.0
 10
21.15505801324927
 20
10.87255436445035
 10
19.27905801324927
 20
10.87255436445034
  0
LWPOLYLINE
  5
88
330
A
100
AcDbEntity
  8
ADP1DETAIL
  6
CONTINUOUS
 62
     7
100
AcDbPolyline
 90
        2
 70
   128
 43
0.0
 10
19.21705801324927
 20
11.06055436445034
 10
21.21705801324927
 20
11.06055436445034
  0
LWPOLYLINE
  5
8C
330
A
100
AcDbEntity
  8
ADP2DETAIL
  6
CONTINUOUS
 62
     5
100
AcDbPolyline
 90
        2
 70
   128
 43
0.0
 10
19.39359996199517
 20
11.00483088853716
 10
19.61538479073018
 20
11.00483088853716
  0
LWPOLYLINE
  5
90
330
A
100
AcDbEntity
  8
ADP2DETAIL
  6
CONTINUOUS
 62
     5
100
AcDbPolyline
 90
        2
 70
   128
 43
0.0
 10
19.40099279040501
 20
11.00483088853716
 10
19.30488602107704
 20
10.87922070711203
  0
LWPOLYLINE
  5
94
330
A
100
AcDbEntity
  8
ADP2DETAIL
  6
CONTINUOUS
 62
     5
100
AcDbPolyline
 90
        2
 70
   128
 43
0.0
 10
19.40099279040501
 20
11.07133039727742
 10
19.40099279040501
 20
11.00483088853716
  0
LWPOLYLINE
  5
98
330
A
100
AcDbEntity
  8
ADP1DETAIL
  6
CONTINUOUS
 62
     7
100
AcDbPolyline
 90
        2
 70
   128
 43
0.0
 10
19.21705801324927
 20
10.93455436445035
 10
19.21705801324927
 20
11.06055436445034
  0
ARC
  5
9C
330
A
100
AcDbEntity
  8
ADP1DETAIL
  6
CONTINUOUS
 62
     7
100
AcDbCircle
 10
-19.27905801324927
 20
10.93455436445035
 30
0.0
 40
0.0620000000000012
210
0.0
220
0.0
230
-1.0
100
AcDbArc
 50
270.0000000000008
 51
360.0000000000008
  0
LWPOLYLINE
  5
9D
330
A
100
AcDbEntity
  8
ADP2DETAIL
  6
CONTINUOUS
 62
     5
100
AcDbPolyline
 90
        2
 70
   128
 43
0.0
 10
19.61538479073018
 20
11.00483088853716
 10
19.74106287369754
 20
10.87183187105662
  0
LWPOLYLINE
  5
A1
330
A
100
AcDbEntity
  8
ADP2DETAIL
  6
CONTINUOUS
 62
     5
100
AcDbPolyline
 90
        2
 70
   128
 43
0.0
 10
19.61538479073018
 20
11.06763597924972
 10
19.61538479073018
 20
11.00483088853716
  0
ARC
  5
A5
330
A
100
AcDbEntity
  8
ADP1DETAIL
  6
CONTINUOUS
 62
     7
100
AcDbCircle
 10
-21.15505801324927
 20
10.93455436445035
 30
0.0
 40
0.0619999999999994
210
0.0
220
0.0
230
-1.0
100
AcDbArc
 50
180.0
 51
270.0000000000008
  0
ARC
  5
A6
330
A
100
AcDbEntity
  8
ADP1DETAIL
  6
CONTINUOUS
 62
     7
100
AcDbCircle
 10
-20.65412610647015
 20
10.74291061332253
 30
0.0
 40
0.125
210
0.0
220
0.0
230
-1.0
100
AcDbArc
 50
355.6177596408565
 51
90.0
  0
LWPOLYLINE
  5
A7
330
A
100
AcDbEntity
  8
ADP2DETAIL
  6
CONTINUOUS
 62
     5
100
AcDbPolyline
 90
        2
 70
   128
 43
0.0
 10
20.78345163236498
 20
11.00483088853716
 10
20.687344863037
 20
10.87922070711203
  0
LWPOLYLINE
  5
AB
330
A
100
AcDbEntity
  8
ADP2DETAIL
  6
CONTINUOUS
 62
     5
100
AcDbPolyline
 90
        2
 70
   128
 43
0.0
 10
20.77605880395513
 20
11.00483088853716
 10
20.99784363269015
 20
11.00483088853716
  0
LWPOLYLINE
  5
AF
330
A
100
AcDbEntity
  8
ADP2DETAIL
  6
CONTINUOUS
 62
     5
100
AcDbPolyline
 90
        2
 70
   128
 43
0.0
 10
20.78345163236498
 20
11.07133039727742
 10
20.78345163236498
 20
11.00483088853716
  0
LWPOLYLINE
  5
B3
330
A
100
AcDbEntity
  8
ADP2DETAIL
  6
CONTINUOUS
 62
     5
100
AcDbPolyline
 90
        2
 70
   128
 43
0.0
 10
20.99784363269015
 20
11.06763597924972
 10
20.99784363269015
 20
11.00483088853716
  0
LWPOLYLINE
  5
B7
330
A
100
AcDbEntity
  8
ADP2DETAIL
  6
CONTINUOUS
 62
     5
100
AcDbPolyline
 90
        2
 70
   128
 43
0.0
 10
20.99784363269015
 20
11.00483088853716
 10
21.1235217156575
 20
10.87183187105662
  0
LWPOLYLINE
  5
BB
330
A
100
AcDbEntity
  8
ADP1DETAIL
  6
CONTINUOUS
 62
     7
100
AcDbPolyline
 90
        2
 70
   128
 43
0.0
 10
21.21705801324927
 20
11.06055436445034
 10
21.21705801324927
 20
10.93455436445035
  0
LWPOLYLINE
  5
BF
330
A
100
AcDbEntity
  8
ADPDIM
  6
CONTINUOUS
 62
     3
 48
0.125
100
AcDbPolyline
 90
        2
 70
   128
 43
0.0
 10
13.82299037014531
 20
11.08533611972106
 10
13.82299037014531
 20
11.68710622102035
  0
LWPOLYLINE
  5
C3
330
A
100
AcDbEntity
  8
ADPDIM
  6
CONTINUOUS
 62
     3
 48
0.125
100
AcDbPolyline
 90
        2
 70
   128
 43
0.0
 10
16.32299037014531
 20
11.14783611972106
 10
16.32299037014531
 20
11.68710622102035
  0
LWPOLYLINE
  5
C7
330
A
100
AcDbEntity
  8
ADPDIM
  6
CONTINUOUS
 62
     3
 48
0.125
100
AcDbPolyline
 90
        2
 70
   128
 43
0.0
 10
13.82299037014531
 20
11.50710622102035
 10
14.67715703681198
 20
11.50710622102035
  0
LWPOLYLINE
  5
CB
330
A
100
AcDbEntity
  8
ADPDIM
  6
CONTINUOUS
 62
     3
 48
0.125
100
AcDbPolyline
 90
        2
 70
   128
 43
0.0
 10
16.32299037014531
 20
11.50710622102035
 10
15.46882370347865
 20
11.50710622102035
  0
LWPOLYLINE
  5
CF
330
A
100
AcDbEntity
  8
ADPDIM
  6
CONTINUOUS
 62
     3
 48
0.125
100
AcDbPolyline
 90
        2
 70
   128
 43
0.0
 10
13.69799037014531
 20
11.38210622102035
 10
13.94799037014531
 20
11.63210622102035
  0
LWPOLYLINE
  5
D3
330
A
100
AcDbEntity
  8
ADPDIM
  6
CONTINUOUS
 62
     3
 48
0.125
100
AcDbPolyline
 90
        2
 70
   128
 43
0.0
 10
16.19799037014531
 20
11.38210622102035
 10
16.44799037014531
 20
11.63210622102035
  0
TEXT
  5
D7
330
A
100
AcDbEntity
  8
ADPDIM
 62
     3
 48
0.0
100
AcDbText
 10
14.80215703681198
 20
11.44460622102035
 30
0.0
 40
0.125
  1
2 1/2
 72
     5
 11
15.34382370347865
 21
11.44460622102035
 31
0.0
100
AcDbText
  0
LWPOLYLINE
  5
D8
330
A
100
AcDbEntity
  8
ADPDIM
  6
CONTINUOUS
 62
     3
 48
0.125
100
AcDbPolyline
 90
        2
 70
   128
 43
0.0
 10
20.39056519344627
 20
9.510861357058308
 10
22.37588062826807
 20
9.510861357058308
  0
LWPOLYLINE
  5
DC
330
A
100
AcDbEntity
  8
ADPDIM
  6
CONTINUOUS
 62
     3
 48
0.125
100
AcDbPolyline
 90
        2
 70
   128
 43
0.0
 10
21.27955801324927
 20
11.06055436445034
 10
22.37588062826807
 20
11.06055436445034
  0
LWPOLYLINE
  5
E0
330
A
100
AcDbEntity
  8
ADPDIM
  6
CONTINUOUS
 62
     3
 48
0.125
100
AcDbPolyline
 90
        2
 70
   128
 43
0.0
 10
22.19588062826807
 20
9.510861357058308
 10
22.19588062826807
 20
9.848207860754326
  0
LWPOLYLINE
  5
E4
330
A
100
AcDbEntity
  8
ADPDIM
  6
CONTINUOUS
 62
     3
 48
0.125
100
AcDbPolyline
 90
        2
 70
   128
 43
0.0
 10
22.19588062826807
 20
11.06055436445034
 10
22.19588062826807
 20
10.72320786075432
  0
LWPOLYLINE
  5
E8
330
A
100
AcDbEntity
  8
ADPDIM
  6
CONTINUOUS
 62
     3
 48
0.125
100
AcDbPolyline
 90
        2
 70
   128
 43
0.0
 10
22.32088062826807
 20
9.385861357058308
 10
22.07088062826807
 20
9.635861357058308
  0
LWPOLYLINE
  5
EC
330
A
100
AcDbEntity
  8
ADPDIM
  6
CONTINUOUS
 62
     3
 48
0.125
100
AcDbPolyline
 90
        2
 70
   128
 43
0.0
 10
22.32088062826807
 20
10.93555436445034
 10
22.07088062826807
 20
11.18555436445034
  0
TEXT
  5
F0
330
A
100
AcDbEntity
  8
ADPDIM
 62
     3
 48
0.0
100
AcDbText
 10
22.25838062826807
 20
9.973207860754326
 30
0.0
 40
0.125
  1
1 9/16
 50
90.0
 72
     5
 11
22.25838062826807
 21
10.59820786075432
 31
0.0
100
AcDbText
  0
LWPOLYLINE
  5
F1
330
A
100
AcDbEntity
  8
ADPDIM
  6
CONTINUOUS
 62
     3
 48
0.125
100
AcDbPolyline
 90
        2
 70
   128
 43
0.0
 10
19.04624517584115
 20
8.51503535647263
 10
18.85686478740107
 20
8.351832818274582
  0
LWPOLYLINE
  5
F5
330
A
100
AcDbEntity
  8
ADPDIM
  6
CONTINUOUS
 62
     3
 48
0.125
100
AcDbPolyline
 90
        2
 70
   128
 43
0.0
 10
19.03315625072014
 20
8.338743893153568
 10
19.05933410096217
 20
8.691326819791692
  0
LWPOLYLINE
  5
F9
330
A
100
AcDbEntity
  8
ADPDIM
  6
CONTINUOUS
 62
     3
 48
0.125
100
AcDbPolyline
 90
        2
 70
   128
 43
0.0
 10
20.05056519344627
 20
9.542111357058312
 10
20.42556519344628
 20
9.542111357058312
  0
LWPOLYLINE
  5
FD
330
A
100
AcDbEntity
  8
ADPDIM
  6
CONTINUOUS
 62
     3
 48
0.125
100
AcDbPolyline
 90
        2
 70
   128
 43
0.0
 10
20.23806519344627
 20
9.354611357058312
 10
20.23806519344627
 20
9.729611357058312
  0
TEXT
  5
101
330
A
100
AcDbEntity
  8
ADPDIM
 62
     3
 48
0.0
100
AcDbText
 10
18.29796085855701
 20
7.78767968353741
 30
0.0
 40
0.1250000000000008
  1
%%c3 1/8
 50
40.75381196201131
 72
     5
 11
18.80297522773055
 21
8.222886452065536
 31
0.0
100
AcDbText
  0
LWPOLYLINE
  5
102
330
A
100
AcDbEntity
  8
ADPDIM
  6
CONTINUOUS
 62
     3
 48
0.125
100
AcDbPolyline
 90
        2
 70
   128
 43
0.0
 10
19.50449237636268
 20
11.24733088853716
 10
19.50449237636268
 20
11.55083088853716
  0
LWPOLYLINE
  5
106
330
A
100
AcDbEntity
  8
ADPDIM
  6
CONTINUOUS
 62
     3
 48
0.125
100
AcDbPolyline
 90
        2
 70
   128
 43
0.0
 10
20.87949237636268
 20
11.24733088853716
 10
20.87949237636268
 20
11.55083088853716
  0
LWPOLYLINE
  5
10A
330
A
100
AcDbEntity
  8
ADPDIM
  6
CONTINUOUS
 62
     3
 48
0.125
100
AcDbPolyline
 90
        2
 70
   128
 43
0.0
 10
19.50449237636268
 20
11.37083088853716
 10
19.79615904302934
 20
11.37083088853716
  0
LWPOLYLINE
  5
10E
330
A
100
AcDbEntity
  8
ADPDIM
  6
CONTINUOUS
 62
     3
 48
0.125
100
AcDbPolyline
 90
        2
 70
   128
 43
0.0
 10
20.87949237636268
 20
11.37083088853716
 10
20.58782570969601
 20
11.37083088853716
  0
LWPOLYLINE
  5
112
330
A
100
AcDbEntity
  8
ADPDIM
  6
CONTINUOUS
 62
     3
 48
0.125
100
AcDbPolyline
 90
        2
 70
   128
 43
0.0
 10
19.37949237636268
 20
11.24583088853716
 10
19.62949237636268
 20
11.49583088853716
  0
LWPOLYLINE
  5
116
330
A
100
AcDbEntity
  8
ADPDIM
  6
CONTINUOUS
 62
     3
 48
0.125
100
AcDbPolyline
 90
        2
 70
   128
 43
0.0
 10
20.75449237636268
 20
11.24583088853716
 10
21.00449237636268
 20
11.49583088853716
  0
TEXT
  5
11A
330
A
100
AcDbEntity
  8
ADPDIM
 62
     3
 48
0.0
100
AcDbText
 10
19.92115904302934
 20
11.30833088853716
 30
0.0
 40
0.125
  1
1 3/8
 72
     5
 11
20.46282570969601
 21
11.30833088853716
 31
0.0
100
AcDbText
  0
LWPOLYLINE
  5
11B
330
A
100
AcDbEntity
  8
ADPDIM
  6
CONTINUOUS
 62
     3
 48
0.125
100
AcDbPolyline
 90
        2
 70
   128
 43
0.0
 10
19.21705801324927
 20
11.12305436445034
 10
19.21705801324927
 20
11.84434267234027
  0
LWPOLYLINE
  5
11F
330
A
100
AcDbEntity
  8
ADPDIM
  6
CONTINUOUS
 62
     3
 48
0.125
100
AcDbPolyline
 90
        2
 70
   128
 43
0.0
 10
21.21312158966601
 20
11.12305436445034
 10
21.21312158966601
 20
11.84434267234027
  0
LWPOLYLINE
  5
123
330
A
100
AcDbEntity
  8
ADPDIM
  6
CONTINUOUS
 62
     3
 48
0.125
100
AcDbPolyline
 90
        2
 70
   128
 43
0.0
 10
19.21705801324927
 20
11.66434267234027
 10
20.04842313479097
 20
11.66434267234027
  0
LWPOLYLINE
  5
127
330
A
100
AcDbEntity
  8
ADPDIM
  6
CONTINUOUS
 62
     3
 48
0.125
100
AcDbPolyline
 90
        2
 70
   128
 43
0.0
 10
21.21312158966601
 20
11.66434267234027
 10
20.38175646812431
 20
11.66434267234027
  0
LWPOLYLINE
  5
12B
330
A
100
AcDbEntity
  8
ADPDIM
  6
CONTINUOUS
 62
     3
 48
0.125
100
AcDbPolyline
 90
        2
 70
   128
 43
0.0
 10
19.09205801324927
 20
11.53934267234027
 10
19.34205801324927
 20
11.78934267234027
  0
LWPOLYLINE
  5
12F
330
A
100
AcDbEntity
  8
ADPDIM
  6
CONTINUOUS
 62
     3
 48
0.125
100
AcDbPolyline
 90
        2
 70
   128
 43
0.0
 10
21.08812158966601
 20
11.53934267234027
 10
21.33812158966601
 20
11.78934267234027
  0
TEXT
  5
133
330
A
100
AcDbEntity
  8
ADPDIM
 62
     3
 48
0.0
100
AcDbText
 10
20.17342313479097
 20
11.60184267234027
 30
0.0
 40
0.125
  1
2
 72
     5
 11
20.25675646812431
 21
11.60184267234027
 31
0.0
100
AcDbText
  0
LWPOLYLINE
  5
134
330
A
100
AcDbEntity
  8
DEFPOINTS
  6
CONTINUOUS
 62
     3
 48
0.125
100
AcDbPolyline
 90
        2
 70
   128
 43
0.0
 10
13.82299037014531
 20
11.02283611972106
 10
13.82299037014531
 20
11.02283611972106
  0
LWPOLYLINE
  5
138
330
A
100
AcDbEntity
  8
DEFPOINTS
  6
CONTINUOUS
 62
     3
 48
0.125
100
AcDbPolyline
 90
        2
 70
   128
 43
0.0
 10
13.82299037014531
 20
11.02283611972106
 10
13.82299037014531
 20
11.02283611972106
  0
LWPOLYLINE
  5
13C
330
A
100
AcDbEntity
  8
DEFPOINTS
  6
CONTINUOUS
 62
     3
 48
0.125
100
AcDbPolyline
 90
        2
 70
   128
 43
0.0
 10
16.32299037014531
 20
11.08533611972106
 10
16.32299037014531
 20
11.08533611972106
  0
LWPOLYLINE
  5
140
330
A
100
AcDbEntity
  8
DEFPOINTS
  6
CONTINUOUS
 62
     3
 48
0.125
100
AcDbPolyline
 90
        2
 70
   128
 43
0.0
 10
16.32299037014531
 20
11.08533611972106
 10
16.32299037014531
 20
11.08533611972106
  0
LWPOLYLINE
  5
144
330
A
100
AcDbEntity
  8
DEFPOINTS
  6
CONTINUOUS
 62
     3
 48
0.125
100
AcDbPolyline
 90
        2
 70
   128
 43
0.0
 10
16.32299037014531
 20
11.50710622102035
 10
16.32299037014531
 20
11.50710622102035
  0
LWPOLYLINE
  5
148
330
A
100
AcDbEntity
  8
DEFPOINTS
  6
CONTINUOUS
 62
     3
 48
0.125
100
AcDbPolyline
 90
        2
 70
   128
 43
0.0
 10
16.32299037014531
 20
11.50710622102035
 10
16.32299037014531
 20
11.50710622102035
  0
LWPOLYLINE
  5
14C
330
A
100
AcDbEntity
  8
DEFPOINTS
  6
CONTINUOUS
 62
     3
 48
0.125
100
AcDbPolyline
 90
        2
 70
   128
 43
0.0
 10
20.32806519344628
 20
9.51086135705831
 10
20.32806519344628
 20
9.51086135705831
  0
LWPOLYLINE
  5
150
330
A
100
AcDbEntity
  8
DEFPOINTS
  6
CONTINUOUS
 62
     3
 48
0.125
100
AcDbPolyline
 90
        2
 70
   128
 43
0.0
 10
20.32806519344628
 20
9.51086135705831
 10
20.32806519344628
 20
9.51086135705831
  0
LWPOLYLINE
  5
154
330
A
100
AcDbEntity
  8
DEFPOINTS
  6
CONTINUOUS
 62
     3
 48
0.125
100
AcDbPolyline
 90
        2
 70
   128
 43
0.0
 10
21.21705801324927
 20
11.06055436445034
 10
21.21705801324927
 20
11.06055436445034
  0
LWPOLYLINE
  5
158
330
A
100
AcDbEntity
  8
DEFPOINTS
  6
CONTINUOUS
 62
     3
 48
0.125
100
AcDbPolyline
 90
        2
 70
   128
 43
0.0
 10
21.21705801324927
 20
11.06055436445034
 10
21.21705801324927
 20
11.06055436445034
  0
LWPOLYLINE
  5
15C
330
A
100
AcDbEntity
  8
DEFPOINTS
  6
CONTINUOUS
 62
     3
 48
0.125
100
AcDbPolyline
 90
        2
 70
   128
 43
0.0
 10
22.19588062826807
 20
11.06055436445034
 10
22.19588062826807
 20
11.06055436445034
  0
LWPOLYLINE
  5
160
330
A
100
AcDbEntity
  8
DEFPOINTS
  6
CONTINUOUS
 62
     3
 48
0.125
100
AcDbPolyline
 90
        2
 70
   128
 43
0.0
 10
22.19588062826807
 20
11.06055436445034
 10
22.19588062826807
 20
11.06055436445034
  0
LWPOLYLINE
  5
164
330
A
100
AcDbEntity
  8
DEFPOINTS
  6
CONTINUOUS
 62
     3
 48
0.125
100
AcDbPolyline
 90
        2
 70
   128
 43
0.0
 10
19.04624517584116
 20
8.51503535647263
 10
19.04624517584116
 20
8.51503535647263
  0
LWPOLYLINE
  5
168
330
A
100
AcDbEntity
  8
DEFPOINTS
  6
CONTINUOUS
 62
     3
 48
0.125
100
AcDbPolyline
 90
        2
 70
   128
 43
0.0
 10
19.04624517584116
 20
8.51503535647263
 10
19.04624517584116
 20
8.51503535647263
  0
LWPOLYLINE
  5
16C
330
A
100
AcDbEntity
  8
DEFPOINTS
  6
CONTINUOUS
 62
     3
 48
0.125
100
AcDbPolyline
 90
        2
 70
   128
 43
0.0
 10
21.42988521105139
 20
10.56918735764399
 10
21.42988521105139
 20
10.56918735764399
  0
LWPOLYLINE
  5
170
330
A
100
AcDbEntity
  8
DEFPOINTS
  6
CONTINUOUS
 62
     3
 48
0.125
100
AcDbPolyline
 90
        2
 70
   128
 43
0.0
 10
21.42988521105139
 20
10.56918735764399
 10
21.42988521105139
 20
10.56918735764399
  0
LWPOLYLINE
  5
174
330
A
100
AcDbEntity
  8
DEFPOINTS
  6
CONTINUOUS
 62
     3
 48
0.125
100
AcDbPolyline
 90
        2
 70
   128
 43
0.0
 10
19.50449237636268
 20
11.18483088853716
 10
19.50449237636268
 20
11.18483088853716
  0
LWPOLYLINE
  5
178
330
A
100
AcDbEntity
  8
DEFPOINTS
  6
CONTINUOUS
 62
     3
 48
0.125
100
AcDbPolyline
 90
        2
 70
   128
 43
0.0
 10
19.50449237636268
 20
11.18483088853716
 10
19.50449237636268
 20
11.18483088853716
  0
LWPOLYLINE
  5
17C
330
A
100
AcDbEntity
  8
DEFPOINTS
  6
CONTINUOUS
 62
     3
 48
0.125
100
AcDbPolyline
 90
        2
 70
   128
 43
0.0
 10
20.87949237636268
 20
11.18483088853716
 10
20.87949237636268
 20
11.18483088853716
  0
LWPOLYLINE
  5
180
330
A
100
AcDbEntity
  8
DEFPOINTS
  6
CONTINUOUS
 62
     3
 48
0.125
100
AcDbPolyline
 90
        2
 70
   128
 43
0.0
 10
20.87949237636268
 20
11.18483088853716
 10
20.87949237636268
 20
11.18483088853716
  0
LWPOLYLINE
  5
184
330
A
100
AcDbEntity
  8
DEFPOINTS
  6
CONTINUOUS
 62
     3
 48
0.125
100
AcDbPolyline
 90
        2
 70
   128
 43
0.0
 10
20.87949237636268
 20
11.37083088853716
 10
20.87949237636268
 20
11.37083088853716
  0
LWPOLYLINE
  5
188
330
A
100
AcDbEntity
  8
DEFPOINTS
  6
CONTINUOUS
 62
     3
 48
0.125
100
AcDbPolyline
 90
        2
 70
   128
 43
0.0
 10
20.87949237636268
 20
11.37083088853716
 10
20.87949237636268
 20
11.37083088853716
  0
LWPOLYLINE
  5
18C
330
A
100
AcDbEntity
  8
DEFPOINTS
  6
CONTINUOUS
 62
     3
 48
0.125
100
AcDbPolyline
 90
        2
 70
   128
 43
0.0
 10
19.21705801324927
 20
11.06055436445035
 10
19.21705801324927
 20
11.06055436445035
  0
LWPOLYLINE
  5
190
330
A
100
AcDbEntity
  8
DEFPOINTS
  6
CONTINUOUS
 62
     3
 48
0.125
100
AcDbPolyline
 90
        2
 70
   128
 43
0.0
 10
19.21705801324927
 20
11.06055436445035
 10
19.21705801324927
 20
11.06055436445035
  0
LWPOLYLINE
  5
194
330
A
100
AcDbEntity
  8
DEFPOINTS
  6
CONTINUOUS
 62
     3
 48
0.125
100
AcDbPolyline
 90
        2
 70
   128
 43
0.0
 10
21.21312158966601
 20
11.06055436445035
 10
21.21312158966601
 20
11.06055436445035
  0
LWPOLYLINE
  5
198
330
A
100
AcDbEntity
  8
DEFPOINTS
  6
CONTINUOUS
 62
     3
 48
0.125
100
AcDbPolyline
 90
        2
 70
   128
 43
0.0
 10
21.21312158966601
 20
11.06055436445035
 10
21.21312158966601
 20
11.06055436445035
  0
LWPOLYLINE
  5
19C
330
A
100
AcDbEntity
  8
DEFPOINTS
  6
CONTINUOUS
 62
     3
 48
0.125
100
AcDbPolyline
 90
        2
 70
   128
 43
0.0
 10
21.21312158966601
 20
11.66434267234027
 10
21.21312158966601
 20
11.66434267234027
  0
LWPOLYLINE
  5
1A0
330
A
100
AcDbEntity
  8
DEFPOINTS
  6
CONTINUOUS
 62
     3
 48
0.125
100
AcDbPolyline
 90
        2
 70
   128
 43
0.0
 10
21.21312158966601
 20
11.66434267234027
 10
21.21312158966601
 20
11.66434267234027
  0
TEXT
  5
1B1
330
A
100
AcDbEntity
  8
ADPDIM
100
AcDbText
 10
11.47161596680887
 20
6.638815413209782
 30
0.0
 40
0.125
  1
J U L I U S  B L U M  &  C O . ,  I N C .      ( 8 0 0 )  5 2 6 - 6 2 9 3        W W W . J U L I U S B L U M . C O M        P A R T  N O .  1 7 0
 41
1.25
  7
ARIAL_WIDE
 72
     1
 11
17.93051774034229
 21
6.763815413209782
 31
0.0
100
AcDbText
 73
     3
  0
ENDSEC
  0
SECTION
  2
OBJECTS
  0
DICTIONARY
  5
19
330
0
100
AcDbDictionary
  3
ACAD_GROUP
350
1A
  3
ACAD_LAYOUT
350
1B6
  3
ACAD_MLINESTYLE
350
1B
  3
ACAD_PLOTSETTINGS
350
1B7
  3
ACAD_PLOTSTYLENAME
350
1B4
  3
ACDBHEADERROUNDTRIPXREC
350
2BB
  3
ACDBVARIABLEDICTIONARY
350
1EC
  0
DICTIONARY
  5
1E0
330
A
100
AcDbDictionary
280
     1
  3
ACAD_LAYOUTSELFREF
360
2DB
  0
DICTIONARY
  5
1E2
330
B
100
AcDbDictionary
280
     1
  3
ACAD_LAYOUTSELFREF
360
2DC
  0
DICTIONARY
  5
1A
102
{ACAD_REACTORS
330
19
102
}
330
19
100
AcDbDictionary
  0
DICTIONARY
  5
1B6
102
{ACAD_REACTORS
330
19
102
}
330
19
100
AcDbDictionary
  0
DICTIONARY
  5
1B
102
{ACAD_REACTORS
330
19
102
}
330
19
100
AcDbDictionary
  3
STANDARD
350
1C
  0
DICTIONARY
  5
1B7
102
{ACAD_REACTORS
330
19
102
}
330
19
100
AcDbDictionary
  0
ACDBDICTIONARYWDFLT
  5
1B4
102
{ACAD_REACTORS
330
19
102
}
330
19
100
AcDbDictionary
281
     1
  3
Normal
350
1B5
100
AcDbDictionaryWithDefault
340
1B5
  0
DICTIONARY
  5
2BB
102
{ACAD_REACTORS
330
19
102
}
330
19
100
AcDbDictionary
  3
CEPSNTYPE
350
2C5
  3
FINGERPRINTGUID
350
2C6
  3
HYPERLINKBASE
350
2BE
  3
INSUNITS
350
2C4
  3
LAYOUTDICT
350
2C0
  3
LWETCUNION
350
2C3
  3
PLOTSETDICT
350
2C1
  3
PLOTSTYLNAMDICT
350
2C2
  3
PSVPSCALE
350
2C8
  3
PUCSBASE
350
2CB
  3
PUCSORGBACK
350
2D1
  3
PUCSORGBOTTOM
350
2CD
  3
PUCSORGFRONT
350
2D0
  3
PUCSORGLEFT
350
2CE
  3
PUCSORGRIGHT
350
2CF
  3
PUCSORGTOP
350
2CC
  3
PUCSORTHOREF
350
2C9
  3
PUCSORTHOVIEW
350
2CA
  3
STYLESHEET
350
2BF
  3
TSTACKALIGN
350
2BC
  3
TSTACKSIZE
350
2BD
  3
UCSBASE
350
2D4
  3
UCSORGBACK
350
2DA
  3
UCSORGBOTTOM
350
2D6
  3
UCSORGFRONT
350
2D9
  3
UCSORGLEFT
350
2D7
  3
UCSORGRIGHT
350
2D8
  3
UCSORGTOP
350
2D5
  3
UCSORTHOREF
350
2D2
  3
UCSORTHOVIEW
350
2D3
  3
VERSIONGUID
350
2C7
  0
DICTIONARY
  5
1EC
102
{ACAD_REACTORS
330
19
102
}
330
19
100
AcDbDictionary
  3
DIMASSOC
350
1ED
  0
XRECORD
  5
2DB
102
{ACAD_REACTORS
330
1E0
102
}
330
1E0
100
AcDbXrecord
340
A
  0
XRECORD
  5
2DC
102
{ACAD_REACTORS
330
1E2
102
}
330
1E2
100
AcDbXrecord
340
B
  0
MLINESTYLE
  5
1C
102
{ACAD_REACTORS
330
1B
102
}
330
1B
100
AcDbMlineStyle
  2
STANDARD
 70
     0
  3

 62
     0
 51
90.00000000000019
 52
90.00000000000019
 71
     2
 49
0.5
 62
   256
  6
BYLAYER
 49
-0.5
 62
   256
  6
BYLAYER
  0
ACDBPLACEHOLDER
  5
1B5
102
{ACAD_REACTORS
330
1B4
102
}
330
1B4
100
AcDbPlaceHolder
280
     0
  0
XRECORD
  5
2C5
102
{ACAD_REACTORS
330
2BB
102
}
330
2BB
100
AcDbXrecord
 90
        0
  0
XRECORD
  5
2C6
102
{ACAD_REACTORS
330
2BB
102
}
330
2BB
100
AcDbXrecord
  1
{71F21602-DDB5-4FFC-B591-C3B57D906125}
  0
XRECORD
  5
2BE
102
{ACAD_REACTORS
330
2BB
102
}
330
2BB
100
AcDbXrecord
  1

  0
XRECORD
  5
2C4
102
{ACAD_REACTORS
330
2BB
102
}
330
2BB
100
AcDbXrecord
 90
        0
  0
XRECORD
  5
2C0
102
{ACAD_REACTORS
330
2BB
102
}
330
2BB
100
AcDbXrecord
340
1B6
  0
XRECORD
  5
2C3
102
{ACAD_REACTORS
330
2BB
102
}
330
2BB
100
AcDbXrecord
 90
    14877
  0
XRECORD
  5
2C1
102
{ACAD_REACTORS
330
2BB
102
}
330
2BB
100
AcDbXrecord
340
1B7
  0
XRECORD
  5
2C2
102
{ACAD_REACTORS
330
2BB
102
}
330
2BB
100
AcDbXrecord
340
1B4
  0
XRECORD
  5
2C8
102
{ACAD_REACTORS
330
2BB
102
}
330
2BB
100
AcDbXrecord
 40
0.0
  0
XRECORD
  5
2CB
102
{ACAD_REACTORS
330
2BB
102
}
330
2BB
100
AcDbXrecord
340
0
  0
XRECORD
  5
2D1
102
{ACAD_REACTORS
330
2BB
102
}
330
2BB
100
AcDbXrecord
 10
0.0
 20
0.0
 30
0.0
  0
XRECORD
  5
2CD
102
{ACAD_REACTORS
330
2BB
102
}
330
2BB
100
AcDbXrecord
 10
0.0
 20
0.0
 30
0.0
  0
XRECORD
  5
2D0
102
{ACAD_REACTORS
330
2BB
102
}
330
2BB
100
AcDbXrecord
 10
0.0
 20
0.0
 30
0.0
  0
XRECORD
  5
2CE
102
{ACAD_REACTORS
330
2BB
102
}
330
2BB
100
AcDbXrecord
 10
0.0
 20
0.0
 30
0.0
  0
XRECORD
  5
2CF
102
{ACAD_REACTORS
330
2BB
102
}
330
2BB
100
AcDbXrecord
 10
0.0
 20
0.0
 30
0.0
  0
XRECORD
  5
2CC
102
{ACAD_REACTORS
330
2BB
102
}
330
2BB
100
AcDbXrecord
 10
0.0
 20
0.0
 30
0.0
  0
XRECORD
  5
2C9
102
{ACAD_REACTORS
330
2BB
102
}
330
2BB
100
AcDbXrecord
340
0
  0
XRECORD
  5
2CA
102
{ACAD_REACTORS
330
2BB
102
}
330
2BB
100
AcDbXrecord
 70
     0
  0
XRECORD
  5
2BF
102
{ACAD_REACTORS
330
2BB
102
}
330
2BB
100
AcDbXrecord
  1

  0
XRECORD
  5
2BC
102
{ACAD_REACTORS
330
2BB
102
}
330
2BB
100
AcDbXrecord
 90
        1
  0
XRECORD
  5
2BD
102
{ACAD_REACTORS
330
2BB
102
}
330
2BB
100
AcDbXrecord
 90
       70
  0
XRECORD
  5
2D4
102
{ACAD_REACTORS
330
2BB
102
}
330
2BB
100
AcDbXrecord
340
0
  0
XRECORD
  5
2DA
102
{ACAD_REACTORS
330
2BB
102
}
330
2BB
100
AcDbXrecord
 10
0.0
 20
0.0
 30
0.0
  0
XRECORD
  5
2D6
102
{ACAD_REACTORS
330
2BB
102
}
330
2BB
100
AcDbXrecord
 10
0.0
 20
0.0
 30
0.0
  0
XRECORD
  5
2D9
102
{ACAD_REACTORS
330
2BB
102
}
330
2BB
100
AcDbXrecord
 10
0.0
 20
0.0
 30
0.0
  0
XRECORD
  5
2D7
102
{ACAD_REACTORS
330
2BB
102
}
330
2BB
100
AcDbXrecord
 10
0.0
 20
0.0
 30
0.0
  0
XRECORD
  5
2D8
102
{ACAD_REACTORS
330
2BB
102
}
330
2BB
100
AcDbXrecord
 10
0.0
 20
0.0
 30
0.0
  0
XRECORD
  5
2D5
102
{ACAD_REACTORS
330
2BB
102
}
330
2BB
100
AcDbXrecord
 10
0.0
 20
0.0
 30
0.0
  0
XRECORD
  5
2D2
102
{ACAD_REACTORS
330
2BB
102
}
330
2BB
100
AcDbXrecord
340
0
  0
XRECORD
  5
2D3
102
{ACAD_REACTORS
330
2BB
102
}
330
2BB
100
AcDbXrecord
 70
     0
  0
XRECORD
  5
2C7
102
{ACAD_REACTORS
330
2BB
102
}
330
2BB
100
AcDbXrecord
  1
{213E9E24-9339-43CA-AFAE-43AE65760A95}
  0
DICTIONARYVAR
  5
1ED
102
{ACAD_REACTORS
330
1EC
102
}
330
1EC
100
DictionaryVariables
280
     0
  1
1
  0
ENDSEC
  0
EOF
