  0
SECTION
  2
HEADER
  9
$ACADVER
  1
AC1014
  9
$ACADMAINTVER
 70
     9
  9
$DWGCODEPAGE
  3
ANSI_1252
  9
$INSBASE
 10
0.0
 20
0.0
 30
0.0
  9
$EXTMIN
 10
-3.758758485705304
 20
-0.4592223130991194
 30
0.0
  9
$EXTMAX
 10
6.02983505112962
 20
3.460363247392091
 30
0.0
  9
$LIMMIN
 10
0.0
 20
0.0
  9
$LIMMAX
 10
0.0
 20
0.0
  9
$ORTHOMODE
 70
     1
  9
$REGENMODE
 70
     1
  9
$FILLMODE
 70
     1
  9
$QTEXTMODE
 70
     0
  9
$MIRRTEXT
 70
     1
  9
$DRAGMODE
 70
     0
  9
$LTSCALE
 40
1.0
  9
$OSMODE
 70
    37
  9
$ATTMODE
 70
     1
  9
$TEXTSIZE
 40
0.0
  9
$TRACEWID
 40
0.05
  9
$TEXTSTYLE
  7
STANDARD
  9
$CLAYER
  8
0
  9
$CELTYPE
  6
CONTINUOUS
  9
$CECOLOR
 62
   256
  9
$CELTSCALE
 40
1.0
  9
$DELOBJ
 70
     1
  9
$DISPSILH
 70
     0
  9
$DIMSCALE
 40
1.0
  9
$DIMASZ
 40
0.18
  9
$DIMEXO
 40
0.0625
  9
$DIMDLI
 40
0.38
  9
$DIMRND
 40
0.0
  9
$DIMDLE
 40
0.0
  9
$DIMEXE
 40
0.18
  9
$DIMTP
 40
0.0
  9
$DIMTM
 40
0.0
  9
$DIMTXT
 40
0.18
  9
$DIMCEN
 40
0.09
  9
$DIMTSZ
 40
0.0
  9
$DIMTOL
 70
     0
  9
$DIMLIM
 70
     0
  9
$DIMTIH
 70
     1
  9
$DIMTOH
 70
     1
  9
$DIMSE1
 70
     0
  9
$DIMSE2
 70
     0
  9
$DIMTAD
 70
     0
  9
$DIMZIN
 70
     0
  9
$DIMBLK
  1

  9
$DIMASO
 70
     1
  9
$DIMSHO
 70
     1
  9
$DIMPOST
  1

  9
$DIMAPOST
  1

  9
$DIMALT
 70
     0
  9
$DIMALTD
 70
     2
  9
$DIMALTF
 40
25.4
  9
$DIMLFAC
 40
1.0
  9
$DIMTOFL
 70
     0
  9
$DIMTVP
 40
0.0
  9
$DIMTIX
 70
     0
  9
$DIMSOXD
 70
     0
  9
$DIMSAH
 70
     0
  9
$DIMBLK1
  1

  9
$DIMBLK2
  1

  9
$DIMSTYLE
  2
STANDARD
  9
$DIMCLRD
 70
     0
  9
$DIMCLRE
 70
     0
  9
$DIMCLRT
 70
     0
  9
$DIMTFAC
 40
1.0
  9
$DIMGAP
 40
0.09
  9
$DIMJUST
 70
     0
  9
$DIMSD1
 70
     0
  9
$DIMSD2
 70
     0
  9
$DIMTOLJ
 70
     1
  9
$DIMTZIN
 70
     0
  9
$DIMALTZ
 70
     0
  9
$DIMALTTZ
 70
     0
  9
$DIMFIT
 70
     3
  9
$DIMUPT
 70
     0
  9
$DIMUNIT
 70
     2
  9
$DIMDEC
 70
     4
  9
$DIMTDEC
 70
     4
  9
$DIMALTU
 70
     2
  9
$DIMALTTD
 70
     2
  9
$DIMTXSTY
  7
STANDARD
  9
$DIMAUNIT
 70
     0
  9
$LUNITS
 70
     2
  9
$LUPREC
 70
     4
  9
$SKETCHINC
 40
0.1
  9
$FILLETRAD
 40
0.0
  9
$AUNITS
 70
     0
  9
$AUPREC
 70
     0
  9
$MENU
  1
acad
  9
$ELEVATION
 40
0.0
  9
$PELEVATION
 40
0.0
  9
$THICKNESS
 40
0.0
  9
$LIMCHECK
 70
     0
  9
$BLIPMODE
 70
     0
  9
$CHAMFERA
 40
0.0
  9
$CHAMFERB
 40
0.0
  9
$CHAMFERC
 40
0.0
  9
$CHAMFERD
 40
0.0
  9
$SKPOLY
 70
     0
  9
$TDCREATE
 40
2444971.791666666
  9
$TDUPDATE
 40
2452297.082821712
  9
$TDINDWG
 40
0.0470941898
  9
$TDUSRTIMER
 40
0.0470941898
  9
$USRTIMER
 70
     1
  9
$ANGBASE
 50
0.0
  9
$ANGDIR
 70
     0
  9
$PDMODE
 70
     0
  9
$PDSIZE
 40
0.0
  9
$PLINEWID
 40
0.0
  9
$COORDS
 70
     2
  9
$SPLFRAME
 70
     0
  9
$SPLINETYPE
 70
     6
  9
$SPLINESEGS
 70
     8
  9
$ATTDIA
 70
     0
  9
$ATTREQ
 70
     1
  9
$HANDLING
 70
 22529
  9
$HANDSEED
  5
32B
  9
$SURFTAB1
 70
     6
  9
$SURFTAB2
 70
     6
  9
$SURFTYPE
 70
     6
  9
$SURFU
 70
     6
  9
$SURFV
 70
     6
  9
$UCSNAME
  2

  9
$UCSORG
 10
0.0
 20
0.0
 30
0.0
  9
$UCSXDIR
 10
1.0
 20
0.0
 30
0.0
  9
$UCSYDIR
 10
0.0
 20
1.0
 30
0.0
  9
$PUCSNAME
  2

  9
$PUCSORG
 10
0.0
 20
0.0
 30
0.0
  9
$PUCSXDIR
 10
1.0
 20
0.0
 30
0.0
  9
$PUCSYDIR
 10
0.0
 20
1.0
 30
0.0
  9
$USERI1
 70
     0
  9
$USERI2
 70
     0
  9
$USERI3
 70
     0
  9
$USERI4
 70
     0
  9
$USERI5
 70
     0
  9
$USERR1
 40
0.0
  9
$USERR2
 40
0.0
  9
$USERR3
 40
0.0
  9
$USERR4
 40
0.0
  9
$USERR5
 40
0.0
  9
$WORLDVIEW
 70
     1
  9
$SHADEDGE
 70
     3
  9
$SHADEDIF
 70
    70
  9
$TILEMODE
 70
     1
  9
$MAXACTVP
 70
    16
  9
$PINSBASE
 10
0.0
 20
0.0
 30
0.0
  9
$PLIMCHECK
 70
     0
  9
$PEXTMIN
 10
1.000000000000000E+20
 20
1.000000000000000E+20
 30
1.000000000000000E+20
  9
$PEXTMAX
 10
-1.000000000000000E+20
 20
-1.000000000000000E+20
 30
-1.000000000000000E+20
  9
$PLIMMIN
 10
0.0
 20
0.0
  9
$PLIMMAX
 10
12.0
 20
9.0
  9
$UNITMODE
 70
     0
  9
$VISRETAIN
 70
     0
  9
$PLINEGEN
 70
     0
  9
$PSLTSCALE
 70
     0
  9
$TREEDEPTH
 70
  3020
  9
$PICKSTYLE
 70
     1
  9
$CMLSTYLE
  2
STANDARD
  9
$CMLJUST
 70
     0
  9
$CMLSCALE
 40
1.0
  9
$PROXYGRAPHICS
 70
     1
  9
$MEASUREMENT
 70
     0
  0
ENDSEC
  0
SECTION
  2
CLASSES
  0
CLASS
  1
LWPOLYLINE
  2
AcDbPolyline
  3
AutoCAD 2000
 90
        0
280
     0
281
     1
  0
CLASS
  1
IMAGE
  2
AcDbRasterImage
  3
ISM
 90
      127
280
     0
281
     1
  0
CLASS
  1
OLE2FRAME
  2
AcDbOle2Frame
  3
AutoCAD 2000
 90
        0
280
     0
281
     1
  0
CLASS
  1
HATCH
  2
AcDbHatch
  3
AutoCAD 2000
 90
        0
280
     0
281
     1
  0
CLASS
  1
DICTIONARYVAR
  2
AcDbDictionaryVar
  3
AutoCAD 2000
 90
        0
280
     0
281
     0
  0
CLASS
  1
RASTERVARIABLES
  2
AcDbRasterVariables
  3
ISM
 90
        0
280
     0
281
     0
  0
CLASS
  1
IMAGEDEF
  2
AcDbRasterImageDef
  3
ISM
 90
        0
280
     0
281
     0
  0
CLASS
  1
IMAGEDEF_REACTOR
  2
AcDbRasterImageDefReactor
  3
ISM
 90
        1
280
     0
281
     0
  0
CLASS
  1
IDBUFFER
  2
AcDbIdBuffer
  3
AutoCAD 2000
 90
        0
280
     0
281
     0
  0
CLASS
  1
SPATIAL_FILTER
  2
AcDbSpatialFilter
  3
AutoCAD 2000
 90
        0
280
     0
281
     0
  0
CLASS
  1
XRECORD
  2
AcDbXrecord
  3
AutoCAD 2000
 90
        0
280
     0
281
     0
  0
CLASS
  1
SORTENTSTABLE
  2
AcDbSortentsTable
  3
AutoCAD 2000
 90
        0
280
     0
281
     0
  0
CLASS
  1
LAYER_INDEX
  2
AcDbLayerIndex
  3
AutoCAD 2000
 90
        0
280
     0
281
     0
  0
CLASS
  1
SPATIAL_INDEX
  2
AcDbSpatialIndex
  3
AutoCAD 2000
 90
        0
280
     0
281
     0
  0
CLASS
  1
OBJECT_PTR
  2
CAseDLPNTableRecord
  3
ASE-LPNTableRecord
 90
        1
280
     0
281
     0
  0
CLASS
  1
ACDBDICTIONARYWDFLT
  2
AcDbDictionaryWithDefault
  3
AutoCAD 2000
 90
        0
280
     0
281
     0
  0
CLASS
  1
ACDBPLACEHOLDER
  2
AcDbPlaceHolder
  3
AutoCAD 2000
 90
        0
280
     0
281
     0
  0
CLASS
  1
LAYOUT
  2
AcDbLayout
  3
AutoCAD 2000
 90
        0
280
     0
281
     0
  0
CLASS
  1
LONG_TRANSACTION
  2
AcDbLongTransaction
  3
AutoCAD 2000
 90
        0
280
     0
281
     0
  0
CLASS
  1
LWPOLYLINE
  2
AcDbPolyline
  3
AutoCAD 2000
 90
        0
280
     0
281
     1
  0
CLASS
  1
HATCH
  2
AcDbHatch
  3
AutoCAD 2000
 90
        0
280
     0
281
     1
  0
CLASS
  1
XRECORD
  2
AcDbXrecord
  3
AutoCAD 2000
 90
        0
280
     0
281
     0
  0
CLASS
  1
LONG_TRANSACTION
  2
AcDbLongTransaction
  3
AutoCAD 2000
 90
        0
280
     0
281
     0
  0
CLASS
  1
LWPOLYLINE
  2
AcDbPolyline
  3
AutoCAD 2000
 90
        0
280
     0
281
     1
  0
CLASS
  1
HATCH
  2
AcDbHatch
  3
AutoCAD 2000
 90
        0
280
     0
281
     1
  0
CLASS
  1
XRECORD
  2
AcDbXrecord
  3
AutoCAD 2000
 90
        0
280
     0
281
     0
  0
CLASS
  1
LONG_TRANSACTION
  2
AcDbLongTransaction
  3
AutoCAD 2000
 90
        0
280
     0
281
     0
  0
CLASS
  1
LWPOLYLINE
  2
AcDbPolyline
  3
AutoCAD 2000
 90
        0
280
     0
281
     1
  0
CLASS
  1
HATCH
  2
AcDbHatch
  3
AutoCAD 2000
 90
        0
280
     0
281
     1
  0
CLASS
  1
XRECORD
  2
AcDbXrecord
  3
AutoCAD 2000
 90
        0
280
     0
281
     0
  0
CLASS
  1
LONG_TRANSACTION
  2
AcDbLongTransaction
  3
AutoCAD 2000
 90
        0
280
     0
281
     0
  0
CLASS
  1
LWPOLYLINE
  2
AcDbPolyline
  3
AutoCAD 2000
 90
        0
280
     0
281
     1
  0
CLASS
  1
HATCH
  2
AcDbHatch
  3
AutoCAD 2000
 90
        0
280
     0
281
     1
  0
CLASS
  1
XRECORD
  2
AcDbXrecord
  3
AutoCAD 2000
 90
        0
280
     0
281
     0
  0
CLASS
  1
LONG_TRANSACTION
  2
AcDbLongTransaction
  3
AutoCAD 2000
 90
        0
280
     0
281
     0
  0
CLASS
  1
LWPOLYLINE
  2
AcDbPolyline
  3
AutoCAD 2000
 90
        0
280
     0
281
     1
  0
CLASS
  1
HATCH
  2
AcDbHatch
  3
AutoCAD 2000
 90
        0
280
     0
281
     1
  0
CLASS
  1
XRECORD
  2
AcDbXrecord
  3
AutoCAD 2000
 90
        0
280
     0
281
     0
  0
CLASS
  1
LONG_TRANSACTION
  2
AcDbLongTransaction
  3
AutoCAD 2000
 90
        0
280
     0
281
     0
  0
CLASS
  1
LWPOLYLINE
  2
AcDbPolyline
  3
AutoCAD 2000
 90
        0
280
     0
281
     1
  0
CLASS
  1
HATCH
  2
AcDbHatch
  3
AutoCAD 2000
 90
        0
280
     0
281
     1
  0
CLASS
  1
XRECORD
  2
AcDbXrecord
  3
AutoCAD 2000
 90
        0
280
     0
281
     0
  0
CLASS
  1
LONG_TRANSACTION
  2
AcDbLongTransaction
  3
AutoCAD 2000
 90
        0
280
     0
281
     0
  0
CLASS
  1
LWPOLYLINE
  2
AcDbPolyline
  3
AutoCAD 2000
 90
        0
280
     0
281
     1
  0
CLASS
  1
HATCH
  2
AcDbHatch
  3
AutoCAD 2000
 90
        0
280
     0
281
     1
  0
CLASS
  1
XRECORD
  2
AcDbXrecord
  3
AutoCAD 2000
 90
        0
280
     0
281
     0
  0
CLASS
  1
LONG_TRANSACTION
  2
AcDbLongTransaction
  3
AutoCAD 2000
 90
        0
280
     0
281
     0
  0
CLASS
  1
LWPOLYLINE
  2
AcDbPolyline
  3
AutoCAD 2000
 90
        0
280
     0
281
     1
  0
CLASS
  1
HATCH
  2
AcDbHatch
  3
AutoCAD 2000
 90
        0
280
     0
281
     1
  0
CLASS
  1
XRECORD
  2
AcDbXrecord
  3
AutoCAD 2000
 90
        0
280
     0
281
     0
  0
ENDSEC
  0
SECTION
  2
TABLES
  0
TABLE
  2
VPORT
  5
7
330
0
100
AcDbSymbolTable
 70
     3
  0
VPORT
  5
2D
330
7
100
AcDbSymbolTableRecord
100
AcDbViewportTableRecord
  2
DCADVPORT
 70
     0
 10
0.106641313002851
 20
-0.1021367526079083
 11
2.525907551000292
 21
3.460363247392091
 12
6.209999999999999
 22
9.019999999999999
 13
0.0
 23
0.0
 14
1.0
 24
1.0
 15
0.0
 25
0.0
 16
0.0
 26
0.0
 36
1.0
 17
0.0
 27
0.0
 37
0.0
 40
18.04
 41
0.688564
 42
50.0
 43
1.0
 44
1.0
 50
0.0
 51
0.0
 71
     0
 72
   100
 73
     1
 74
     1
 75
     0
 76
     0
 77
     0
 78
     0
  0
VPORT
  5
308
330
7
100
AcDbSymbolTableRecord
100
AcDbViewportTableRecord
  2
*ACTIVE
 70
     0
 10
0.0
 20
0.0
 11
1.0
 21
1.0
 12
1.143254627947022
 22
1.500484523119803
 13
0.0
 23
0.0
 14
1.0
 24
1.0
 15
0.0
 25
0.0
 16
0.0
 26
0.0
 36
1.0
 17
0.0
 27
0.0
 37
0.0
 40
6.273461158766414
 41
1.570528967254408
 42
50.0
 43
0.0
 44
0.0
 50
0.0
 51
0.0
 71
     0
 72
   100
 73
     1
 74
     1
 75
     0
 76
     0
 77
     0
 78
     0
  0
ENDTAB
  0
TABLE
  2
LTYPE
  5
4
330
0
100
AcDbSymbolTable
 70
     2
  0
LTYPE
  5
11
330
4
100
AcDbSymbolTableRecord
100
AcDbLinetypeTableRecord
  2
BYBLOCK
 70
     0
  3

 72
    65
 73
     0
 40
0.0
  0
LTYPE
  5
12
330
4
100
AcDbSymbolTableRecord
100
AcDbLinetypeTableRecord
  2
BYLAYER
 70
     0
  3

 72
    65
 73
     0
 40
0.0
  0
LTYPE
  5
13
330
4
100
AcDbSymbolTableRecord
100
AcDbLinetypeTableRecord
  2
CONTINUOUS
 70
     0
  3
Solid line
 72
    65
 73
     0
 40
0.0
  0
LTYPE
  5
1E
330
4
100
AcDbSymbolTableRecord
100
AcDbLinetypeTableRecord
  2
CONTINUOUS
 70
     0
  3
Solid line
 72
    65
 73
     0
 40
0.0
  0
ENDTAB
  0
TABLE
  2
LAYER
  5
2
330
0
100
AcDbSymbolTable
 70
     4
  0
LAYER
  5
14
330
2
100
AcDbSymbolTableRecord
100
AcDbLayerTableRecord
  2
0
 70
     0
 62
     7
  6
CONTINUOUS
  0
LAYER
  5
2A
330
2
100
AcDbSymbolTableRecord
100
AcDbLayerTableRecord
  2
ADPDIM
 70
     0
 62
     3
  6
CONTINUOUS
  0
LAYER
  5
2B
330
2
100
AcDbSymbolTableRecord
100
AcDbLayerTableRecord
  2
ADP1DETAIL
 70
     0
 62
   250
  6
CONTINUOUS
  0
LAYER
  5
2C
330
2
100
AcDbSymbolTableRecord
100
AcDbLayerTableRecord
  2
DEFPOINTS
 70
     0
 62
   250
  6
CONTINUOUS
  0
ENDTAB
  0
TABLE
  2
STYLE
  5
3
330
0
100
AcDbSymbolTable
 70
     2
  0
STYLE
  5
17
330
3
100
AcDbSymbolTableRecord
100
AcDbTextStyleTableRecord
  2
STANDARD
 70
     0
 40
0.0
 41
1.0
 50
0.0
 71
     0
 42
0.0
  3
txt
  4

  0
STYLE
  5
10F
330
3
100
AcDbSymbolTableRecord
100
AcDbTextStyleTableRecord
  2
ARIAL_WIDE
 70
     0
 40
0.0
 41
1.25
 50
0.0
 71
     0
 42
0.2
  3
ARIAL.TTF
  4

1001
ACAD
1000
Arial
1071
       34
  0
ENDTAB
  0
TABLE
  2
VIEW
  5
5
330
0
100
AcDbSymbolTable
 70
     0
  0
ENDTAB
  0
TABLE
  2
UCS
  5
6
330
0
100
AcDbSymbolTable
 70
     0
  0
ENDTAB
  0
TABLE
  2
APPID
  5
8
330
0
100
AcDbSymbolTable
 70
     1
  0
APPID
  5
16
330
8
100
AcDbSymbolTableRecord
100
AcDbRegAppTableRecord
  2
ACAD
 70
     0
  0
ENDTAB
  0
TABLE
  2
DIMSTYLE
  5
9
330
0
100
AcDbSymbolTable
 70
     1
  0
DIMSTYLE
105
18
330
9
100
AcDbSymbolTableRecord
100
AcDbDimStyleTableRecord
  2
STANDARD
 70
     0
  3

  4

  5

  6

  7

 40
1.0
 41
0.18
 42
0.0625
 43
0.38
 44
0.18
 45
0.0
 46
0.0
 47
0.0
 48
0.0
140
0.18
141
0.09
142
0.0
143
25.4
144
1.0
145
0.0
146
1.0
147
0.09
 71
     0
 72
     0
 73
     1
 74
     1
 75
     0
 76
     0
 77
     0
 78
     0
170
     0
171
     2
172
     0
173
     0
174
     0
175
     0
176
     0
177
     0
178
     0
270
     2
271
     4
272
     4
273
     2
274
     2
340
17
275
     0
280
     0
281
     0
282
     0
283
     1
284
     0
285
     0
286
     0
287
     0
288
     0
  0
ENDTAB
  0
TABLE
  2
BLOCK_RECORD
  5
1
330
0
100
AcDbSymbolTable
 70
     0
  0
BLOCK_RECORD
  5
A
102
{ACAD_XDICTIONARY
360
166
102
}
330
1
100
AcDbSymbolTableRecord
100
AcDbBlockTableRecord
  2
*MODEL_SPACE
  0
BLOCK_RECORD
  5
B
102
{ACAD_XDICTIONARY
360
168
102
}
330
1
100
AcDbSymbolTableRecord
100
AcDbBlockTableRecord
  2
*PAPER_SPACE
  0
ENDTAB
  0
ENDSEC
  0
SECTION
  2
BLOCKS
  0
BLOCK
  5
D
330
A
100
AcDbEntity
  8
0
100
AcDbBlockBegin
  2
*MODEL_SPACE
 70
     0
 10
0.0
 20
0.0
 30
0.0
  3
*MODEL_SPACE
  1

  0
ENDBLK
  5
E
330
A
100
AcDbEntity
  8
0
100
AcDbBlockEnd
  0
BLOCK
  5
F
330
B
100
AcDbEntity
 67
     1
  8
0
100
AcDbBlockBegin
  2
*PAPER_SPACE
 70
     0
 10
0.0
 20
0.0
 30
0.0
  3
*PAPER_SPACE
  1

  0
ENDBLK
  5
10
330
B
100
AcDbEntity
 67
     1
  8
0
100
AcDbBlockEnd
  0
ENDSEC
  0
SECTION
  2
ENTITIES
  0
LWPOLYLINE
  5
2E
330
A
100
AcDbEntity
  8
ADP1DETAIL
  6
CONTINUOUS
 62
     7
100
AcDbPolyline
 90
        2
 70
   128
 43
0.0
 10
0.4493904284552788
 20
1.833828248758214
 10
0.3073377089905414
 20
1.679937802671414
  0
LWPOLYLINE
  5
32
330
A
100
AcDbEntity
  8
ADP1DETAIL
  6
CONTINUOUS
 62
     7
100
AcDbPolyline
 90
        2
 70
   128
 43
0.0
 10
0.4493904284552788
 20
1.526047356584614
 10
0.3073377089905414
 20
1.679937802671414
  0
ARC
  5
36
330
A
100
AcDbEntity
  8
ADP1DETAIL
  6
CONTINUOUS
 62
     7
100
AcDbCircle
 10
-2.826484301939633
 20
1.67993780267145
 30
0.0
 40
2.561551160968258
210
0.0
220
0.0
230
-1.0
100
AcDbArc
 50
346.4457005994761
 51
360.0
  0
ARC
  5
37
330
A
100
AcDbEntity
  8
ADP1DETAIL
  6
CONTINUOUS
 62
     7
100
AcDbCircle
 10
-1.99127875237743
 20
1.478585351030091
 30
0.0
 40
1.702417225076145
210
0.0
220
0.0
230
-1.0
100
AcDbArc
 50
329.7996627290307
 51
346.4457005994761
  0
ARC
  5
38
330
A
100
AcDbEntity
  8
ADP1DETAIL
  6
CONTINUOUS
 62
     7
100
AcDbCircle
 10
-1.464798160237607
 20
1.172162180320839
 30
0.0
 40
1.093256348585048
210
0.0
220
0.0
230
-1.0
100
AcDbArc
 50
305.4387172479575
 51
329.7996627290306
  0
ARC
  5
39
330
A
100
AcDbEntity
  8
ADP1DETAIL
  6
CONTINUOUS
 62
     7
100
AcDbCircle
 10
-1.135538282712152
 20
0.7095109371140041
 30
0.0
 40
0.5254022830110654
210
0.0
220
0.0
230
-1.0
100
AcDbArc
 50
270.0000000000002
 51
305.4387172479574
  0
ARC
  5
3A
330
A
100
AcDbEntity
  8
ADP1DETAIL
  6
CONTINUOUS
 62
     7
100
AcDbCircle
 10
-1.135538282712158
 20
0.7095109371140005
 30
0.0
 40
0.5254022830110659
210
0.0
220
0.0
230
-1.0
100
AcDbArc
 50
234.5612827520433
 51
270.0000000000008
  0
ARC
  5
3B
330
A
100
AcDbEntity
  8
ADP1DETAIL
  6
CONTINUOUS
 62
     7
100
AcDbCircle
 10
-0.8062784051867007
 20
1.172162180320827
 30
0.0
 40
1.093256348585049
210
0.0
220
0.0
230
-1.0
100
AcDbArc
 50
210.2003372709702
 51
234.5612827520433
  0
ARC
  5
3C
330
A
100
AcDbEntity
  8
ADP1DETAIL
  6
CONTINUOUS
 62
     7
100
AcDbCircle
 10
-0.2797978130468741
 20
1.478585351030071
 30
0.0
 40
1.702417225076152
210
0.0
220
0.0
230
-1.0
100
AcDbArc
 50
193.5542994005247
 51
210.2003372709701
  0
ARC
  5
3D
330
A
100
AcDbEntity
  8
ADP1DETAIL
  6
CONTINUOUS
 62
     7
100
AcDbCircle
 10
0.5554077365153231
 20
1.679937802671415
 30
0.0
 40
2.561551160968264
210
0.0
220
0.0
230
-1.0
100
AcDbArc
 50
180.0000000000008
 51
193.5542994005247
  0
ARC
  5
3E
330
A
100
AcDbEntity
  8
ADP1DETAIL
  6
CONTINUOUS
 62
     7
100
AcDbCircle
 10
0.5554077365153312
 20
1.679937802671414
 30
0.0
 40
2.561551160968271
210
0.0
220
0.0
230
-1.0
100
AcDbArc
 50
166.4457005994761
 51
180.0
  0
ARC
  5
3F
330
A
100
AcDbEntity
  8
ADP1DETAIL
  6
CONTINUOUS
 62
     7
100
AcDbCircle
 10
-0.279797813046871
 20
1.881290254312754
 30
0.0
 40
1.702417225076156
210
0.0
220
0.0
230
-1.0
100
AcDbArc
 50
149.7996627290307
 51
166.4457005994759
  0
ARC
  5
40
330
A
100
AcDbEntity
  8
ADP1DETAIL
  6
CONTINUOUS
 62
     7
100
AcDbCircle
 10
-0.8062784051867005
 20
2.187713425022002
 30
0.0
 40
1.093256348585049
210
0.0
220
0.0
230
-1.0
100
AcDbArc
 50
125.4387172479575
 51
149.7996627290307
  0
ARC
  5
41
330
A
100
AcDbEntity
  8
ADP1DETAIL
  6
CONTINUOUS
 62
     7
100
AcDbCircle
 10
-1.135538282712158
 20
2.650364668228827
 30
0.0
 40
0.5254022830110668
210
0.0
220
0.0
230
-1.0
100
AcDbArc
 50
90.00000000000007
 51
125.4387172479574
  0
ARC
  5
42
330
A
100
AcDbEntity
  8
ADP1DETAIL
  6
CONTINUOUS
 62
     7
100
AcDbCircle
 10
-1.135538282712166
 20
2.650364668228827
 30
0.0
 40
0.5254022830110672
210
0.0
220
0.0
230
-1.0
100
AcDbArc
 50
54.56128275204192
 51
89.99999999999916
  0
ARC
  5
43
330
A
100
AcDbEntity
  8
ADP1DETAIL
  6
CONTINUOUS
 62
     7
100
AcDbCircle
 10
-1.464798160237629
 20
2.187713425022009
 30
0.0
 40
1.093256348585051
210
0.0
220
0.0
230
-1.0
100
AcDbArc
 50
30.20033727096862
 51
54.56128275204173
  0
ARC
  5
44
330
A
100
AcDbEntity
  8
ADP1DETAIL
  6
CONTINUOUS
 62
     7
100
AcDbCircle
 10
-1.99127875237745
 20
1.881290254312778
 30
0.0
 40
1.702417225076147
210
0.0
220
0.0
230
-1.0
100
AcDbArc
 50
13.55429940052321
 51
30.20033727096856
  0
ARC
  5
45
330
A
100
AcDbEntity
  8
ADP1DETAIL
  6
CONTINUOUS
 62
     7
100
AcDbCircle
 10
-2.826484301939643
 20
1.679937802671449
 30
0.0
 40
2.561551160968259
210
0.0
220
0.0
230
-1.0
100
AcDbArc
 50
360.0
 51
13.55429940052317
  0
ARC
  5
46
330
A
100
AcDbEntity
  8
ADP1DETAIL
  6
CONTINUOUS
 62
     7
100
AcDbCircle
 10
-2.772080233014655
 20
1.679937802671451
 30
0.0
 40
2.665438920011804
210
0.0
220
0.0
230
-1.0
100
AcDbArc
 50
345.5917097335277
 51
360.0
  0
ARC
  5
47
330
A
100
AcDbEntity
  8
ADP1DETAIL
  6
CONTINUOUS
 62
     7
100
AcDbCircle
 10
-1.964850113876235
 20
1.472551830665892
 30
0.0
 40
1.83199461675639
210
0.0
220
0.0
230
-1.0
100
AcDbArc
 50
328.1912775715847
 51
345.5917097335277
  0
ARC
  5
48
330
A
100
AcDbEntity
  8
ADP1DETAIL
  6
CONTINUOUS
 62
     7
100
AcDbCircle
 10
-1.455356292211078
 20
1.156544886672227
 30
0.0
 40
1.232457843099284
210
0.0
220
0.0
230
-1.0
100
AcDbArc
 50
303.7362297058596
 51
328.1912775715847
  0
ARC
  5
49
330
A
100
AcDbEntity
  8
ADP1DETAIL
  6
CONTINUOUS
 62
     7
100
AcDbCircle
 10
-1.13553828271215
 20
0.6776542945433044
 30
0.0
 40
0.6565934854338359
210
0.0
220
0.0
230
-1.0
100
AcDbArc
 50
270.0000000000001
 51
303.7362297058594
  0
ARC
  5
4A
330
A
100
AcDbEntity
  8
ADP1DETAIL
  6
CONTINUOUS
 62
     7
100
AcDbCircle
 10
-1.135538282712158
 20
0.6776542945432987
 30
0.0
 40
0.6565934854338352
210
0.0
220
0.0
230
-1.0
100
AcDbArc
 50
236.2637702941413
 51
270.0000000000008
  0
ARC
  5
4B
330
A
100
AcDbEntity
  8
ADP1DETAIL
  6
CONTINUOUS
 62
     7
100
AcDbCircle
 10
-0.815720273213229
 20
1.156544886672213
 30
0.0
 40
1.232457843099283
210
0.0
220
0.0
230
-1.0
100
AcDbArc
 50
211.8087224284161
 51
236.2637702941413
  0
ARC
  5
4C
330
A
100
AcDbEntity
  8
ADP1DETAIL
  6
CONTINUOUS
 62
     7
100
AcDbCircle
 10
-0.3062264515480749
 20
1.472551830665867
 30
0.0
 40
1.83199461675639
210
0.0
220
0.0
230
-1.0
100
AcDbArc
 50
194.408290266473
 51
211.8087224284161
  0
ARC
  5
4D
330
A
100
AcDbEntity
  8
ADP1DETAIL
  6
CONTINUOUS
 62
     7
100
AcDbCircle
 10
0.501003667590336
 20
1.679937802671415
 30
0.0
 40
2.665438920011802
210
0.0
220
0.0
230
-1.0
100
AcDbArc
 50
180.0000000000008
 51
194.408290266473
  0
ARC
  5
4E
330
A
100
AcDbEntity
  8
ADP1DETAIL
  6
CONTINUOUS
 62
     7
100
AcDbCircle
 10
0.5010036675903475
 20
1.679937802671414
 30
0.0
 40
2.665438920011813
210
0.0
220
0.0
230
-1.0
100
AcDbArc
 50
165.5917097335277
 51
180.0000000000008
  0
ARC
  5
4F
330
A
100
AcDbEntity
  8
ADP1DETAIL
  6
CONTINUOUS
 62
     7
100
AcDbCircle
 10
-0.3062264515480741
 20
1.88732377467696
 30
0.0
 40
1.831994616756392
210
0.0
220
0.0
230
-1.0
100
AcDbArc
 50
148.1912775715847
 51
165.5917097335277
  0
ARC
  5
50
330
A
100
AcDbEntity
  8
ADP1DETAIL
  6
CONTINUOUS
 62
     7
100
AcDbCircle
 10
-0.8157202732132262
 20
2.203330718670613
 30
0.0
 40
1.232457843099288
210
0.0
220
0.0
230
-1.0
100
AcDbArc
 50
123.7362297058596
 51
148.1912775715847
  0
ARC
  5
51
330
A
100
AcDbEntity
  8
ADP1DETAIL
  6
CONTINUOUS
 62
     7
100
AcDbCircle
 10
-1.135538282712158
 20
2.682221310799529
 30
0.0
 40
0.6565934854338363
210
0.0
220
0.0
230
-1.0
100
AcDbArc
 50
89.99999999999998
 51
123.7362297058595
  0
ARC
  5
52
330
A
100
AcDbEntity
  8
ADP1DETAIL
  6
CONTINUOUS
 62
     7
100
AcDbCircle
 10
-1.135538282712167
 20
2.68222131079953
 30
0.0
 40
0.6565934854338354
210
0.0
220
0.0
230
-1.0
100
AcDbArc
 50
56.26377029413978
 51
89.9999999999992
  0
ARC
  5
53
330
A
100
AcDbEntity
  8
ADP1DETAIL
  6
CONTINUOUS
 62
     7
100
AcDbCircle
 10
-1.455356292211101
 20
2.203330718670624
 30
0.0
 40
1.232457843099283
210
0.0
220
0.0
230
-1.0
100
AcDbArc
 50
31.80872242841458
 51
56.26377029413972
  0
ARC
  5
54
330
A
100
AcDbEntity
  8
ADP1DETAIL
  6
CONTINUOUS
 62
     7
100
AcDbCircle
 10
-1.964850113876256
 20
1.887323774676982
 30
0.0
 40
1.83199461675639
210
0.0
220
0.0
230
-1.0
100
AcDbArc
 50
14.40829026647148
 51
31.8087224284145
  0
ARC
  5
55
330
A
100
AcDbEntity
  8
ADP1DETAIL
  6
CONTINUOUS
 62
     7
100
AcDbCircle
 10
-2.772080233014663
 20
1.67993780267145
 30
0.0
 40
2.665438920011803
210
0.0
220
0.0
230
-1.0
100
AcDbArc
 50
360.0
 51
14.40829026647142
  0
ARC
  5
56
330
A
100
AcDbEntity
  8
ADP1DETAIL
  6
CONTINUOUS
 62
     7
100
AcDbCircle
 10
-0.4959693092942525
 20
1.95490760475125
 30
0.0
 40
0.129729729005729
210
0.0
220
0.0
230
-1.0
100
AcDbArc
 50
291.0415910495902
 51
356.1897053187393
  0
ARC
  5
57
330
A
100
AcDbEntity
  8
ADP1DETAIL
  6
CONTINUOUS
 62
     7
100
AcDbCircle
 10
-1.774935341113059
 20
2.024566520359762
 30
0.0
 40
1.410582732894817
210
0.0
220
0.0
230
-1.0
100
AcDbArc
 50
356.818753490848
 51
18.53917412389019
  0
ARC
  5
58
330
A
100
AcDbEntity
  8
ADP1DETAIL
  6
CONTINUOUS
 62
     7
100
AcDbCircle
 10
-0.6378075771897608
 20
2.419795716550251
 30
0.0
 40
0.2072189264486555
210
0.0
220
0.0
230
-1.0
100
AcDbArc
 50
14.8962771767098
 51
88.63607246839597
  0
LWPOLYLINE
  5
59
330
A
100
AcDbEntity
  8
ADP1DETAIL
  6
CONTINUOUS
 62
     7
100
AcDbPolyline
 90
        3
 70
   128
 43
0.0
 10
0.632875191097231
 20
2.626955932436331
 10
0.6861449608965076
 20
2.893304781432711
 10
0.8459542702943366
 20
2.86962932818859
  0
ARC
  5
5E
330
A
100
AcDbEntity
  8
ADP1DETAIL
  6
CONTINUOUS
 62
     7
100
AcDbCircle
 10
-1.092701004049065
 20
2.892026096040352
 30
0.0
 40
0.2477611063682769
210
0.0
220
0.0
230
-1.0
100
AcDbArc
 50
354.8135749535698
 51
100.0597215400513
  0
ARC
  5
5F
330
A
100
AcDbEntity
  8
ADP1DETAIL
  6
CONTINUOUS
 62
     7
100
AcDbCircle
 10
-0.495969309294254
 20
1.404968000591578
 30
0.0
 40
0.1297297290057288
210
0.0
220
0.0
230
-1.0
100
AcDbArc
 50
3.810294681261177
 51
68.95840895040986
  0
ARC
  5
60
330
A
100
AcDbEntity
  8
ADP1DETAIL
  6
CONTINUOUS
 62
     7
100
AcDbCircle
 10
-1.774935341113061
 20
1.335309084983086
 30
0.0
 40
1.410582732894817
210
0.0
220
0.0
230
-1.0
100
AcDbArc
 50
341.4608258761099
 51
3.181246509151942
  0
ARC
  5
61
330
A
100
AcDbEntity
  8
ADP1DETAIL
  6
CONTINUOUS
 62
     7
100
AcDbCircle
 10
-0.6378075771897598
 20
0.94007988879258
 30
0.0
 40
0.2072189264486552
210
0.0
220
0.0
230
-1.0
100
AcDbArc
 50
271.3639275316045
 51
345.10372282329
  0
LWPOLYLINE
  5
62
330
A
100
AcDbEntity
  8
ADP1DETAIL
  6
CONTINUOUS
 62
     7
100
AcDbPolyline
 90
        3
 70
   128
 43
0.0
 10
0.632875191097231
 20
0.7329196729064968
 10
0.6861449608965076
 20
0.4665708239101163
 10
0.8459542702943366
 20
0.4902462771542385
  0
ARC
  5
67
330
A
100
AcDbEntity
  8
ADP1DETAIL
  6
CONTINUOUS
 62
     7
100
AcDbCircle
 10
-1.092701004049065
 20
0.4678495093024799
 30
0.0
 40
0.2477611063682767
210
0.0
220
0.0
230
-1.0
100
AcDbArc
 50
259.9402784599496
 51
5.186425046430265
  0
LWPOLYLINE
  5
68
330
A
100
AcDbEntity
  8
ADP1DETAIL
  6
CONTINUOUS
 62
     7
100
AcDbPolyline
 90
        2
 70
   128
 43
0.0
 10
1.322240173395519
 20
1.328191119280585
 10
1.638201374327084
 20
0.7329196729064968
  0
ARC
  5
6C
330
A
100
AcDbEntity
  8
ADP1DETAIL
  6
CONTINUOUS
 62
     7
100
AcDbCircle
 10
-1.775107256130063
 20
1.404968000591575
 30
0.0
 40
0.1297297290057288
210
0.0
220
0.0
230
-1.0
100
AcDbArc
 50
111.041591049589
 51
176.1897053187375
  0
ARC
  5
6D
330
A
100
AcDbEntity
  8
ADP1DETAIL
  6
CONTINUOUS
 62
     7
100
AcDbCircle
 10
-0.4961412243112495
 20
1.335309084983047
 30
0.0
 40
1.410582732894817
210
0.0
220
0.0
230
-1.0
100
AcDbArc
 50
176.8187534908465
 51
198.5391741238902
  0
ARC
  5
6E
330
A
100
AcDbEntity
  8
ADP1DETAIL
  6
CONTINUOUS
 62
     7
100
AcDbCircle
 10
-1.633268988234552
 20
0.9400798887925773
 30
0.0
 40
0.2072189264486556
210
0.0
220
0.0
230
-1.0
100
AcDbArc
 50
194.8962771767106
 51
268.636072468396
  0
LWPOLYLINE
  5
6F
330
A
100
AcDbEntity
  8
ADP1DETAIL
  6
CONTINUOUS
 62
     7
100
AcDbPolyline
 90
        3
 70
   128
 43
0.0
 10
1.638201374327084
 20
0.7329196729064968
 10
1.584931604527808
 20
0.4665708239101163
 10
1.425122295129979
 20
0.4902462771542385
  0
ARC
  5
74
330
A
100
AcDbEntity
  8
ADP1DETAIL
  6
CONTINUOUS
 62
     7
100
AcDbCircle
 10
-1.178375561375247
 20
0.467849509302477
 30
0.0
 40
0.2477611063682768
210
0.0
220
0.0
230
-1.0
100
AcDbArc
 50
174.8135749535691
 51
280.0597215400512
  0
LWPOLYLINE
  5
75
330
A
100
AcDbEntity
  8
ADP1DETAIL
  6
CONTINUOUS
 62
     7
100
AcDbPolyline
 90
        2
 70
   128
 43
0.0
 10
1.282016608711059
 20
1.284444689526737
 10
1.584931604527808
 20
0.4665708239101163
  0
LWPOLYLINE
  5
79
330
A
100
AcDbEntity
  8
ADP1DETAIL
  6
CONTINUOUS
 62
     7
100
AcDbPolyline
 90
        2
 70
   128
 43
0.0
 10
1.239822189376909
 20
1.251510559844649
 10
1.425122295129979
 20
0.4902462771542385
  0
LWPOLYLINE
  5
7D
330
A
100
AcDbEntity
  8
ADP1DETAIL
  6
CONTINUOUS
 62
     7
100
AcDbPolyline
 90
        2
 70
   128
 43
0.0
 10
1.031254376047406
 20
1.251510559844649
 10
0.8459542702943366
 20
0.4902462771542385
  0
LWPOLYLINE
  5
81
330
A
100
AcDbEntity
  8
ADP1DETAIL
  6
CONTINUOUS
 62
     7
100
AcDbPolyline
 90
        2
 70
   128
 43
0.0
 10
0.989059956713257
 20
1.284444689526737
 10
0.6861449608965076
 20
0.4665708239101163
  0
LWPOLYLINE
  5
85
330
A
100
AcDbEntity
  8
ADP1DETAIL
  6
CONTINUOUS
 62
     7
100
AcDbPolyline
 90
        2
 70
   128
 43
0.0
 10
0.9488363920287968
 20
1.328191119280585
 10
0.632875191097231
 20
0.7329196729064968
  0
LWPOLYLINE
  5
89
330
A
100
AcDbEntity
  8
ADP1DETAIL
  6
CONTINUOUS
 62
     7
100
AcDbPolyline
 90
        2
 70
   128
 43
0.0
 10
1.422876556687342
 20
1.744382535516556
 10
1.821686136969037
 20
1.833828248758214
  0
LWPOLYLINE
  5
8D
330
A
100
AcDbEntity
  8
ADP1DETAIL
  6
CONTINUOUS
 62
     7
100
AcDbPolyline
 90
        2
 70
   128
 43
0.0
 10
1.422876556687342
 20
1.615493069826271
 10
1.821686136969037
 20
1.526047356584614
  0
ARC
  5
91
330
A
100
AcDbEntity
  8
ADP1DETAIL
  6
CONTINUOUS
 62
     7
100
AcDbCircle
 10
-1.775107256130063
 20
1.954907604751251
 30
0.0
 40
0.1297297290057283
210
0.0
220
0.0
230
-1.0
100
AcDbArc
 50
183.8102946812624
 51
248.9584089504114
  0
ARC
  5
92
330
A
100
AcDbEntity
  8
ADP1DETAIL
  6
CONTINUOUS
 62
     7
100
AcDbCircle
 10
-0.4961412243112559
 20
2.024566520359762
 30
0.0
 40
1.410582732894817
210
0.0
220
0.0
230
-1.0
100
AcDbArc
 50
161.4608258761098
 51
183.1812465091535
  0
ARC
  5
93
330
A
100
AcDbEntity
  8
ADP1DETAIL
  6
CONTINUOUS
 62
     7
100
AcDbCircle
 10
-1.633268988234554
 20
2.41979571655025
 30
0.0
 40
0.2072189264486558
210
0.0
220
0.0
230
-1.0
100
AcDbArc
 50
91.36392753160412
 51
165.1037228232899
  0
LWPOLYLINE
  5
94
330
A
100
AcDbEntity
  8
ADP1DETAIL
  6
CONTINUOUS
 62
     7
100
AcDbPolyline
 90
        3
 70
   128
 43
0.0
 10
1.638201374327084
 20
2.626955932436331
 10
1.584931604527808
 20
2.893304781432711
 10
1.425122295129979
 20
2.86962932818859
  0
ARC
  5
99
330
A
100
AcDbEntity
  8
ADP1DETAIL
  6
CONTINUOUS
 62
     7
100
AcDbCircle
 10
-1.178375561375251
 20
2.892026096040352
 30
0.0
 40
0.2477611063682768
210
0.0
220
0.0
230
-1.0
100
AcDbArc
 50
79.94027845994867
 51
185.1864250464318
  0
LWPOLYLINE
  5
9A
330
A
100
AcDbEntity
  8
ADP1DETAIL
  6
CONTINUOUS
 62
     7
100
AcDbPolyline
 90
        2
 70
   128
 43
0.0
 10
1.239822189376909
 20
2.108365045498179
 10
1.425122295129979
 20
2.86962932818859
  0
LWPOLYLINE
  5
9E
330
A
100
AcDbEntity
  8
ADP1DETAIL
  6
CONTINUOUS
 62
     7
100
AcDbPolyline
 90
        2
 70
   128
 43
0.0
 10
1.282016608711059
 20
2.075430915816091
 10
1.584931604527808
 20
2.893304781432711
  0
LWPOLYLINE
  5
A2
330
A
100
AcDbEntity
  8
ADP1DETAIL
  6
CONTINUOUS
 62
     7
100
AcDbPolyline
 90
        2
 70
   128
 43
0.0
 10
1.322240173395519
 20
2.031684486062243
 10
1.638201374327084
 20
2.626955932436331
  0
LWPOLYLINE
  5
A6
330
A
100
AcDbEntity
  8
ADP1DETAIL
  6
CONTINUOUS
 62
     7
100
AcDbPolyline
 90
        2
 70
   128
 43
0.0
 10
0.989059956713257
 20
2.075430915816091
 10
0.6861449608965076
 20
2.893304781432711
  0
LWPOLYLINE
  5
AA
330
A
100
AcDbEntity
  8
ADP1DETAIL
  6
CONTINUOUS
 62
     7
100
AcDbPolyline
 90
        2
 70
   128
 43
0.0
 10
1.031254376047406
 20
2.108365045498179
 10
0.8459542702943366
 20
2.86962932818859
  0
LWPOLYLINE
  5
AE
330
A
100
AcDbEntity
  8
ADP1DETAIL
  6
CONTINUOUS
 62
     7
100
AcDbPolyline
 90
        2
 70
   128
 43
0.0
 10
0.9488363920287968
 20
2.031684486062243
 10
0.632875191097231
 20
2.626955932436331
  0
ARC
  5
B2
330
A
100
AcDbEntity
  8
ADP1DETAIL
  6
CONTINUOUS
 62
     7
100
AcDbCircle
 10
-1.571962877670409
 20
1.679937802671424
 30
0.0
 40
0.7266263235241614
210
0.0
220
0.0
230
-1.0
100
AcDbArc
 50
345.3550318668327
 51
360.0
  0
ARC
  5
B3
330
A
100
AcDbEntity
  8
ADP1DETAIL
  6
CONTINUOUS
 62
     7
100
AcDbCircle
 10
-1.356777846874742
 20
1.623705918450235
 30
0.0
 40
0.5042153924043175
210
0.0
220
0.0
230
-1.0
100
AcDbArc
 50
327.7530216518629
 51
345.3550318668327
  0
ARC
  5
B4
330
A
100
AcDbEntity
  8
ADP1DETAIL
  6
CONTINUOUS
 62
     7
100
AcDbCircle
 10
-1.220910913268516
 20
1.537990285056068
 30
0.0
 40
0.3435698401604996
210
0.0
220
0.0
230
-1.0
100
AcDbArc
 50
303.2875208976151
 51
327.7530216518629
  0
ARC
  5
B5
330
A
100
AcDbEntity
  8
ADP1DETAIL
  6
CONTINUOUS
 62
     7
100
AcDbCircle
 10
-1.135538282712156
 20
1.407961167999744
 30
0.0
 40
0.1880190210351754
210
0.0
220
0.0
230
-1.0
100
AcDbArc
 50
270.0000000000002
 51
303.2875208976149
  0
ARC
  5
B6
330
A
100
AcDbEntity
  8
ADP1DETAIL
  6
CONTINUOUS
 62
     7
100
AcDbCircle
 10
-1.135538282712158
 20
1.407961167999742
 30
0.0
 40
0.1880190210351749
210
0.0
220
0.0
230
-1.0
100
AcDbArc
 50
236.7124791023858
 51
270.0000000000008
  0
ARC
  5
B7
330
A
100
AcDbEntity
  8
ADP1DETAIL
  6
CONTINUOUS
 62
     7
100
AcDbCircle
 10
-1.050165652155798
 20
1.537990285056063
 30
0.0
 40
0.3435698401604978
210
0.0
220
0.0
230
-1.0
100
AcDbArc
 50
212.2469783481379
 51
236.7124791023857
  0
ARC
  5
B8
330
A
100
AcDbEntity
  8
ADP1DETAIL
  6
CONTINUOUS
 62
     7
100
AcDbCircle
 10
-0.9142987185495735
 20
1.623705918450226
 30
0.0
 40
0.5042153924043152
210
0.0
220
0.0
230
-1.0
100
AcDbArc
 50
194.6449681331679
 51
212.2469783481378
  0
ARC
  5
B9
330
A
100
AcDbEntity
  8
ADP1DETAIL
  6
CONTINUOUS
 62
     7
100
AcDbCircle
 10
-0.6991136877539085
 20
1.679937802671415
 30
0.0
 40
0.7266263235241605
210
0.0
220
0.0
230
-1.0
100
AcDbArc
 50
180.0000000000008
 51
194.6449681331683
  0
ARC
  5
BA
330
A
100
AcDbEntity
  8
ADP1DETAIL
  6
CONTINUOUS
 62
     7
100
AcDbCircle
 10
-0.699113687753904
 20
1.679937802671413
 30
0.0
 40
0.7266263235241648
210
0.0
220
0.0
230
-1.0
100
AcDbArc
 50
165.3550318668325
 51
179.9999999999999
  0
ARC
  5
BB
330
A
100
AcDbEntity
  8
ADP1DETAIL
  6
CONTINUOUS
 62
     7
100
AcDbCircle
 10
-0.9142987185495732
 20
1.736169686892601
 30
0.0
 40
0.5042153924043156
210
0.0
220
0.0
230
-1.0
100
AcDbArc
 50
147.7530216518629
 51
165.3550318668326
  0
ARC
  5
BC
330
A
100
AcDbEntity
  8
ADP1DETAIL
  6
CONTINUOUS
 62
     7
100
AcDbCircle
 10
-1.050165652155799
 20
1.821885320286765
 30
0.0
 40
0.3435698401604969
210
0.0
220
0.0
230
-1.0
100
AcDbArc
 50
123.2875208976148
 51
147.7530216518629
  0
ARC
  5
BD
330
A
100
AcDbEntity
  8
ADP1DETAIL
  6
CONTINUOUS
 62
     7
100
AcDbCircle
 10
-1.135538282712158
 20
1.951914437343086
 30
0.0
 40
0.1880190210351736
210
0.0
220
0.0
230
-1.0
100
AcDbArc
 50
90.0
 51
123.287520897615
  0
ARC
  5
BE
330
A
100
AcDbEntity
  8
ADP1DETAIL
  6
CONTINUOUS
 62
     7
100
AcDbCircle
 10
-1.13553828271216
 20
1.951914437343085
 30
0.0
 40
0.1880190210351753
210
0.0
220
0.0
230
-1.0
100
AcDbArc
 50
56.71247910238434
 51
89.99999999999934
  0
ARC
  5
BF
330
A
100
AcDbEntity
  8
ADP1DETAIL
  6
CONTINUOUS
 62
     7
100
AcDbCircle
 10
-1.220910913268521
 20
1.821885320286768
 30
0.0
 40
0.3435698401604975
210
0.0
220
0.0
230
-1.0
100
AcDbArc
 50
32.24697834813634
 51
56.71247910238426
  0
ARC
  5
C0
330
A
100
AcDbEntity
  8
ADP1DETAIL
  6
CONTINUOUS
 62
     7
100
AcDbCircle
 10
-1.356777846874749
 20
1.736169686892604
 30
0.0
 40
0.5042153924043192
210
0.0
220
0.0
230
-1.0
100
AcDbArc
 50
14.64496813316677
 51
32.24697834813643
  0
ARC
  5
C1
330
A
100
AcDbEntity
  8
ADP1DETAIL
  6
CONTINUOUS
 62
     7
100
AcDbCircle
 10
-1.571962877670413
 20
1.679937802671424
 30
0.0
 40
0.7266263235241628
210
0.0
220
0.0
230
-1.0
100
AcDbArc
 50
360.0
 51
14.64496813316657
  0
LWPOLYLINE
  5
C2
330
A
100
AcDbEntity
  8
ADP1DETAIL
  6
CONTINUOUS
 62
     7
100
AcDbPolyline
 90
        2
 70
   128
 43
0.0
 10
0.8482000087369737
 20
1.615493069826271
 10
0.4493904284552788
 20
1.526047356584614
  0
LWPOLYLINE
  5
C6
330
A
100
AcDbEntity
  8
ADP1DETAIL
  6
CONTINUOUS
 62
     7
100
AcDbPolyline
 90
        2
 70
   128
 43
0.0
 10
0.8482000087369737
 20
1.744382535516556
 10
0.4493904284552788
 20
1.833828248758214
  0
LWPOLYLINE
  5
CA
330
A
100
AcDbEntity
  8
ADP1DETAIL
  6
CONTINUOUS
 62
     7
100
AcDbPolyline
 90
        2
 70
   128
 43
0.0
 10
1.821686136969037
 20
1.833828248758214
 10
1.963738856433774
 20
1.679937802671414
  0
LWPOLYLINE
  5
CE
330
A
100
AcDbEntity
  8
ADP1DETAIL
  6
CONTINUOUS
 62
     7
100
AcDbPolyline
 90
        2
 70
   128
 43
0.0
 10
1.821686136969037
 20
1.526047356584614
 10
1.963738856433774
 20
1.679937802671414
  0
LWPOLYLINE
  5
D2
330
A
100
AcDbEntity
  8
ADPDIM
  6
CONTINUOUS
 62
     3
 48
0.125
100
AcDbPolyline
 90
        2
 70
   128
 43
0.0
 10
1.272973043901328
 20
0.0228632473920918
 10
2.525907551000292
 20
0.0228632473920917
  0
LWPOLYLINE
  5
D6
330
A
100
AcDbEntity
  8
ADPDIM
  6
CONTINUOUS
 62
     3
 48
0.125
100
AcDbPolyline
 90
        2
 70
   128
 43
0.0
 10
1.272973043901328
 20
3.335363247392091
 10
2.525907551000292
 20
3.335363247392091
  0
LWPOLYLINE
  5
DA
330
A
100
AcDbEntity
  8
ADPDIM
  6
CONTINUOUS
 62
     3
 48
0.125
100
AcDbPolyline
 90
        2
 70
   128
 43
0.0
 10
2.345907551000292
 20
0.0228632473920918
 10
2.345907551000292
 20
1.220779914058758
  0
LWPOLYLINE
  5
DE
330
A
100
AcDbEntity
  8
ADPDIM
  6
CONTINUOUS
 62
     3
 48
0.125
100
AcDbPolyline
 90
        2
 70
   128
 43
0.0
 10
2.345907551000292
 20
3.335363247392091
 10
2.345907551000292
 20
2.137446580725425
  0
LWPOLYLINE
  5
E2
330
A
100
AcDbEntity
  8
ADPDIM
  6
CONTINUOUS
 62
     3
 48
0.125
100
AcDbPolyline
 90
        2
 70
   128
 43
0.0
 10
2.470907551000292
 20
-0.1021367526079083
 10
2.220907551000292
 20
0.1478632473920917
  0
LWPOLYLINE
  5
E6
330
A
100
AcDbEntity
  8
ADPDIM
  6
CONTINUOUS
 62
     3
 48
0.125
100
AcDbPolyline
 90
        2
 70
   128
 43
0.0
 10
2.470907551000292
 20
3.210363247392091
 10
2.220907551000292
 20
3.460363247392091
  0
TEXT
  5
EA
330
A
100
AcDbEntity
  8
ADPDIM
 62
     3
 48
0.0
100
AcDbText
 10
2.408407551000292
 20
1.345779914058758
 30
0.0
 40
0.125
  1
3 5/16
 50
90.0
 72
     5
 11
2.408407551000292
 21
2.012446580725424
 31
0.0
100
AcDbText
  0
LWPOLYLINE
  5
EB
330
A
100
AcDbEntity
  8
DEFPOINTS
  6
CONTINUOUS
 62
     3
 48
0.125
100
AcDbPolyline
 90
        2
 70
   128
 43
0.0
 10
1.210473043901328
 20
0.0228632473920911
 10
1.210473043901328
 20
0.0228632473920911
  0
LWPOLYLINE
  5
EF
330
A
100
AcDbEntity
  8
DEFPOINTS
  6
CONTINUOUS
 62
     3
 48
0.125
100
AcDbPolyline
 90
        2
 70
   128
 43
0.0
 10
1.210473043901328
 20
0.0228632473920911
 10
1.210473043901328
 20
0.0228632473920911
  0
LWPOLYLINE
  5
F3
330
A
100
AcDbEntity
  8
DEFPOINTS
  6
CONTINUOUS
 62
     3
 48
0.125
100
AcDbPolyline
 90
        2
 70
   128
 43
0.0
 10
1.210473043901328
 20
3.335363247392091
 10
1.210473043901328
 20
3.335363247392091
  0
LWPOLYLINE
  5
F7
330
A
100
AcDbEntity
  8
DEFPOINTS
  6
CONTINUOUS
 62
     3
 48
0.125
100
AcDbPolyline
 90
        2
 70
   128
 43
0.0
 10
1.210473043901328
 20
3.335363247392091
 10
1.210473043901328
 20
3.335363247392091
  0
LWPOLYLINE
  5
FB
330
A
100
AcDbEntity
  8
DEFPOINTS
  6
CONTINUOUS
 62
     3
 48
0.125
100
AcDbPolyline
 90
        2
 70
   128
 43
0.0
 10
2.345907551000292
 20
3.335363247392091
 10
2.345907551000292
 20
3.335363247392091
  0
LWPOLYLINE
  5
FF
330
A
100
AcDbEntity
  8
DEFPOINTS
  6
CONTINUOUS
 62
     3
 48
0.125
100
AcDbPolyline
 90
        2
 70
   128
 43
0.0
 10
2.345907551000292
 20
3.335363247392091
 10
2.345907551000292
 20
3.335363247392091
  0
TEXT
  5
110
330
A
100
AcDbEntity
  8
ADPDIM
100
AcDbText
 10
-3.758758485705304
 20
-0.4314682203296787
 30
0.0
 40
0.09375
  1
J U L I U S  B L U M  &  C O . ,  I N C .      ( 8 0 0 )  5 2 6 - 6 2 9 3        W W W . J U L I U S B L U M . C O M        P A R T  N o .  1 6 5 3
 41
1.25
  7
ARIAL_WIDE
 72
     1
 11
1.135538282712158
 21
-0.3377182203296787
 31
0.0
100
AcDbText
 73
     3
  0
ENDSEC
  0
SECTION
  2
OBJECTS
  0
DICTIONARY
  5
19
330
0
100
AcDbDictionary
  3
ACAD_GROUP
350
1A
  3
ACAD_LAYOUT
350
108
  3
ACAD_MLINESTYLE
350
1B
  3
ACAD_PLOTSETTINGS
350
109
  3
ACAD_PLOTSTYLENAME
350
106
  3
ACDBHEADERROUNDTRIPXREC
350
309
  3
ACDBVARIABLEDICTIONARY
350
172
  0
DICTIONARY
  5
166
330
A
100
AcDbDictionary
280
     1
  3
ACAD_LAYOUTSELFREF
360
329
  0
DICTIONARY
  5
168
330
B
100
AcDbDictionary
280
     1
  3
ACAD_LAYOUTSELFREF
360
32A
  0
DICTIONARY
  5
1A
102
{ACAD_REACTORS
330
19
102
}
330
19
100
AcDbDictionary
  0
DICTIONARY
  5
108
102
{ACAD_REACTORS
330
19
102
}
330
19
100
AcDbDictionary
  0
DICTIONARY
  5
1B
102
{ACAD_REACTORS
330
19
102
}
330
19
100
AcDbDictionary
  3
STANDARD
350
1C
  0
DICTIONARY
  5
109
102
{ACAD_REACTORS
330
19
102
}
330
19
100
AcDbDictionary
  0
ACDBDICTIONARYWDFLT
  5
106
102
{ACAD_REACTORS
330
19
102
}
330
19
100
AcDbDictionary
281
     1
  3
Normal
350
107
100
AcDbDictionaryWithDefault
340
107
  0
DICTIONARY
  5
309
102
{ACAD_REACTORS
330
19
102
}
330
19
100
AcDbDictionary
  3
CEPSNTYPE
350
313
  3
FINGERPRINTGUID
350
314
  3
HYPERLINKBASE
350
30C
  3
INSUNITS
350
312
  3
LAYOUTDICT
350
30E
  3
LWETCUNION
350
311
  3
PLOTSETDICT
350
30F
  3
PLOTSTYLNAMDICT
350
310
  3
PSVPSCALE
350
316
  3
PUCSBASE
350
319
  3
PUCSORGBACK
350
31F
  3
PUCSORGBOTTOM
350
31B
  3
PUCSORGFRONT
350
31E
  3
PUCSORGLEFT
350
31C
  3
PUCSORGRIGHT
350
31D
  3
PUCSORGTOP
350
31A
  3
PUCSORTHOREF
350
317
  3
PUCSORTHOVIEW
350
318
  3
STYLESHEET
350
30D
  3
TSTACKALIGN
350
30A
  3
TSTACKSIZE
350
30B
  3
UCSBASE
350
322
  3
UCSORGBACK
350
328
  3
UCSORGBOTTOM
350
324
  3
UCSORGFRONT
350
327
  3
UCSORGLEFT
350
325
  3
UCSORGRIGHT
350
326
  3
UCSORGTOP
350
323
  3
UCSORTHOREF
350
320
  3
UCSORTHOVIEW
350
321
  3
VERSIONGUID
350
315
  0
DICTIONARY
  5
172
102
{ACAD_REACTORS
330
19
102
}
330
19
100
AcDbDictionary
  3
DIMASSOC
350
173
  0
XRECORD
  5
329
102
{ACAD_REACTORS
330
166
102
}
330
166
100
AcDbXrecord
340
A
  0
XRECORD
  5
32A
102
{ACAD_REACTORS
330
168
102
}
330
168
100
AcDbXrecord
340
B
  0
MLINESTYLE
  5
1C
102
{ACAD_REACTORS
330
1B
102
}
330
1B
100
AcDbMlineStyle
  2
STANDARD
 70
     0
  3

 62
     0
 51
90.00000000000019
 52
90.00000000000019
 71
     2
 49
0.5
 62
   256
  6
BYLAYER
 49
-0.5
 62
   256
  6
BYLAYER
  0
ACDBPLACEHOLDER
  5
107
102
{ACAD_REACTORS
330
106
102
}
330
106
100
AcDbPlaceHolder
280
     0
  0
XRECORD
  5
313
102
{ACAD_REACTORS
330
309
102
}
330
309
100
AcDbXrecord
 90
        0
  0
XRECORD
  5
314
102
{ACAD_REACTORS
330
309
102
}
330
309
100
AcDbXrecord
  1
{558377BC-A46D-40BD-8D6E-28AC450312C0}
  0
XRECORD
  5
30C
102
{ACAD_REACTORS
330
309
102
}
330
309
100
AcDbXrecord
  1

  0
XRECORD
  5
312
102
{ACAD_REACTORS
330
309
102
}
330
309
100
AcDbXrecord
 90
        0
  0
XRECORD
  5
30E
102
{ACAD_REACTORS
330
309
102
}
330
309
100
AcDbXrecord
340
108
  0
XRECORD
  5
311
102
{ACAD_REACTORS
330
309
102
}
330
309
100
AcDbXrecord
 90
    14877
  0
XRECORD
  5
30F
102
{ACAD_REACTORS
330
309
102
}
330
309
100
AcDbXrecord
340
109
  0
XRECORD
  5
310
102
{ACAD_REACTORS
330
309
102
}
330
309
100
AcDbXrecord
340
106
  0
XRECORD
  5
316
102
{ACAD_REACTORS
330
309
102
}
330
309
100
AcDbXrecord
 40
0.0
  0
XRECORD
  5
319
102
{ACAD_REACTORS
330
309
102
}
330
309
100
AcDbXrecord
340
0
  0
XRECORD
  5
31F
102
{ACAD_REACTORS
330
309
102
}
330
309
100
AcDbXrecord
 10
0.0
 20
0.0
 30
0.0
  0
XRECORD
  5
31B
102
{ACAD_REACTORS
330
309
102
}
330
309
100
AcDbXrecord
 10
0.0
 20
0.0
 30
0.0
  0
XRECORD
  5
31E
102
{ACAD_REACTORS
330
309
102
}
330
309
100
AcDbXrecord
 10
0.0
 20
0.0
 30
0.0
  0
XRECORD
  5
31C
102
{ACAD_REACTORS
330
309
102
}
330
309
100
AcDbXrecord
 10
0.0
 20
0.0
 30
0.0
  0
XRECORD
  5
31D
102
{ACAD_REACTORS
330
309
102
}
330
309
100
AcDbXrecord
 10
0.0
 20
0.0
 30
0.0
  0
XRECORD
  5
31A
102
{ACAD_REACTORS
330
309
102
}
330
309
100
AcDbXrecord
 10
0.0
 20
0.0
 30
0.0
  0
XRECORD
  5
317
102
{ACAD_REACTORS
330
309
102
}
330
309
100
AcDbXrecord
340
0
  0
XRECORD
  5
318
102
{ACAD_REACTORS
330
309
102
}
330
309
100
AcDbXrecord
 70
     0
  0
XRECORD
  5
30D
102
{ACAD_REACTORS
330
309
102
}
330
309
100
AcDbXrecord
  1

  0
XRECORD
  5
30A
102
{ACAD_REACTORS
330
309
102
}
330
309
100
AcDbXrecord
 90
        1
  0
XRECORD
  5
30B
102
{ACAD_REACTORS
330
309
102
}
330
309
100
AcDbXrecord
 90
       70
  0
XRECORD
  5
322
102
{ACAD_REACTORS
330
309
102
}
330
309
100
AcDbXrecord
340
0
  0
XRECORD
  5
328
102
{ACAD_REACTORS
330
309
102
}
330
309
100
AcDbXrecord
 10
0.0
 20
0.0
 30
0.0
  0
XRECORD
  5
324
102
{ACAD_REACTORS
330
309
102
}
330
309
100
AcDbXrecord
 10
0.0
 20
0.0
 30
0.0
  0
XRECORD
  5
327
102
{ACAD_REACTORS
330
309
102
}
330
309
100
AcDbXrecord
 10
0.0
 20
0.0
 30
0.0
  0
XRECORD
  5
325
102
{ACAD_REACTORS
330
309
102
}
330
309
100
AcDbXrecord
 10
0.0
 20
0.0
 30
0.0
  0
XRECORD
  5
326
102
{ACAD_REACTORS
330
309
102
}
330
309
100
AcDbXrecord
 10
0.0
 20
0.0
 30
0.0
  0
XRECORD
  5
323
102
{ACAD_REACTORS
330
309
102
}
330
309
100
AcDbXrecord
 10
0.0
 20
0.0
 30
0.0
  0
XRECORD
  5
320
102
{ACAD_REACTORS
330
309
102
}
330
309
100
AcDbXrecord
340
0
  0
XRECORD
  5
321
102
{ACAD_REACTORS
330
309
102
}
330
309
100
AcDbXrecord
 70
     0
  0
XRECORD
  5
315
102
{ACAD_REACTORS
330
309
102
}
330
309
100
AcDbXrecord
  1
{4EC0B040-16B3-4FAB-9370-0EB4FB7E1D4C}
  0
DICTIONARYVAR
  5
173
102
{ACAD_REACTORS
330
172
102
}
330
172
100
DictionaryVariables
280
     0
  1
1
  0
ENDSEC
  0
EOF
