  0
SECTION
  2
HEADER
  9
$ACADVER
  1
AC1014
  9
$ACADMAINTVER
 70
     9
  9
$DWGCODEPAGE
  3
ANSI_1252
  9
$INSBASE
 10
0.0
 20
0.0
 30
0.0
  9
$EXTMIN
 10
-5.220582133264907
 20
-16.13882657684132
 30
0.0
  9
$EXTMAX
 10
7.830875915848324
 20
-12.31122802593415
 30
0.0
  9
$LIMMIN
 10
0.0
 20
0.0
  9
$LIMMAX
 10
0.0
 20
0.0
  9
$ORTHOMODE
 70
     0
  9
$REGENMODE
 70
     1
  9
$FILLMODE
 70
     1
  9
$QTEXTMODE
 70
     0
  9
$MIRRTEXT
 70
     1
  9
$DRAGMODE
 70
     0
  9
$LTSCALE
 40
1.0
  9
$OSMODE
 70
    37
  9
$ATTMODE
 70
     1
  9
$TEXTSIZE
 40
0.0
  9
$TRACEWID
 40
0.05
  9
$TEXTSTYLE
  7
STANDARD
  9
$CLAYER
  8
0
  9
$CELTYPE
  6
CONTINUOUS
  9
$CECOLOR
 62
   256
  9
$CELTSCALE
 40
1.0
  9
$DELOBJ
 70
     1
  9
$DISPSILH
 70
     0
  9
$DIMSCALE
 40
1.0
  9
$DIMASZ
 40
0.18
  9
$DIMEXO
 40
0.0625
  9
$DIMDLI
 40
0.38
  9
$DIMRND
 40
0.0
  9
$DIMDLE
 40
0.0
  9
$DIMEXE
 40
0.18
  9
$DIMTP
 40
0.0
  9
$DIMTM
 40
0.0
  9
$DIMTXT
 40
0.18
  9
$DIMCEN
 40
0.09
  9
$DIMTSZ
 40
0.0
  9
$DIMTOL
 70
     0
  9
$DIMLIM
 70
     0
  9
$DIMTIH
 70
     1
  9
$DIMTOH
 70
     1
  9
$DIMSE1
 70
     0
  9
$DIMSE2
 70
     0
  9
$DIMTAD
 70
     0
  9
$DIMZIN
 70
     0
  9
$DIMBLK
  1

  9
$DIMASO
 70
     1
  9
$DIMSHO
 70
     1
  9
$DIMPOST
  1

  9
$DIMAPOST
  1

  9
$DIMALT
 70
     0
  9
$DIMALTD
 70
     2
  9
$DIMALTF
 40
25.4
  9
$DIMLFAC
 40
1.0
  9
$DIMTOFL
 70
     0
  9
$DIMTVP
 40
0.0
  9
$DIMTIX
 70
     0
  9
$DIMSOXD
 70
     0
  9
$DIMSAH
 70
     0
  9
$DIMBLK1
  1

  9
$DIMBLK2
  1

  9
$DIMSTYLE
  2
STANDARD
  9
$DIMCLRD
 70
     0
  9
$DIMCLRE
 70
     0
  9
$DIMCLRT
 70
     0
  9
$DIMTFAC
 40
1.0
  9
$DIMGAP
 40
0.09
  9
$DIMJUST
 70
     0
  9
$DIMSD1
 70
     0
  9
$DIMSD2
 70
     0
  9
$DIMTOLJ
 70
     1
  9
$DIMTZIN
 70
     0
  9
$DIMALTZ
 70
     0
  9
$DIMALTTZ
 70
     0
  9
$DIMFIT
 70
     3
  9
$DIMUPT
 70
     0
  9
$DIMUNIT
 70
     2
  9
$DIMDEC
 70
     4
  9
$DIMTDEC
 70
     4
  9
$DIMALTU
 70
     2
  9
$DIMALTTD
 70
     2
  9
$DIMTXSTY
  7
STANDARD
  9
$DIMAUNIT
 70
     0
  9
$LUNITS
 70
     2
  9
$LUPREC
 70
     4
  9
$SKETCHINC
 40
0.1
  9
$FILLETRAD
 40
0.0
  9
$AUNITS
 70
     0
  9
$AUPREC
 70
     0
  9
$MENU
  1
acad
  9
$ELEVATION
 40
0.0
  9
$PELEVATION
 40
0.0
  9
$THICKNESS
 40
0.0
  9
$LIMCHECK
 70
     0
  9
$BLIPMODE
 70
     0
  9
$CHAMFERA
 40
0.0
  9
$CHAMFERB
 40
0.0
  9
$CHAMFERC
 40
0.0
  9
$CHAMFERD
 40
0.0
  9
$SKPOLY
 70
     0
  9
$TDCREATE
 40
2444971.791666666
  9
$TDUPDATE
 40
2452297.080645613
  9
$TDINDWG
 40
0.0504361921
  9
$TDUSRTIMER
 40
0.0504361921
  9
$USRTIMER
 70
     1
  9
$ANGBASE
 50
0.0
  9
$ANGDIR
 70
     0
  9
$PDMODE
 70
     0
  9
$PDSIZE
 40
0.0
  9
$PLINEWID
 40
0.0
  9
$COORDS
 70
     2
  9
$SPLFRAME
 70
     0
  9
$SPLINETYPE
 70
     6
  9
$SPLINESEGS
 70
     8
  9
$ATTDIA
 70
     0
  9
$ATTREQ
 70
     1
  9
$HANDLING
 70
 22529
  9
$HANDSEED
  5
48F
  9
$SURFTAB1
 70
     6
  9
$SURFTAB2
 70
     6
  9
$SURFTYPE
 70
     6
  9
$SURFU
 70
     6
  9
$SURFV
 70
     6
  9
$UCSNAME
  2

  9
$UCSORG
 10
0.0
 20
0.0
 30
0.0
  9
$UCSXDIR
 10
1.0
 20
0.0
 30
0.0
  9
$UCSYDIR
 10
0.0
 20
1.0
 30
0.0
  9
$PUCSNAME
  2

  9
$PUCSORG
 10
0.0
 20
0.0
 30
0.0
  9
$PUCSXDIR
 10
1.0
 20
0.0
 30
0.0
  9
$PUCSYDIR
 10
0.0
 20
1.0
 30
0.0
  9
$USERI1
 70
     0
  9
$USERI2
 70
     0
  9
$USERI3
 70
     0
  9
$USERI4
 70
     0
  9
$USERI5
 70
     0
  9
$USERR1
 40
0.0
  9
$USERR2
 40
0.0
  9
$USERR3
 40
0.0
  9
$USERR4
 40
0.0
  9
$USERR5
 40
0.0
  9
$WORLDVIEW
 70
     1
  9
$SHADEDGE
 70
     3
  9
$SHADEDIF
 70
    70
  9
$TILEMODE
 70
     1
  9
$MAXACTVP
 70
    16
  9
$PINSBASE
 10
0.0
 20
0.0
 30
0.0
  9
$PLIMCHECK
 70
     0
  9
$PEXTMIN
 10
1.000000000000000E+20
 20
1.000000000000000E+20
 30
1.000000000000000E+20
  9
$PEXTMAX
 10
-1.000000000000000E+20
 20
-1.000000000000000E+20
 30
-1.000000000000000E+20
  9
$PLIMMIN
 10
0.0
 20
0.0
  9
$PLIMMAX
 10
12.0
 20
9.0
  9
$UNITMODE
 70
     0
  9
$VISRETAIN
 70
     0
  9
$PLINEGEN
 70
     0
  9
$PSLTSCALE
 70
     0
  9
$TREEDEPTH
 70
  3020
  9
$PICKSTYLE
 70
     1
  9
$CMLSTYLE
  2
STANDARD
  9
$CMLJUST
 70
     0
  9
$CMLSCALE
 40
1.0
  9
$PROXYGRAPHICS
 70
     1
  9
$MEASUREMENT
 70
     0
  0
ENDSEC
  0
SECTION
  2
CLASSES
  0
CLASS
  1
LWPOLYLINE
  2
AcDbPolyline
  3
AutoCAD 2000
 90
        0
280
     0
281
     1
  0
CLASS
  1
IMAGE
  2
AcDbRasterImage
  3
ISM
 90
      127
280
     0
281
     1
  0
CLASS
  1
OLE2FRAME
  2
AcDbOle2Frame
  3
AutoCAD 2000
 90
        0
280
     0
281
     1
  0
CLASS
  1
HATCH
  2
AcDbHatch
  3
AutoCAD 2000
 90
        0
280
     0
281
     1
  0
CLASS
  1
DICTIONARYVAR
  2
AcDbDictionaryVar
  3
AutoCAD 2000
 90
        0
280
     0
281
     0
  0
CLASS
  1
RASTERVARIABLES
  2
AcDbRasterVariables
  3
ISM
 90
        0
280
     0
281
     0
  0
CLASS
  1
IMAGEDEF
  2
AcDbRasterImageDef
  3
ISM
 90
        0
280
     0
281
     0
  0
CLASS
  1
IMAGEDEF_REACTOR
  2
AcDbRasterImageDefReactor
  3
ISM
 90
        1
280
     0
281
     0
  0
CLASS
  1
IDBUFFER
  2
AcDbIdBuffer
  3
AutoCAD 2000
 90
        0
280
     0
281
     0
  0
CLASS
  1
SPATIAL_FILTER
  2
AcDbSpatialFilter
  3
AutoCAD 2000
 90
        0
280
     0
281
     0
  0
CLASS
  1
XRECORD
  2
AcDbXrecord
  3
AutoCAD 2000
 90
        0
280
     0
281
     0
  0
CLASS
  1
SORTENTSTABLE
  2
AcDbSortentsTable
  3
AutoCAD 2000
 90
        0
280
     0
281
     0
  0
CLASS
  1
LAYER_INDEX
  2
AcDbLayerIndex
  3
AutoCAD 2000
 90
        0
280
     0
281
     0
  0
CLASS
  1
SPATIAL_INDEX
  2
AcDbSpatialIndex
  3
AutoCAD 2000
 90
        0
280
     0
281
     0
  0
CLASS
  1
OBJECT_PTR
  2
CAseDLPNTableRecord
  3
ASE-LPNTableRecord
 90
        1
280
     0
281
     0
  0
CLASS
  1
ACDBDICTIONARYWDFLT
  2
AcDbDictionaryWithDefault
  3
AutoCAD 2000
 90
        0
280
     0
281
     0
  0
CLASS
  1
ACDBPLACEHOLDER
  2
AcDbPlaceHolder
  3
AutoCAD 2000
 90
        0
280
     0
281
     0
  0
CLASS
  1
LAYOUT
  2
AcDbLayout
  3
AutoCAD 2000
 90
        0
280
     0
281
     0
  0
CLASS
  1
LONG_TRANSACTION
  2
AcDbLongTransaction
  3
AutoCAD 2000
 90
        0
280
     0
281
     0
  0
CLASS
  1
LWPOLYLINE
  2
AcDbPolyline
  3
AutoCAD 2000
 90
        0
280
     0
281
     1
  0
CLASS
  1
HATCH
  2
AcDbHatch
  3
AutoCAD 2000
 90
        0
280
     0
281
     1
  0
CLASS
  1
XRECORD
  2
AcDbXrecord
  3
AutoCAD 2000
 90
        0
280
     0
281
     0
  0
CLASS
  1
LONG_TRANSACTION
  2
AcDbLongTransaction
  3
AutoCAD 2000
 90
        0
280
     0
281
     0
  0
CLASS
  1
LWPOLYLINE
  2
AcDbPolyline
  3
AutoCAD 2000
 90
        0
280
     0
281
     1
  0
CLASS
  1
HATCH
  2
AcDbHatch
  3
AutoCAD 2000
 90
        0
280
     0
281
     1
  0
CLASS
  1
XRECORD
  2
AcDbXrecord
  3
AutoCAD 2000
 90
        0
280
     0
281
     0
  0
CLASS
  1
LONG_TRANSACTION
  2
AcDbLongTransaction
  3
AutoCAD 2000
 90
        0
280
     0
281
     0
  0
CLASS
  1
LWPOLYLINE
  2
AcDbPolyline
  3
AutoCAD 2000
 90
        0
280
     0
281
     1
  0
CLASS
  1
HATCH
  2
AcDbHatch
  3
AutoCAD 2000
 90
        0
280
     0
281
     1
  0
CLASS
  1
XRECORD
  2
AcDbXrecord
  3
AutoCAD 2000
 90
        0
280
     0
281
     0
  0
CLASS
  1
LONG_TRANSACTION
  2
AcDbLongTransaction
  3
AutoCAD 2000
 90
        0
280
     0
281
     0
  0
CLASS
  1
LWPOLYLINE
  2
AcDbPolyline
  3
AutoCAD 2000
 90
        0
280
     0
281
     1
  0
CLASS
  1
HATCH
  2
AcDbHatch
  3
AutoCAD 2000
 90
        0
280
     0
281
     1
  0
CLASS
  1
XRECORD
  2
AcDbXrecord
  3
AutoCAD 2000
 90
        0
280
     0
281
     0
  0
CLASS
  1
LONG_TRANSACTION
  2
AcDbLongTransaction
  3
AutoCAD 2000
 90
        0
280
     0
281
     0
  0
CLASS
  1
LWPOLYLINE
  2
AcDbPolyline
  3
AutoCAD 2000
 90
        0
280
     0
281
     1
  0
CLASS
  1
HATCH
  2
AcDbHatch
  3
AutoCAD 2000
 90
        0
280
     0
281
     1
  0
CLASS
  1
XRECORD
  2
AcDbXrecord
  3
AutoCAD 2000
 90
        0
280
     0
281
     0
  0
CLASS
  1
LONG_TRANSACTION
  2
AcDbLongTransaction
  3
AutoCAD 2000
 90
        0
280
     0
281
     0
  0
CLASS
  1
LWPOLYLINE
  2
AcDbPolyline
  3
AutoCAD 2000
 90
        0
280
     0
281
     1
  0
CLASS
  1
HATCH
  2
AcDbHatch
  3
AutoCAD 2000
 90
        0
280
     0
281
     1
  0
CLASS
  1
XRECORD
  2
AcDbXrecord
  3
AutoCAD 2000
 90
        0
280
     0
281
     0
  0
ENDSEC
  0
SECTION
  2
TABLES
  0
TABLE
  2
VPORT
  5
7
330
0
100
AcDbSymbolTable
 70
     3
  0
VPORT
  5
2E
330
7
100
AcDbSymbolTableRecord
100
AcDbViewportTableRecord
  2
DCADVPORT
 70
     0
 10
-2.726620740655209
 20
-15.1936067608956
 11
4.885402147962201
 21
-12.31122802593415
 12
6.209999999999999
 22
9.019999999999999
 13
0.0
 23
0.0
 14
1.0
 24
1.0
 15
0.0
 25
0.0
 16
0.0
 26
0.0
 36
1.0
 17
0.0
 27
0.0
 37
0.0
 40
18.04
 41
0.688564
 42
50.0
 43
1.0
 44
1.0
 50
0.0
 51
0.0
 71
     0
 72
   100
 73
     1
 74
     1
 75
     0
 76
     0
 77
     0
 78
     0
  0
VPORT
  5
46C
330
7
100
AcDbSymbolTableRecord
100
AcDbViewportTableRecord
  2
*ACTIVE
 70
     0
 10
0.0
 20
0.0
 11
1.0
 21
1.0
 12
1.315729088436587
 22
-14.22497973707153
 13
0.0
 23
0.0
 14
1.0
 24
1.0
 15
0.0
 25
0.0
 16
0.0
 26
0.0
 36
1.0
 17
0.0
 27
0.0
 37
0.0
 40
8.364028051903911
 41
1.570528967254408
 42
50.0
 43
0.0
 44
0.0
 50
0.0
 51
0.0
 71
     0
 72
   100
 73
     1
 74
     1
 75
     0
 76
     0
 77
     0
 78
     0
  0
ENDTAB
  0
TABLE
  2
LTYPE
  5
4
330
0
100
AcDbSymbolTable
 70
     2
  0
LTYPE
  5
11
330
4
100
AcDbSymbolTableRecord
100
AcDbLinetypeTableRecord
  2
BYBLOCK
 70
     0
  3

 72
    65
 73
     0
 40
0.0
  0
LTYPE
  5
12
330
4
100
AcDbSymbolTableRecord
100
AcDbLinetypeTableRecord
  2
BYLAYER
 70
     0
  3

 72
    65
 73
     0
 40
0.0
  0
LTYPE
  5
13
330
4
100
AcDbSymbolTableRecord
100
AcDbLinetypeTableRecord
  2
CONTINUOUS
 70
     0
  3
Solid line
 72
    65
 73
     0
 40
0.0
  0
LTYPE
  5
1E
330
4
100
AcDbSymbolTableRecord
100
AcDbLinetypeTableRecord
  2
CONTINUOUS
 70
     0
  3
Solid line
 72
    65
 73
     0
 40
0.0
  0
ENDTAB
  0
TABLE
  2
LAYER
  5
2
330
0
100
AcDbSymbolTable
 70
     5
  0
LAYER
  5
14
330
2
100
AcDbSymbolTableRecord
100
AcDbLayerTableRecord
  2
0
 70
     0
 62
     7
  6
CONTINUOUS
  0
LAYER
  5
2A
330
2
100
AcDbSymbolTableRecord
100
AcDbLayerTableRecord
  2
ADP1DETAIL
 70
     0
 62
   250
  6
CONTINUOUS
  0
LAYER
  5
2B
330
2
100
AcDbSymbolTableRecord
100
AcDbLayerTableRecord
  2
DEFPOINTS
 70
     0
 62
   250
  6
CONTINUOUS
  0
LAYER
  5
2C
330
2
100
AcDbSymbolTableRecord
100
AcDbLayerTableRecord
  2
ADP2DETAIL
 70
     0
 62
   250
  6
CONTINUOUS
  0
LAYER
  5
2D
330
2
100
AcDbSymbolTableRecord
100
AcDbLayerTableRecord
  2
ADPDIM
 70
     0
 62
     3
  6
CONTINUOUS
  0
ENDTAB
  0
TABLE
  2
STYLE
  5
3
330
0
100
AcDbSymbolTable
 70
     2
  0
STYLE
  5
17
330
3
100
AcDbSymbolTableRecord
100
AcDbTextStyleTableRecord
  2
STANDARD
 70
     0
 40
0.0
 41
1.0
 50
0.0
 71
     0
 42
0.0
  3
txt
  4

  0
STYLE
  5
2D9
330
3
100
AcDbSymbolTableRecord
100
AcDbTextStyleTableRecord
  2
ARIAL_WIDE
 70
     0
 40
0.0
 41
1.25
 50
0.0
 71
     0
 42
0.2
  3
ARIAL.TTF
  4

1001
ACAD
1000
Arial
1071
       34
  0
ENDTAB
  0
TABLE
  2
VIEW
  5
5
330
0
100
AcDbSymbolTable
 70
     0
  0
ENDTAB
  0
TABLE
  2
UCS
  5
6
330
0
100
AcDbSymbolTable
 70
     0
  0
ENDTAB
  0
TABLE
  2
APPID
  5
8
330
0
100
AcDbSymbolTable
 70
     1
  0
APPID
  5
16
330
8
100
AcDbSymbolTableRecord
100
AcDbRegAppTableRecord
  2
ACAD
 70
     0
  0
ENDTAB
  0
TABLE
  2
DIMSTYLE
  5
9
330
0
100
AcDbSymbolTable
 70
     1
  0
DIMSTYLE
105
18
330
9
100
AcDbSymbolTableRecord
100
AcDbDimStyleTableRecord
  2
STANDARD
 70
     0
  3

  4

  5

  6

  7

 40
1.0
 41
0.18
 42
0.0625
 43
0.38
 44
0.18
 45
0.0
 46
0.0
 47
0.0
 48
0.0
140
0.18
141
0.09
142
0.0
143
25.4
144
1.0
145
0.0
146
1.0
147
0.09
 71
     0
 72
     0
 73
     1
 74
     1
 75
     0
 76
     0
 77
     0
 78
     0
170
     0
171
     2
172
     0
173
     0
174
     0
175
     0
176
     0
177
     0
178
     0
270
     2
271
     4
272
     4
273
     2
274
     2
340
17
275
     0
280
     0
281
     0
282
     0
283
     1
284
     0
285
     0
286
     0
287
     0
288
     0
  0
ENDTAB
  0
TABLE
  2
BLOCK_RECORD
  5
1
330
0
100
AcDbSymbolTable
 70
     0
  0
BLOCK_RECORD
  5
A
102
{ACAD_XDICTIONARY
360
330
102
}
330
1
100
AcDbSymbolTableRecord
100
AcDbBlockTableRecord
  2
*MODEL_SPACE
  0
BLOCK_RECORD
  5
B
102
{ACAD_XDICTIONARY
360
332
102
}
330
1
100
AcDbSymbolTableRecord
100
AcDbBlockTableRecord
  2
*PAPER_SPACE
  0
ENDTAB
  0
ENDSEC
  0
SECTION
  2
BLOCKS
  0
BLOCK
  5
D
330
A
100
AcDbEntity
  8
0
100
AcDbBlockBegin
  2
*MODEL_SPACE
 70
     0
 10
0.0
 20
0.0
 30
0.0
  3
*MODEL_SPACE
  1

  0
ENDBLK
  5
E
330
A
100
AcDbEntity
  8
0
100
AcDbBlockEnd
  0
BLOCK
  5
F
330
B
100
AcDbEntity
 67
     1
  8
0
100
AcDbBlockBegin
  2
*PAPER_SPACE
 70
     0
 10
0.0
 20
0.0
 30
0.0
  3
*PAPER_SPACE
  1

  0
ENDBLK
  5
10
330
B
100
AcDbEntity
 67
     1
  8
0
100
AcDbBlockEnd
  0
ENDSEC
  0
SECTION
  2
ENTITIES
  0
LWPOLYLINE
  5
2F
330
A
100
AcDbEntity
  8
ADP1DETAIL
  6
CONTINUOUS
 62
     7
100
AcDbPolyline
 90
        2
 70
   128
 43
0.0
 10
3.885402147962201
 20
-13.48577342756227
 10
3.885402147962201
 20
-14.23527342756227
  0
LWPOLYLINE
  5
33
330
A
100
AcDbEntity
  8
ADP1DETAIL
  6
CONTINUOUS
 62
     7
100
AcDbPolyline
 90
        2
 70
   128
 43
0.0
 10
3.322902147962202
 20
-13.98881658708616
 10
3.322902147962202
 20
-13.03426908830261
  0
LWPOLYLINE
  5
37
330
A
100
AcDbEntity
  8
ADP1DETAIL
  6
CONTINUOUS
 62
     7
100
AcDbPolyline
 90
        2
 70
   128
 43
0.0
 10
3.135402147962202
 20
-14.23527342756227
 10
3.135402147962202
 20
-13.48577342756227
  0
LWPOLYLINE
  5
3B
330
A
100
AcDbEntity
  8
ADP1DETAIL
  6
CONTINUOUS
 62
     7
100
AcDbPolyline
 90
        2
 70
   128
 43
0.0
 10
3.69675688080793
 20
-13.98881658708616
 10
3.69675688080793
 20
-13.03426908830261
  0
LWPOLYLINE
  5
3F
330
A
100
AcDbEntity
  8
ADP1DETAIL
  6
CONTINUOUS
 62
     7
100
AcDbPolyline
 90
        2
 70
   128
 43
0.0
 10
-0.2266207406552101
 20
-13.05372802593415
 10
-0.2266207406552101
 20
-14.64576214930769
  0
LWPOLYLINE
  5
43
330
A
100
AcDbEntity
  8
ADP1DETAIL
  6
CONTINUOUS
 62
     7
100
AcDbPolyline
 90
        2
 70
   128
 43
0.0
 10
0.5233792593447899
 20
-14.64576214930769
 10
0.5233792593447899
 20
-13.05372802593415
  0
LWPOLYLINE
  5
47
330
A
100
AcDbEntity
  8
ADP1DETAIL
  6
CONTINUOUS
 62
     7
100
AcDbPolyline
 90
        2
 70
   128
 43
0.0
 10
-1.97662074065521
 20
-13.8612653366961
 10
-0.7266207406552101
 20
-13.9862653366961
  0
LWPOLYLINE
  5
4B
330
A
100
AcDbEntity
  8
ADP1DETAIL
  6
CONTINUOUS
 62
     7
100
AcDbPolyline
 90
        2
 70
   128
 43
0.0
 10
-0.7266207406552101
 20
-14.4862653366961
 10
-1.97662074065521
 20
-14.6112653366961
  0
LWPOLYLINE
  5
4F
330
A
100
AcDbEntity
  8
ADP1DETAIL
  6
CONTINUOUS
 62
     7
100
AcDbPolyline
 90
        2
 70
   128
 43
0.0
 10
-1.976720334608577
 20
-13.83276779390853
 10
-1.97662074065521
 20
-14.2362653366961
  0
LWPOLYLINE
  5
53
330
A
100
AcDbEntity
  8
ADP1DETAIL
  6
CONTINUOUS
 62
     7
100
AcDbPolyline
 90
        2
 70
   128
 43
0.0
 10
-1.976720334608577
 20
-14.63976287948368
 10
-1.97662074065521
 20
-14.2362653366961
  0
LWPOLYLINE
  5
57
330
A
100
AcDbEntity
  8
ADP1DETAIL
  6
CONTINUOUS
 62
     7
100
AcDbPolyline
 90
        2
 70
   128
 43
0.0
 10
-2.10162074065521
 20
-14.2362653366961
 10
-2.10162074065521
 20
-13.7987653366961
  0
LWPOLYLINE
  5
5B
330
A
100
AcDbEntity
  8
ADP1DETAIL
  6
CONTINUOUS
 62
     7
100
AcDbPolyline
 90
        2
 70
   128
 43
0.0
 10
-2.10162074065521
 20
-14.2362653366961
 10
-2.10162074065521
 20
-14.6737653366961
  0
LWPOLYLINE
  5
5F
330
A
100
AcDbEntity
  8
ADP1DETAIL
  6
CONTINUOUS
 62
     7
100
AcDbPolyline
 90
        2
 70
   128
 43
0.0
 10
-2.10162074065521
 20
-13.7987653366961
 10
-1.976720334608577
 20
-13.83276779390853
  0
LWPOLYLINE
  5
63
330
A
100
AcDbEntity
  8
ADP1DETAIL
  6
CONTINUOUS
 62
     7
100
AcDbPolyline
 90
        2
 70
   128
 43
0.0
 10
-2.10162074065521
 20
-14.6737653366961
 10
-1.976720334608577
 20
-14.63976287948368
  0
CIRCLE
  5
67
330
A
100
AcDbEntity
  8
ADP1DETAIL
  6
CONTINUOUS
 62
     7
100
AcDbCircle
 10
-3.51090214796219
 20
-14.2384408046613
 30
0.0
 40
0.2859512779740925
210
0.0
220
0.0
230
-1.0
  0
CIRCLE
  5
68
330
A
100
AcDbEntity
  8
ADP1DETAIL
  6
CONTINUOUS
 62
     7
100
AcDbCircle
 10
-3.51090214796219
 20
-14.2384408046613
 30
0.0
 40
0.3125
210
0.0
220
0.0
230
-1.0
  0
ARC
  5
69
330
A
100
AcDbEntity
  8
ADP1DETAIL
  6
CONTINUOUS
 62
     7
100
AcDbCircle
 10
-3.51090214796219
 20
-14.23527342756227
 30
0.0
 40
0.3744999999999994
210
0.0
220
0.0
230
-1.0
100
AcDbArc
 50
180.0
 51
270.0000000000008
  0
LWPOLYLINE
  5
6A
330
A
100
AcDbEntity
  8
ADP1DETAIL
  6
CONTINUOUS
 62
     7
100
AcDbPolyline
 90
        2
 70
   128
 43
0.0
 10
-0.2266207406552101
 20
-14.64576214930769
 10
0.5233792593447899
 20
-14.64576214930769
  0
LWPOLYLINE
  5
6E
330
A
100
AcDbEntity
  8
ADP1DETAIL
  6
CONTINUOUS
 62
     7
100
AcDbPolyline
 90
        2
 70
   128
 43
0.0
 10
-0.7266207406552101
 20
-13.9862653366961
 10
-0.2266207406552101
 20
-13.9237653366961
  0
LWPOLYLINE
  5
72
330
A
100
AcDbEntity
  8
ADP1DETAIL
  6
CONTINUOUS
 62
     7
100
AcDbPolyline
 90
        2
 70
   128
 43
0.0
 10
-0.2266207406552101
 20
-14.5487653366961
 10
-0.7266207406552101
 20
-14.4862653366961
  0
LWPOLYLINE
  5
76
330
A
100
AcDbEntity
  8
ADP1DETAIL
  6
CONTINUOUS
 62
     7
100
AcDbPolyline
 90
        2
 70
   128
 43
0.0
 10
-0.7306585077934709
 20
-14.48543252013464
 10
-0.7306585077934709
 20
-13.98709815325757
  0
LWPOLYLINE
  5
7A
330
A
100
AcDbEntity
  8
ADP1DETAIL
  6
CONTINUOUS
 62
     7
100
AcDbPolyline
 90
        2
 70
   128
 43
0.0
 10
-0.2266207406552101
 20
-13.9237653366961
 10
-0.2266207406552101
 20
-14.5487653366961
  0
LWPOLYLINE
  5
7E
330
A
100
AcDbEntity
  8
ADP1DETAIL
  6
CONTINUOUS
 62
     7
100
AcDbPolyline
 90
        2
 70
   128
 43
0.0
 10
-0.2266207406552101
 20
-14.4237653366961
 10
-0.2266207406552101
 20
-14.0487653366961
  0
ARC
  5
82
330
A
100
AcDbEntity
  8
ADP2DETAIL
  6
CONTINUOUS
 62
     5
100
AcDbCircle
 10
-1.344839717522547
 20
-14.2362653366961
 30
0.0
 40
0.75
210
0.0
220
0.0
230
-1.0
100
AcDbArc
 50
338.2197748746755
 51
360.0000000000008
  0
ARC
  5
83
330
A
100
AcDbEntity
  8
ADP2DETAIL
  6
CONTINUOUS
 62
     5
100
AcDbCircle
 10
-1.344839717522547
 20
-14.2362653366961
 30
0.0
 40
0.7500000000000001
210
0.0
220
0.0
230
-1.0
100
AcDbArc
 50
0.0
 51
21.78022512532526
  0
LWPOLYLINE
  5
84
330
A
100
AcDbEntity
  8
ADP2DETAIL
  6
CONTINUOUS
 62
     5
100
AcDbPolyline
 90
        2
 70
   128
 43
0.0
 10
0.6483792593447899
 20
-14.51455085589326
 10
0.6483792593447899
 20
-14.2362653366961
  0
LWPOLYLINE
  5
88
330
A
100
AcDbEntity
  8
ADP1DETAIL
  6
CONTINUOUS
 62
     7
100
AcDbPolyline
 90
        2
 70
   128
 43
0.0
 10
0.6483792593447899
 20
-13.95797981749895
 10
0.6483792593447899
 20
-14.2362653366961
  0
LWPOLYLINE
  5
8C
330
A
100
AcDbEntity
  8
ADP1DETAIL
  6
CONTINUOUS
 62
     7
100
AcDbPolyline
 90
        2
 70
   128
 43
0.0
 10
0.6441199876309232
 20
-13.95611771733392
 10
0.6441199876309232
 20
-13.95611771733392
  0
LWPOLYLINE
  5
90
330
A
100
AcDbEntity
  8
ADP1DETAIL
  6
CONTINUOUS
 62
     7
100
AcDbPolyline
 90
        2
 70
   128
 43
0.0
 10
0.5233792593447899
 20
-14.0487653366961
 10
0.5233792593447899
 20
-13.9237653366961
  0
LWPOLYLINE
  5
94
330
A
100
AcDbEntity
  8
ADP1DETAIL
  6
CONTINUOUS
 62
     7
100
AcDbPolyline
 90
        2
 70
   128
 43
0.0
 10
0.5233792593447899
 20
-13.9237653366961
 10
0.6441199876309232
 20
-13.95611771733392
  0
LWPOLYLINE
  5
98
330
A
100
AcDbEntity
  8
ADP1DETAIL
  6
CONTINUOUS
 62
     7
100
AcDbPolyline
 90
        2
 70
   128
 43
0.0
 10
0.6441199876309232
 20
-14.51641295605829
 10
0.6441199876309232
 20
-14.51641295605829
  0
LWPOLYLINE
  5
9C
330
A
100
AcDbEntity
  8
ADP1DETAIL
  6
CONTINUOUS
 62
     7
100
AcDbPolyline
 90
        2
 70
   128
 43
0.0
 10
0.5233792593447899
 20
-14.4237653366961
 10
0.5233792593447899
 20
-14.5487653366961
  0
LWPOLYLINE
  5
A0
330
A
100
AcDbEntity
  8
ADP1DETAIL
  6
CONTINUOUS
 62
     7
100
AcDbPolyline
 90
        2
 70
   128
 43
0.0
 10
0.5233792593447899
 20
-14.5487653366961
 10
0.6441199876309232
 20
-14.51641295605829
  0
LWPOLYLINE
  5
A4
330
A
100
AcDbEntity
  8
ADP1DETAIL
  6
CONTINUOUS
 62
     7
100
AcDbPolyline
 90
        2
 70
   128
 43
0.0
 10
0.5233792593447899
 20
-14.0487653366961
 10
0.5233792593447899
 20
-14.4237653366961
  0
ARC
  5
A8
330
A
100
AcDbEntity
  8
ADP1DETAIL
  6
CONTINUOUS
 62
     7
100
AcDbCircle
 10
-3.509902147962199
 20
-14.23527342756227
 30
0.0
 40
0.3744999999999998
210
0.0
220
0.0
230
-1.0
100
AcDbArc
 50
270.0000000000008
 51
360.0000000000008
  0
LWPOLYLINE
  5
A9
330
A
100
AcDbEntity
  8
ADP1DETAIL
  6
CONTINUOUS
 62
     7
100
AcDbPolyline
 90
        2
 70
   128
 43
0.0
 10
3.51090214796219
 20
-14.60977342756227
 10
3.509902147962199
 20
-14.60977342756227
  0
LWPOLYLINE
  5
AD
330
A
100
AcDbEntity
  8
ADP1DETAIL
  6
CONTINUOUS
 62
     7
100
AcDbPolyline
 90
        2
 70
   128
 43
0.0
 10
3.32175688080793
 20
-13.03474615507034
 10
3.69675688080793
 20
-13.03474615507034
  0
LWPOLYLINE
  5
B1
330
A
100
AcDbEntity
  8
ADP2DETAIL
  6
CONTINUOUS
 62
     5
100
AcDbPolyline
 90
        2
 70
   128
 43
0.0
 10
3.32175688080793
 20
-13.15379155669845
 10
3.69675688080793
 20
-13.15379155669845
  0
LWPOLYLINE
  5
B5
330
A
100
AcDbEntity
  8
ADP1DETAIL
  6
CONTINUOUS
 62
     7
100
AcDbPolyline
 90
        2
 70
   128
 43
0.0
 10
-0.2266207406552101
 20
-13.33276214930769
 10
0.5233792593447899
 20
-13.33276214930769
  0
ARC
  5
B9
330
A
100
AcDbEntity
  8
ADP1DETAIL
  6
CONTINUOUS
 62
     7
100
AcDbCircle
 10
-0.1483792593447899
 20
-12.33576214930769
 30
0.0
 40
0.8100000000000003
210
0.0
220
0.0
230
-1.0
100
AcDbArc
 50
242.4215320218777
 51
297.5784679781239
  0
LWPOLYLINE
  5
BA
330
A
100
AcDbEntity
  8
ADP2DETAIL
  6
CONTINUOUS
 62
     5
100
AcDbPolyline
 90
        2
 70
   128
 43
0.0
 10
0.0543792593447887
 20
-13.27076214930769
 10
-0.0076207406552107
 20
-13.33276214930769
  0
LWPOLYLINE
  5
BE
330
A
100
AcDbEntity
  8
ADP2DETAIL
  6
CONTINUOUS
 62
     5
100
AcDbPolyline
 90
        2
 70
   128
 43
0.0
 10
0.0543792593447887
 20
-13.14576214930769
 10
0.0543792593447887
 20
-13.27076214930769
  0
LWPOLYLINE
  5
C2
330
A
100
AcDbEntity
  8
ADP2DETAIL
  6
CONTINUOUS
 62
     5
100
AcDbPolyline
 90
        2
 70
   128
 43
0.0
 10
0.2423792593447893
 20
-13.27076214930769
 10
0.3043792593447905
 20
-13.33276214930769
  0
LWPOLYLINE
  5
C6
330
A
100
AcDbEntity
  8
ADP2DETAIL
  6
CONTINUOUS
 62
     5
100
AcDbPolyline
 90
        2
 70
   128
 43
0.0
 10
0.2423792593447893
 20
-13.14576214930769
 10
0.2423792593447893
 20
-13.27076214930769
  0
LWPOLYLINE
  5
CA
330
A
100
AcDbEntity
  8
ADP1DETAIL
  6
CONTINUOUS
 62
     7
100
AcDbPolyline
 90
        2
 70
   128
 43
0.0
 10
3.010402147962202
 20
-13.36077342756227
 10
2.260402147962202
 20
-13.36077342756227
  0
LWPOLYLINE
  5
CE
330
A
100
AcDbEntity
  8
ADP1DETAIL
  6
CONTINUOUS
 62
     7
100
AcDbPolyline
 90
        2
 70
   128
 43
0.0
 10
2.260402147962202
 20
-13.05372802593415
 10
3.326929093224953
 20
-13.05372802593415
  0
LWPOLYLINE
  5
D2
330
A
100
AcDbEntity
  8
ADP2DETAIL
  6
CONTINUOUS
 62
     5
100
AcDbPolyline
 90
        2
 70
   128
 43
0.0
 10
2.260402147962202
 20
-13.17277342756227
 10
3.261517791541257
 20
-13.17277342756227
  0
LWPOLYLINE
  5
D6
330
A
100
AcDbEntity
  8
ADP1DETAIL
  6
CONTINUOUS
 62
     7
100
AcDbPolyline
 90
        2
 70
   128
 43
0.0
 10
2.260402147962202
 20
-13.36077342756227
 10
2.260402147962202
 20
-13.05372802593415
  0
ARC
  5
DA
330
A
100
AcDbEntity
  8
ADP1DETAIL
  6
CONTINUOUS
 62
     7
100
AcDbCircle
 10
-3.010402147962202
 20
-13.48577342756227
 30
0.0
 40
0.125
210
0.0
220
0.0
230
-1.0
100
AcDbArc
 50
90.0
 51
180.0
  0
LWPOLYLINE
  5
DB
330
A
100
AcDbEntity
  8
ADP2DETAIL
  6
CONTINUOUS
 62
     5
100
AcDbPolyline
 90
        2
 70
   128
 43
0.0
 10
2.773879259344788
 20
-13.1737653366961
 10
2.773879259344788
 20
-13.2987653366961
  0
LWPOLYLINE
  5
DF
330
A
100
AcDbEntity
  8
ADP2DETAIL
  6
CONTINUOUS
 62
     5
100
AcDbPolyline
 90
        2
 70
   128
 43
0.0
 10
2.773879259344788
 20
-13.2987653366961
 10
2.835879259344789
 20
-13.3607653366961
  0
LWPOLYLINE
  5
E3
330
A
100
AcDbEntity
  8
ADP2DETAIL
  6
CONTINUOUS
 62
     5
100
AcDbPolyline
 90
        2
 70
   128
 43
0.0
 10
2.585879259344789
 20
-13.1737653366961
 10
2.585879259344789
 20
-13.2987653366961
  0
LWPOLYLINE
  5
E7
330
A
100
AcDbEntity
  8
ADP2DETAIL
  6
CONTINUOUS
 62
     5
100
AcDbPolyline
 90
        2
 70
   128
 43
0.0
 10
2.585879259344789
 20
-13.2987653366961
 10
2.523879259344788
 20
-13.3607653366961
  0
LWPOLYLINE
  5
EB
330
A
100
AcDbEntity
  8
ADP1DETAIL
  6
CONTINUOUS
 62
     7
100
AcDbPolyline
 90
        2
 70
   128
 43
0.0
 10
4.760402147962203
 20
-13.36077342756227
 10
4.010402147962201
 20
-13.36077342756227
  0
LWPOLYLINE
  5
EF
330
A
100
AcDbEntity
  8
ADP1DETAIL
  6
CONTINUOUS
 62
     7
100
AcDbPolyline
 90
        2
 70
   128
 43
0.0
 10
3.69387520269945
 20
-13.05372802593415
 10
4.760402147962201
 20
-13.05372802593415
  0
LWPOLYLINE
  5
F3
330
A
100
AcDbEntity
  8
ADP2DETAIL
  6
CONTINUOUS
 62
     5
100
AcDbPolyline
 90
        2
 70
   128
 43
0.0
 10
4.760402147962203
 20
-13.17277342756227
 10
3.785584308465919
 20
-13.17168673715714
  0
LWPOLYLINE
  5
F7
330
A
100
AcDbEntity
  8
ADP2DETAIL
  6
CONTINUOUS
 62
     5
100
AcDbPolyline
 90
        2
 70
   128
 43
0.0
 10
4.210879259344789
 20
-13.2987653366961
 10
4.148879259344788
 20
-13.3607653366961
  0
ARC
  5
FB
330
A
100
AcDbEntity
  8
ADP1DETAIL
  6
CONTINUOUS
 62
     7
100
AcDbCircle
 10
-4.010402147962201
 20
-13.48577342756227
 30
0.0
 40
0.125
210
0.0
220
0.0
230
-1.0
100
AcDbArc
 50
0.0
 51
90.0
  0
LWPOLYLINE
  5
FC
330
A
100
AcDbEntity
  8
ADP2DETAIL
  6
CONTINUOUS
 62
     5
100
AcDbPolyline
 90
        2
 70
   128
 43
0.0
 10
4.210879259344789
 20
-13.1737653366961
 10
4.210879259344789
 20
-13.2987653366961
  0
LWPOLYLINE
  5
100
330
A
100
AcDbEntity
  8
ADP2DETAIL
  6
CONTINUOUS
 62
     5
100
AcDbPolyline
 90
        2
 70
   128
 43
0.0
 10
4.398879259344788
 20
-13.1737653366961
 10
4.398879259344788
 20
-13.2987653366961
  0
LWPOLYLINE
  5
104
330
A
100
AcDbEntity
  8
ADP2DETAIL
  6
CONTINUOUS
 62
     5
100
AcDbPolyline
 90
        2
 70
   128
 43
0.0
 10
4.398879259344788
 20
-13.2987653366961
 10
4.460879259344789
 20
-13.3607653366961
  0
LWPOLYLINE
  5
108
330
A
100
AcDbEntity
  8
ADP1DETAIL
  6
CONTINUOUS
 62
     7
100
AcDbPolyline
 90
        2
 70
   128
 43
0.0
 10
4.760402147962203
 20
-13.05372802593415
 10
4.760402147962203
 20
-13.36077342756227
  0
LWPOLYLINE
  5
10C
330
A
100
AcDbEntity
  8
ADPDIM
  6
CONTINUOUS
 62
     3
 48
0.125
100
AcDbPolyline
 90
        2
 70
   128
 43
0.0
 10
-2.10162074065521
 20
-13.7362653366961
 10
-2.10162074065521
 20
-12.64318565977858
  0
LWPOLYLINE
  5
110
330
A
100
AcDbEntity
  8
ADPDIM
  6
CONTINUOUS
 62
     3
 48
0.125
100
AcDbPolyline
 90
        2
 70
   128
 43
0.0
 10
0.1483792593447899
 20
-13.07318565977858
 10
0.1483792593447899
 20
-12.64318565977858
  0
LWPOLYLINE
  5
114
330
A
100
AcDbEntity
  8
ADPDIM
  6
CONTINUOUS
 62
     3
 48
0.125
100
AcDbPolyline
 90
        2
 70
   128
 43
0.0
 10
-2.10162074065521
 20
-12.82318565977858
 10
-1.372454073988543
 20
-12.82318565977858
  0
LWPOLYLINE
  5
118
330
A
100
AcDbEntity
  8
ADPDIM
  6
CONTINUOUS
 62
     3
 48
0.125
100
AcDbPolyline
 90
        2
 70
   128
 43
0.0
 10
0.1483792593447899
 20
-12.82318565977858
 10
-0.5807874073218768
 20
-12.82318565977858
  0
LWPOLYLINE
  5
11C
330
A
100
AcDbEntity
  8
ADPDIM
  6
CONTINUOUS
 62
     3
 48
0.125
100
AcDbPolyline
 90
        2
 70
   128
 43
0.0
 10
-2.22662074065521
 20
-12.94818565977858
 10
-1.97662074065521
 20
-12.69818565977858
  0
LWPOLYLINE
  5
120
330
A
100
AcDbEntity
  8
ADPDIM
  6
CONTINUOUS
 62
     3
 48
0.125
100
AcDbPolyline
 90
        2
 70
   128
 43
0.0
 10
0.0233792593447899
 20
-12.94818565977858
 10
0.2733792593447899
 20
-12.69818565977858
  0
TEXT
  5
124
330
A
100
AcDbEntity
  8
ADPDIM
 62
     3
 48
0.0
100
AcDbText
 10
-1.247454073988543
 20
-12.88568565977858
 30
0.0
 40
0.125
  1
2 1/4
 72
     5
 11
-0.7057874073218768
 21
-12.88568565977858
 31
0.0
100
AcDbText
  0
LWPOLYLINE
  5
125
330
A
100
AcDbEntity
  8
ADPDIM
  6
CONTINUOUS
 62
     3
 48
0.125
100
AcDbPolyline
 90
        2
 70
   128
 43
0.0
 10
2.197902147962202
 20
-13.17277342756227
 10
1.705402147962202
 20
-13.17277342756227
  0
LWPOLYLINE
  5
129
330
A
100
AcDbEntity
  8
ADPDIM
  6
CONTINUOUS
 62
     3
 48
0.125
100
AcDbPolyline
 90
        2
 70
   128
 43
0.0
 10
3.388371562154525
 20
-14.23527342756227
 10
1.705402147962202
 20
-14.23527342756227
  0
LWPOLYLINE
  5
12D
330
A
100
AcDbEntity
  8
ADPDIM
  6
CONTINUOUS
 62
     3
 48
0.125
100
AcDbPolyline
 90
        2
 70
   128
 43
0.0
 10
1.885402147962201
 20
-13.17277342756227
 10
1.885402147962201
 20
-12.92277342756227
  0
LWPOLYLINE
  5
131
330
A
100
AcDbEntity
  8
ADPDIM
  6
CONTINUOUS
 62
     3
 48
0.125
100
AcDbPolyline
 90
        2
 70
   128
 43
0.0
 10
1.885402147962201
 20
-14.23527342756227
 10
1.885402147962201
 20
-14.48527342756227
  0
LWPOLYLINE
  5
135
330
A
100
AcDbEntity
  8
ADPDIM
  6
CONTINUOUS
 62
     3
 48
0.125
100
AcDbPolyline
 90
        2
 70
   128
 43
0.0
 10
2.010402147962202
 20
-13.29777342756227
 10
1.760402147962202
 20
-13.04777342756227
  0
LWPOLYLINE
  5
139
330
A
100
AcDbEntity
  8
ADPDIM
  6
CONTINUOUS
 62
     3
 48
0.125
100
AcDbPolyline
 90
        2
 70
   128
 43
0.0
 10
2.010402147962202
 20
-14.36027342756227
 10
1.760402147962202
 20
-14.11027342756227
  0
TEXT
  5
13D
330
A
100
AcDbEntity
  8
ADPDIM
 62
     3
 48
0.0
100
AcDbText
 10
1.947902147962201
 20
-15.1936067608956
 30
0.0
 40
0.125
  1
1 1/16
 50
90.0
 72
     5
 11
1.947902147962201
 21
-14.61027342756227
 31
0.0
100
AcDbText
  0
LWPOLYLINE
  5
13E
330
A
100
AcDbEntity
  8
ADP1DETAIL
  6
CONTINUOUS
 62
     7
 48
0.125
100
AcDbPolyline
 90
        2
 70
   128
 43
0.0
 10
-2.318091050437852
 20
-14.0482653366961
 10
-2.349091050437853
 20
-13.9862653366961
  0
LWPOLYLINE
  5
142
330
A
100
AcDbEntity
  8
ADP1DETAIL
  6
CONTINUOUS
 62
     7
 48
0.125
100
AcDbPolyline
 90
        2
 70
   128
 43
0.0
 10
-2.320322182705103
 20
-14.4862653366961
 10
-2.351322182705103
 20
-14.4242653366961
  0
LWPOLYLINE
  5
146
330
A
100
AcDbEntity
  8
ADP1DETAIL
  6
CONTINUOUS
 62
     7
 48
0.125
100
AcDbPolyline
 90
        2
 70
   128
 43
0.0
 10
-2.726620740655209
 20
-13.9862653366961
 10
-2.726620740655209
 20
-14.42527525120839
  0
LWPOLYLINE
  5
14A
330
A
100
AcDbEntity
  8
ADP1DETAIL
  6
CONTINUOUS
 62
     7
 48
0.125
100
AcDbPolyline
 90
        2
 70
   128
 43
0.0
 10
-2.381597290737844
 20
-14.0482653366961
 10
-2.351322182705103
 20
-14.4242653366961
  0
LWPOLYLINE
  5
14E
330
A
100
AcDbEntity
  8
ADP1DETAIL
  6
CONTINUOUS
 62
     7
 48
0.125
100
AcDbPolyline
 90
        2
 70
   128
 43
0.0
 10
-2.445103531037835
 20
-14.0482653366961
 10
-2.414828423005094
 20
-14.4242653366961
  0
LWPOLYLINE
  5
152
330
A
100
AcDbEntity
  8
ADP1DETAIL
  6
CONTINUOUS
 62
     7
 48
0.125
100
AcDbPolyline
 90
        2
 70
   128
 43
0.0
 10
-2.508609771337827
 20
-14.0482653366961
 10
-2.478334663305085
 20
-14.4242653366961
  0
LWPOLYLINE
  5
156
330
A
100
AcDbEntity
  8
ADP1DETAIL
  6
CONTINUOUS
 62
     7
 48
0.125
100
AcDbPolyline
 90
        2
 70
   128
 43
0.0
 10
-2.572116058453065
 20
-14.0482653366961
 10
-2.541840950420324
 20
-14.4242653366961
  0
LWPOLYLINE
  5
15A
330
A
100
AcDbEntity
  8
ADP1DETAIL
  6
CONTINUOUS
 62
     7
 48
0.125
100
AcDbPolyline
 90
        2
 70
   128
 43
0.0
 10
-2.629848995668467
 20
-14.0482653366961
 10
-2.599573887635726
 20
-14.4242653366961
  0
LWPOLYLINE
  5
15E
330
A
100
AcDbEntity
  8
ADP1DETAIL
  6
CONTINUOUS
 62
     7
 48
0.125
100
AcDbPolyline
 90
        2
 70
   128
 43
0.0
 10
-2.693355235968459
 20
-14.0482653366961
 10
-2.663080127935717
 20
-14.4242653366961
  0
LWPOLYLINE
  5
162
330
A
100
AcDbEntity
  8
ADP1DETAIL
  6
CONTINUOUS
 62
     7
 48
0.125
100
AcDbPolyline
 90
        2
 70
   128
 43
0.0
 10
-2.572840950420324
 20
-14.4862653366961
 10
-2.599573887635726
 20
-14.4242653366961
  0
LWPOLYLINE
  5
166
330
A
100
AcDbEntity
  8
ADP1DETAIL
  6
CONTINUOUS
 62
     7
 48
0.125
100
AcDbPolyline
 90
        2
 70
   128
 43
0.0
 10
-2.726620740655209
 20
-14.42527525120839
 10
-2.694080127935718
 20
-14.4862653366961
  0
LWPOLYLINE
  5
16A
330
A
100
AcDbEntity
  8
ADP1DETAIL
  6
CONTINUOUS
 62
     7
 48
0.125
100
AcDbPolyline
 90
        2
 70
   128
 43
0.0
 10
-2.632080127935717
 20
-14.4862653366961
 10
-2.663080127935717
 20
-14.4242653366961
  0
LWPOLYLINE
  5
16E
330
A
100
AcDbEntity
  8
ADP1DETAIL
  6
CONTINUOUS
 62
     7
 48
0.125
100
AcDbPolyline
 90
        2
 70
   128
 43
0.0
 10
-2.663080127935717
 20
-14.4242653366961
 10
-2.694080127935718
 20
-14.4862653366961
  0
LWPOLYLINE
  5
172
330
A
100
AcDbEntity
  8
ADP1DETAIL
  6
CONTINUOUS
 62
     7
 48
0.125
100
AcDbPolyline
 90
        2
 70
   128
 43
0.0
 10
-2.599573887635726
 20
-14.4242653366961
 10
-2.630573887635726
 20
-14.4862653366961
  0
LWPOLYLINE
  5
176
330
A
100
AcDbEntity
  8
ADP1DETAIL
  6
CONTINUOUS
 62
     7
 48
0.125
100
AcDbPolyline
 90
        2
 70
   128
 43
0.0
 10
-2.447334663305086
 20
-14.4862653366961
 10
-2.478334663305085
 20
-14.4242653366961
  0
LWPOLYLINE
  5
17A
330
A
100
AcDbEntity
  8
ADP1DETAIL
  6
CONTINUOUS
 62
     7
 48
0.125
100
AcDbPolyline
 90
        2
 70
   128
 43
0.0
 10
-2.510840950420324
 20
-14.4862653366961
 10
-2.541840950420324
 20
-14.4242653366961
  0
LWPOLYLINE
  5
17E
330
A
100
AcDbEntity
  8
ADP1DETAIL
  6
CONTINUOUS
 62
     7
 48
0.125
100
AcDbPolyline
 90
        2
 70
   128
 43
0.0
 10
-2.541840950420324
 20
-14.4242653366961
 10
-2.572840950420324
 20
-14.4862653366961
  0
LWPOLYLINE
  5
182
330
A
100
AcDbEntity
  8
ADP1DETAIL
  6
CONTINUOUS
 62
     7
 48
0.125
100
AcDbPolyline
 90
        2
 70
   128
 43
0.0
 10
-2.478334663305085
 20
-14.4242653366961
 10
-2.509334663305085
 20
-14.4862653366961
  0
LWPOLYLINE
  5
186
330
A
100
AcDbEntity
  8
ADP1DETAIL
  6
CONTINUOUS
 62
     7
 48
0.125
100
AcDbPolyline
 90
        2
 70
   128
 43
0.0
 10
-2.383828423005094
 20
-14.4862653366961
 10
-2.414828423005094
 20
-14.4242653366961
  0
LWPOLYLINE
  5
18A
330
A
100
AcDbEntity
  8
ADP1DETAIL
  6
CONTINUOUS
 62
     7
 48
0.125
100
AcDbPolyline
 90
        2
 70
   128
 43
0.0
 10
-2.414828423005094
 20
-14.4242653366961
 10
-2.445828423005094
 20
-14.4862653366961
  0
LWPOLYLINE
  5
18E
330
A
100
AcDbEntity
  8
ADP1DETAIL
  6
CONTINUOUS
 62
     7
 48
0.125
100
AcDbPolyline
 90
        2
 70
   128
 43
0.0
 10
-2.351322182705103
 20
-14.4242653366961
 10
-2.382322182705102
 20
-14.4862653366961
  0
LWPOLYLINE
  5
192
330
A
100
AcDbEntity
  8
ADP1DETAIL
  6
CONTINUOUS
 62
     7
 48
0.125
100
AcDbPolyline
 90
        2
 70
   128
 43
0.0
 10
-2.572116058453065
 20
-14.0482653366961
 10
-2.603116058453065
 20
-13.9862653366961
  0
LWPOLYLINE
  5
196
330
A
100
AcDbEntity
  8
ADP1DETAIL
  6
CONTINUOUS
 62
     7
 48
0.125
100
AcDbPolyline
 90
        2
 70
   128
 43
0.0
 10
-2.693355235968459
 20
-14.0482653366961
 10
-2.724355235968459
 20
-13.9862653366961
  0
LWPOLYLINE
  5
19A
330
A
100
AcDbEntity
  8
ADP1DETAIL
  6
CONTINUOUS
 62
     7
 48
0.125
100
AcDbPolyline
 90
        2
 70
   128
 43
0.0
 10
-2.629848995668467
 20
-14.0482653366961
 10
-2.660848995668467
 20
-13.9862653366961
  0
LWPOLYLINE
  5
19E
330
A
100
AcDbEntity
  8
ADP1DETAIL
  6
CONTINUOUS
 62
     7
 48
0.125
100
AcDbPolyline
 90
        2
 70
   128
 43
0.0
 10
-2.603116058453065
 20
-13.9862653366961
 10
-2.629848995668467
 20
-14.0482653366961
  0
LWPOLYLINE
  5
1A2
330
A
100
AcDbEntity
  8
ADP1DETAIL
  6
CONTINUOUS
 62
     7
 48
0.125
100
AcDbPolyline
 90
        2
 70
   128
 43
0.0
 10
-2.662355235968459
 20
-13.9862653366961
 10
-2.693355235968459
 20
-14.0482653366961
  0
LWPOLYLINE
  5
1A6
330
A
100
AcDbEntity
  8
ADP1DETAIL
  6
CONTINUOUS
 62
     7
 48
0.125
100
AcDbPolyline
 90
        2
 70
   128
 43
0.0
 10
-2.445103531037835
 20
-14.0482653366961
 10
-2.476103531037836
 20
-13.9862653366961
  0
LWPOLYLINE
  5
1AA
330
A
100
AcDbEntity
  8
ADP1DETAIL
  6
CONTINUOUS
 62
     7
 48
0.125
100
AcDbPolyline
 90
        2
 70
   128
 43
0.0
 10
-2.508609771337827
 20
-14.0482653366961
 10
-2.539609771337827
 20
-13.9862653366961
  0
LWPOLYLINE
  5
1AE
330
A
100
AcDbEntity
  8
ADP1DETAIL
  6
CONTINUOUS
 62
     7
 48
0.125
100
AcDbPolyline
 90
        2
 70
   128
 43
0.0
 10
-2.477609771337827
 20
-13.9862653366961
 10
-2.508609771337827
 20
-14.0482653366961
  0
LWPOLYLINE
  5
1B2
330
A
100
AcDbEntity
  8
ADP1DETAIL
  6
CONTINUOUS
 62
     7
 48
0.125
100
AcDbPolyline
 90
        2
 70
   128
 43
0.0
 10
-2.541116058453065
 20
-13.9862653366961
 10
-2.572116058453065
 20
-14.0482653366961
  0
LWPOLYLINE
  5
1B6
330
A
100
AcDbEntity
  8
ADP1DETAIL
  6
CONTINUOUS
 62
     7
 48
0.125
100
AcDbPolyline
 90
        2
 70
   128
 43
0.0
 10
-2.381597290737844
 20
-14.0482653366961
 10
-2.412597290737844
 20
-13.9862653366961
  0
LWPOLYLINE
  5
1BA
330
A
100
AcDbEntity
  8
ADP1DETAIL
  6
CONTINUOUS
 62
     7
 48
0.125
100
AcDbPolyline
 90
        2
 70
   128
 43
0.0
 10
-2.350597290737844
 20
-13.9862653366961
 10
-2.381597290737844
 20
-14.0482653366961
  0
LWPOLYLINE
  5
1BE
330
A
100
AcDbEntity
  8
ADP1DETAIL
  6
CONTINUOUS
 62
     7
 48
0.125
100
AcDbPolyline
 90
        2
 70
   128
 43
0.0
 10
-2.414103531037835
 20
-13.9862653366961
 10
-2.445103531037835
 20
-14.0482653366961
  0
LWPOLYLINE
  5
1C2
330
A
100
AcDbEntity
  8
ADP1DETAIL
  6
CONTINUOUS
 62
     7
 48
0.125
100
AcDbPolyline
 90
        2
 70
   128
 43
0.0
 10
-2.132620740655209
 20
-14.0482653366961
 10
-2.102345632622467
 20
-14.4242653366961
  0
LWPOLYLINE
  5
1C6
330
A
100
AcDbEntity
  8
ADP1DETAIL
  6
CONTINUOUS
 62
     7
 48
0.125
100
AcDbPolyline
 90
        2
 70
   128
 43
0.0
 10
-2.194620740655209
 20
-14.0482653366961
 10
-2.164345632622468
 20
-14.4242653366961
  0
LWPOLYLINE
  5
1CA
330
A
100
AcDbEntity
  8
ADP1DETAIL
  6
CONTINUOUS
 62
     7
 48
0.125
100
AcDbPolyline
 90
        2
 70
   128
 43
0.0
 10
-2.256620740655209
 20
-14.0482653366961
 10
-2.226345632622467
 20
-14.4242653366961
  0
LWPOLYLINE
  5
1CE
330
A
100
AcDbEntity
  8
ADP1DETAIL
  6
CONTINUOUS
 62
     7
 48
0.125
100
AcDbPolyline
 90
        2
 70
   128
 43
0.0
 10
-2.318091050437852
 20
-14.0482653366961
 10
-2.287815942405111
 20
-14.4242653366961
  0
LWPOLYLINE
  5
1D2
330
A
100
AcDbEntity
  8
ADP1DETAIL
  6
CONTINUOUS
 62
     7
 48
0.125
100
AcDbPolyline
 90
        2
 70
   128
 43
0.0
 10
-2.195345632622467
 20
-14.4862653366961
 10
-2.226345632622467
 20
-14.4242653366961
  0
LWPOLYLINE
  5
1D6
330
A
100
AcDbEntity
  8
ADP1DETAIL
  6
CONTINUOUS
 62
     7
 48
0.125
100
AcDbPolyline
 90
        2
 70
   128
 43
0.0
 10
-2.256815942405111
 20
-14.4862653366961
 10
-2.287815942405111
 20
-14.4242653366961
  0
LWPOLYLINE
  5
1DA
330
A
100
AcDbEntity
  8
ADP1DETAIL
  6
CONTINUOUS
 62
     7
 48
0.125
100
AcDbPolyline
 90
        2
 70
   128
 43
0.0
 10
-2.287815942405111
 20
-14.4242653366961
 10
-2.318815942405111
 20
-14.4862653366961
  0
LWPOLYLINE
  5
1DE
330
A
100
AcDbEntity
  8
ADP1DETAIL
  6
CONTINUOUS
 62
     7
 48
0.125
100
AcDbPolyline
 90
        2
 70
   128
 43
0.0
 10
-2.226345632622467
 20
-14.4242653366961
 10
-2.257345632622468
 20
-14.4862653366961
  0
LWPOLYLINE
  5
1E2
330
A
100
AcDbEntity
  8
ADP1DETAIL
  6
CONTINUOUS
 62
     7
 48
0.125
100
AcDbPolyline
 90
        2
 70
   128
 43
0.0
 10
-2.164345632622468
 20
-14.4242653366961
 10
-2.195345632622467
 20
-14.4862653366961
  0
LWPOLYLINE
  5
1E6
330
A
100
AcDbEntity
  8
ADP1DETAIL
  6
CONTINUOUS
 62
     7
 48
0.125
100
AcDbPolyline
 90
        2
 70
   128
 43
0.0
 10
-2.133345632622468
 20
-14.4862653366961
 10
-2.164345632622468
 20
-14.4242653366961
  0
LWPOLYLINE
  5
1EA
330
A
100
AcDbEntity
  8
ADP1DETAIL
  6
CONTINUOUS
 62
     7
 48
0.125
100
AcDbPolyline
 90
        2
 70
   128
 43
0.0
 10
-2.102345632622467
 20
-14.4242653366961
 10
-2.133345632622468
 20
-14.4862653366961
  0
LWPOLYLINE
  5
1EE
330
A
100
AcDbEntity
  8
ADP1DETAIL
  6
CONTINUOUS
 62
     7
 48
0.125
100
AcDbPolyline
 90
        2
 70
   128
 43
0.0
 10
-2.194620740655209
 20
-14.0482653366961
 10
-2.225620740655209
 20
-13.9862653366961
  0
LWPOLYLINE
  5
1F2
330
A
100
AcDbEntity
  8
ADP1DETAIL
  6
CONTINUOUS
 62
     7
 48
0.125
100
AcDbPolyline
 90
        2
 70
   128
 43
0.0
 10
-2.256620740655209
 20
-14.0482653366961
 10
-2.287620740655209
 20
-13.9862653366961
  0
LWPOLYLINE
  5
1F6
330
A
100
AcDbEntity
  8
ADP1DETAIL
  6
CONTINUOUS
 62
     7
 48
0.125
100
AcDbPolyline
 90
        2
 70
   128
 43
0.0
 10
-2.225620740655209
 20
-13.9862653366961
 10
-2.256620740655209
 20
-14.0482653366961
  0
LWPOLYLINE
  5
1FA
330
A
100
AcDbEntity
  8
ADP1DETAIL
  6
CONTINUOUS
 62
     7
 48
0.125
100
AcDbPolyline
 90
        2
 70
   128
 43
0.0
 10
-2.287091050437852
 20
-13.9862653366961
 10
-2.318091050437852
 20
-14.0482653366961
  0
LWPOLYLINE
  5
1FE
330
A
100
AcDbEntity
  8
ADP1DETAIL
  6
CONTINUOUS
 62
     7
 48
0.125
100
AcDbPolyline
 90
        2
 70
   128
 43
0.0
 10
-2.101620740655209
 20
-13.9862653366961
 10
-2.132620740655209
 20
-14.0482653366961
  0
LWPOLYLINE
  5
202
330
A
100
AcDbEntity
  8
ADP1DETAIL
  6
CONTINUOUS
 62
     7
 48
0.125
100
AcDbPolyline
 90
        2
 70
   128
 43
0.0
 10
-2.132620740655209
 20
-14.0482653366961
 10
-2.163620740655209
 20
-13.9862653366961
  0
LWPOLYLINE
  5
206
330
A
100
AcDbEntity
  8
ADP1DETAIL
  6
CONTINUOUS
 62
     7
 48
0.125
100
AcDbPolyline
 90
        2
 70
   128
 43
0.0
 10
-2.163620740655209
 20
-13.9862653366961
 10
-2.194620740655209
 20
-14.0482653366961
  0
LWPOLYLINE
  5
20A
330
A
100
AcDbEntity
  8
ADPDIM
  6
CONTINUOUS
 62
     3
 48
0.125
100
AcDbPolyline
 90
        2
 70
   128
 43
0.0
 10
-0.2266207406552101
 20
-14.70826214930769
 10
-0.2266207406552101
 20
-15.06568565977858
  0
LWPOLYLINE
  5
20E
330
A
100
AcDbEntity
  8
ADPDIM
  6
CONTINUOUS
 62
     3
 48
0.125
100
AcDbPolyline
 90
        2
 70
   128
 43
0.0
 10
0.5233792593447899
 20
-14.70826214930769
 10
0.5233792593447899
 20
-15.06568565977858
  0
LWPOLYLINE
  5
212
330
A
100
AcDbEntity
  8
ADPDIM
  6
CONTINUOUS
 62
     3
 48
0.125
100
AcDbPolyline
 90
        2
 70
   128
 43
0.0
 10
-0.2266207406552101
 20
-14.88568565977858
 10
-0.4766207406552101
 20
-14.88568565977858
  0
LWPOLYLINE
  5
216
330
A
100
AcDbEntity
  8
ADPDIM
  6
CONTINUOUS
 62
     3
 48
0.125
100
AcDbPolyline
 90
        2
 70
   128
 43
0.0
 10
0.5233792593447899
 20
-14.88568565977858
 10
0.7733792593447899
 20
-14.88568565977858
  0
LWPOLYLINE
  5
21A
330
A
100
AcDbEntity
  8
ADPDIM
  6
CONTINUOUS
 62
     3
 48
0.125
100
AcDbPolyline
 90
        2
 70
   128
 43
0.0
 10
-0.3516207406552101
 20
-15.01068565977858
 10
-0.1016207406552101
 20
-14.76068565977858
  0
LWPOLYLINE
  5
21E
330
A
100
AcDbEntity
  8
ADPDIM
  6
CONTINUOUS
 62
     3
 48
0.125
100
AcDbPolyline
 90
        2
 70
   128
 43
0.0
 10
0.3983792593447899
 20
-15.01068565977858
 10
0.6483792593447899
 20
-14.76068565977858
  0
TEXT
  5
222
330
A
100
AcDbEntity
  8
ADPDIM
 62
     3
 48
0.0
100
AcDbText
 10
0.8983792593447898
 20
-14.94818565977858
 30
0.0
 40
0.125
  1
3/4
 72
     5
 11
1.231712592678122
 21
-14.94818565977858
 31
0.0
100
AcDbText
  0
LWPOLYLINE
  5
223
330
A
100
AcDbEntity
  8
ADPDIM
  6
CONTINUOUS
 62
     3
 48
0.125
100
AcDbPolyline
 90
        2
 70
   128
 43
0.0
 10
2.666402147962202
 20
-12.92872802593415
 10
2.666402147962202
 20
-12.68622802593415
  0
LWPOLYLINE
  5
227
330
A
100
AcDbEntity
  8
ADPDIM
  6
CONTINUOUS
 62
     3
 48
0.125
100
AcDbPolyline
 90
        2
 70
   128
 43
0.0
 10
4.291402147962202
 20
-12.92872802593415
 10
4.291402147962202
 20
-12.68622802593415
  0
LWPOLYLINE
  5
22B
330
A
100
AcDbEntity
  8
ADPDIM
  6
CONTINUOUS
 62
     3
 48
0.125
100
AcDbPolyline
 90
        2
 70
   128
 43
0.0
 10
2.666402147962202
 20
-12.86622802593415
 10
3.083068814628868
 20
-12.86622802593415
  0
LWPOLYLINE
  5
22F
330
A
100
AcDbEntity
  8
ADPDIM
  6
CONTINUOUS
 62
     3
 48
0.125
100
AcDbPolyline
 90
        2
 70
   128
 43
0.0
 10
4.291402147962202
 20
-12.86622802593415
 10
3.874735481295535
 20
-12.86622802593415
  0
LWPOLYLINE
  5
233
330
A
100
AcDbEntity
  8
ADPDIM
  6
CONTINUOUS
 62
     3
 48
0.125
100
AcDbPolyline
 90
        2
 70
   128
 43
0.0
 10
2.541402147962202
 20
-12.99122802593415
 10
2.791402147962202
 20
-12.74122802593415
  0
LWPOLYLINE
  5
237
330
A
100
AcDbEntity
  8
ADPDIM
  6
CONTINUOUS
 62
     3
 48
0.125
100
AcDbPolyline
 90
        2
 70
   128
 43
0.0
 10
4.166402147962202
 20
-12.99122802593415
 10
4.416402147962202
 20
-12.74122802593415
  0
TEXT
  5
23B
330
A
100
AcDbEntity
  8
ADPDIM
 62
     3
 48
0.0
100
AcDbText
 10
3.208068814628868
 20
-12.92872802593415
 30
0.0
 40
0.125
  1
1 5/8
 72
     5
 11
3.749735481295535
 21
-12.92872802593415
 31
0.0
100
AcDbText
  0
LWPOLYLINE
  5
23C
330
A
100
AcDbEntity
  8
ADPDIM
  6
CONTINUOUS
 62
     3
 48
0.125
100
AcDbPolyline
 90
        2
 70
   128
 43
0.0
 10
2.260402147962202
 20
-13.05372802593415
 10
2.260402147962202
 20
-12.31122802593415
  0
LWPOLYLINE
  5
240
330
A
100
AcDbEntity
  8
ADPDIM
  6
CONTINUOUS
 62
     3
 48
0.125
100
AcDbPolyline
 90
        2
 70
   128
 43
0.0
 10
4.760402147962201
 20
-13.05372802593415
 10
4.760402147962201
 20
-12.31122802593415
  0
LWPOLYLINE
  5
244
330
A
100
AcDbEntity
  8
ADPDIM
  6
CONTINUOUS
 62
     3
 48
0.125
100
AcDbPolyline
 90
        2
 70
   128
 43
0.0
 10
2.260402147962202
 20
-12.49122802593415
 10
3.114568814628868
 20
-12.49122802593415
  0
LWPOLYLINE
  5
248
330
A
100
AcDbEntity
  8
ADPDIM
  6
CONTINUOUS
 62
     3
 48
0.125
100
AcDbPolyline
 90
        2
 70
   128
 43
0.0
 10
4.760402147962201
 20
-12.49122802593415
 10
3.906235481295535
 20
-12.49122802593415
  0
LWPOLYLINE
  5
24C
330
A
100
AcDbEntity
  8
ADPDIM
  6
CONTINUOUS
 62
     3
 48
0.125
100
AcDbPolyline
 90
        2
 70
   128
 43
0.0
 10
2.135402147962202
 20
-12.61622802593415
 10
2.385402147962202
 20
-12.36622802593415
  0
LWPOLYLINE
  5
250
330
A
100
AcDbEntity
  8
ADPDIM
  6
CONTINUOUS
 62
     3
 48
0.125
100
AcDbPolyline
 90
        2
 70
   128
 43
0.0
 10
4.635402147962201
 20
-12.61622802593415
 10
4.885402147962201
 20
-12.36622802593415
  0
TEXT
  5
254
330
A
100
AcDbEntity
  8
ADPDIM
 62
     3
 48
0.0
100
AcDbText
 10
3.239568814628868
 20
-12.55372802593415
 30
0.0
 40
0.125
  1
2 1/2
 72
     5
 11
3.781235481295535
 21
-12.55372802593415
 31
0.0
100
AcDbText
  0
LWPOLYLINE
  5
255
330
A
100
AcDbEntity
  8
DEFPOINTS
  6
CONTINUOUS
 62
     3
 48
0.125
100
AcDbPolyline
 90
        2
 70
   128
 43
0.0
 10
-2.101620740655209
 20
-13.7987653366961
 10
-2.101620740655209
 20
-13.7987653366961
  0
LWPOLYLINE
  5
259
330
A
100
AcDbEntity
  8
DEFPOINTS
  6
CONTINUOUS
 62
     3
 48
0.125
100
AcDbPolyline
 90
        2
 70
   128
 43
0.0
 10
-2.101620740655209
 20
-13.7987653366961
 10
-2.101620740655209
 20
-13.7987653366961
  0
LWPOLYLINE
  5
25D
330
A
100
AcDbEntity
  8
DEFPOINTS
  6
CONTINUOUS
 62
     3
 48
0.125
100
AcDbPolyline
 90
        2
 70
   128
 43
0.0
 10
0.1483792593447899
 20
-13.13568565977858
 10
0.1483792593447899
 20
-13.13568565977858
  0
LWPOLYLINE
  5
261
330
A
100
AcDbEntity
  8
DEFPOINTS
  6
CONTINUOUS
 62
     3
 48
0.125
100
AcDbPolyline
 90
        2
 70
   128
 43
0.0
 10
0.1483792593447899
 20
-13.13568565977858
 10
0.1483792593447899
 20
-13.13568565977858
  0
LWPOLYLINE
  5
265
330
A
100
AcDbEntity
  8
DEFPOINTS
  6
CONTINUOUS
 62
     3
 48
0.125
100
AcDbPolyline
 90
        2
 70
   128
 43
0.0
 10
0.1483792593447899
 20
-12.82318565977858
 10
0.1483792593447899
 20
-12.82318565977858
  0
LWPOLYLINE
  5
269
330
A
100
AcDbEntity
  8
DEFPOINTS
  6
CONTINUOUS
 62
     3
 48
0.125
100
AcDbPolyline
 90
        2
 70
   128
 43
0.0
 10
0.1483792593447899
 20
-12.82318565977858
 10
0.1483792593447899
 20
-12.82318565977858
  0
LWPOLYLINE
  5
26D
330
A
100
AcDbEntity
  8
DEFPOINTS
  6
CONTINUOUS
 62
     3
 48
0.125
100
AcDbPolyline
 90
        2
 70
   128
 43
0.0
 10
2.260402147962201
 20
-13.17277342756226
 10
2.260402147962201
 20
-13.17277342756226
  0
LWPOLYLINE
  5
271
330
A
100
AcDbEntity
  8
DEFPOINTS
  6
CONTINUOUS
 62
     3
 48
0.125
100
AcDbPolyline
 90
        2
 70
   128
 43
0.0
 10
2.260402147962201
 20
-13.17277342756226
 10
2.260402147962201
 20
-13.17277342756226
  0
LWPOLYLINE
  5
275
330
A
100
AcDbEntity
  8
DEFPOINTS
  6
CONTINUOUS
 62
     3
 48
0.125
100
AcDbPolyline
 90
        2
 70
   128
 43
0.0
 10
3.450871562154523
 20
-14.23527342756227
 10
3.450871562154523
 20
-14.23527342756227
  0
LWPOLYLINE
  5
279
330
A
100
AcDbEntity
  8
DEFPOINTS
  6
CONTINUOUS
 62
     3
 48
0.125
100
AcDbPolyline
 90
        2
 70
   128
 43
0.0
 10
3.450871562154523
 20
-14.23527342756227
 10
3.450871562154523
 20
-14.23527342756227
  0
LWPOLYLINE
  5
27D
330
A
100
AcDbEntity
  8
DEFPOINTS
  6
CONTINUOUS
 62
     3
 48
0.125
100
AcDbPolyline
 90
        2
 70
   128
 43
0.0
 10
1.885402147962201
 20
-14.23527342756227
 10
1.885402147962201
 20
-14.23527342756227
  0
LWPOLYLINE
  5
281
330
A
100
AcDbEntity
  8
DEFPOINTS
  6
CONTINUOUS
 62
     3
 48
0.125
100
AcDbPolyline
 90
        2
 70
   128
 43
0.0
 10
1.885402147962201
 20
-14.23527342756227
 10
1.885402147962201
 20
-14.23527342756227
  0
LWPOLYLINE
  5
285
330
A
100
AcDbEntity
  8
DEFPOINTS
  6
CONTINUOUS
 62
     3
 48
0.125
100
AcDbPolyline
 90
        2
 70
   128
 43
0.0
 10
-0.2266207406552105
 20
-14.6457621493077
 10
-0.2266207406552105
 20
-14.6457621493077
  0
LWPOLYLINE
  5
289
330
A
100
AcDbEntity
  8
DEFPOINTS
  6
CONTINUOUS
 62
     3
 48
0.125
100
AcDbPolyline
 90
        2
 70
   128
 43
0.0
 10
-0.2266207406552105
 20
-14.6457621493077
 10
-0.2266207406552105
 20
-14.6457621493077
  0
LWPOLYLINE
  5
28D
330
A
100
AcDbEntity
  8
DEFPOINTS
  6
CONTINUOUS
 62
     3
 48
0.125
100
AcDbPolyline
 90
        2
 70
   128
 43
0.0
 10
0.5233792593447908
 20
-14.6457621493077
 10
0.5233792593447908
 20
-14.6457621493077
  0
LWPOLYLINE
  5
291
330
A
100
AcDbEntity
  8
DEFPOINTS
  6
CONTINUOUS
 62
     3
 48
0.125
100
AcDbPolyline
 90
        2
 70
   128
 43
0.0
 10
0.5233792593447908
 20
-14.6457621493077
 10
0.5233792593447908
 20
-14.6457621493077
  0
LWPOLYLINE
  5
295
330
A
100
AcDbEntity
  8
DEFPOINTS
  6
CONTINUOUS
 62
     3
 48
0.125
100
AcDbPolyline
 90
        2
 70
   128
 43
0.0
 10
0.5233792593447908
 20
-14.88568565977858
 10
0.5233792593447908
 20
-14.88568565977858
  0
LWPOLYLINE
  5
299
330
A
100
AcDbEntity
  8
DEFPOINTS
  6
CONTINUOUS
 62
     3
 48
0.125
100
AcDbPolyline
 90
        2
 70
   128
 43
0.0
 10
0.5233792593447908
 20
-14.88568565977858
 10
0.5233792593447908
 20
-14.88568565977858
  0
LWPOLYLINE
  5
29D
330
A
100
AcDbEntity
  8
DEFPOINTS
  6
CONTINUOUS
 62
     3
 48
0.125
100
AcDbPolyline
 90
        2
 70
   128
 43
0.0
 10
2.666402147962203
 20
-12.99122802593415
 10
2.666402147962203
 20
-12.99122802593415
  0
LWPOLYLINE
  5
2A1
330
A
100
AcDbEntity
  8
DEFPOINTS
  6
CONTINUOUS
 62
     3
 48
0.125
100
AcDbPolyline
 90
        2
 70
   128
 43
0.0
 10
2.666402147962203
 20
-12.99122802593415
 10
2.666402147962203
 20
-12.99122802593415
  0
LWPOLYLINE
  5
2A5
330
A
100
AcDbEntity
  8
DEFPOINTS
  6
CONTINUOUS
 62
     3
 48
0.125
100
AcDbPolyline
 90
        2
 70
   128
 43
0.0
 10
4.2914021479622
 20
-12.99122802593415
 10
4.2914021479622
 20
-12.99122802593415
  0
LWPOLYLINE
  5
2A9
330
A
100
AcDbEntity
  8
DEFPOINTS
  6
CONTINUOUS
 62
     3
 48
0.125
100
AcDbPolyline
 90
        2
 70
   128
 43
0.0
 10
4.2914021479622
 20
-12.99122802593415
 10
4.2914021479622
 20
-12.99122802593415
  0
LWPOLYLINE
  5
2AD
330
A
100
AcDbEntity
  8
DEFPOINTS
  6
CONTINUOUS
 62
     3
 48
0.125
100
AcDbPolyline
 90
        2
 70
   128
 43
0.0
 10
4.2914021479622
 20
-12.86622802593415
 10
4.2914021479622
 20
-12.86622802593415
  0
LWPOLYLINE
  5
2B1
330
A
100
AcDbEntity
  8
DEFPOINTS
  6
CONTINUOUS
 62
     3
 48
0.125
100
AcDbPolyline
 90
        2
 70
   128
 43
0.0
 10
4.2914021479622
 20
-12.86622802593415
 10
4.2914021479622
 20
-12.86622802593415
  0
LWPOLYLINE
  5
2B5
330
A
100
AcDbEntity
  8
DEFPOINTS
  6
CONTINUOUS
 62
     3
 48
0.125
100
AcDbPolyline
 90
        2
 70
   128
 43
0.0
 10
2.260402147962201
 20
-13.11622802593415
 10
2.260402147962201
 20
-13.11622802593415
  0
LWPOLYLINE
  5
2B9
330
A
100
AcDbEntity
  8
DEFPOINTS
  6
CONTINUOUS
 62
     3
 48
0.125
100
AcDbPolyline
 90
        2
 70
   128
 43
0.0
 10
2.260402147962201
 20
-13.11622802593415
 10
2.260402147962201
 20
-13.11622802593415
  0
LWPOLYLINE
  5
2BD
330
A
100
AcDbEntity
  8
DEFPOINTS
  6
CONTINUOUS
 62
     3
 48
0.125
100
AcDbPolyline
 90
        2
 70
   128
 43
0.0
 10
4.760402147962199
 20
-13.11622802593415
 10
4.760402147962199
 20
-13.11622802593415
  0
LWPOLYLINE
  5
2C1
330
A
100
AcDbEntity
  8
DEFPOINTS
  6
CONTINUOUS
 62
     3
 48
0.125
100
AcDbPolyline
 90
        2
 70
   128
 43
0.0
 10
4.760402147962199
 20
-13.11622802593415
 10
4.760402147962199
 20
-13.11622802593415
  0
LWPOLYLINE
  5
2C5
330
A
100
AcDbEntity
  8
DEFPOINTS
  6
CONTINUOUS
 62
     3
 48
0.125
100
AcDbPolyline
 90
        2
 70
   128
 43
0.0
 10
4.760402147962199
 20
-12.49122802593415
 10
4.760402147962199
 20
-12.49122802593415
  0
LWPOLYLINE
  5
2C9
330
A
100
AcDbEntity
  8
DEFPOINTS
  6
CONTINUOUS
 62
     3
 48
0.125
100
AcDbPolyline
 90
        2
 70
   128
 43
0.0
 10
4.760402147962199
 20
-12.49122802593415
 10
4.760402147962199
 20
-12.49122802593415
  0
TEXT
  5
2DA
330
A
100
AcDbEntity
  8
ADPDIM
100
AcDbText
 10
-5.220582133264907
 20
-16.1018211198154
 30
0.0
 40
0.125
  1
J U L I U S  B L U M  &  C O . ,  I N C .      ( 8 0 0 )  5 2 6 - 6 2 9 3        W W W . J U L I U S B L U M . C O M        P A R T  N o .  1 3 0 2
 41
1.25
  7
ARIAL_WIDE
 72
     1
 11
1.305146891291708
 21
-15.9768211198154
 31
0.0
100
AcDbText
 73
     3
  0
ENDSEC
  0
SECTION
  2
OBJECTS
  0
DICTIONARY
  5
19
330
0
100
AcDbDictionary
  3
ACAD_GROUP
350
1A
  3
ACAD_LAYOUT
350
2D2
  3
ACAD_MLINESTYLE
350
1B
  3
ACAD_PLOTSETTINGS
350
2D3
  3
ACAD_PLOTSTYLENAME
350
2D0
  3
ACDBHEADERROUNDTRIPXREC
350
46D
  3
ACDBVARIABLEDICTIONARY
350
33C
  0
DICTIONARY
  5
330
330
A
100
AcDbDictionary
280
     1
  3
ACAD_LAYOUTSELFREF
360
48D
  0
DICTIONARY
  5
332
330
B
100
AcDbDictionary
280
     1
  3
ACAD_LAYOUTSELFREF
360
48E
  0
DICTIONARY
  5
1A
102
{ACAD_REACTORS
330
19
102
}
330
19
100
AcDbDictionary
  0
DICTIONARY
  5
2D2
102
{ACAD_REACTORS
330
19
102
}
330
19
100
AcDbDictionary
  0
DICTIONARY
  5
1B
102
{ACAD_REACTORS
330
19
102
}
330
19
100
AcDbDictionary
  3
STANDARD
350
1C
  0
DICTIONARY
  5
2D3
102
{ACAD_REACTORS
330
19
102
}
330
19
100
AcDbDictionary
  0
ACDBDICTIONARYWDFLT
  5
2D0
102
{ACAD_REACTORS
330
19
102
}
330
19
100
AcDbDictionary
281
     1
  3
Normal
350
2D1
100
AcDbDictionaryWithDefault
340
2D1
  0
DICTIONARY
  5
46D
102
{ACAD_REACTORS
330
19
102
}
330
19
100
AcDbDictionary
  3
CEPSNTYPE
350
477
  3
FINGERPRINTGUID
350
478
  3
HYPERLINKBASE
350
470
  3
INSUNITS
350
476
  3
LAYOUTDICT
350
472
  3
LWETCUNION
350
475
  3
PLOTSETDICT
350
473
  3
PLOTSTYLNAMDICT
350
474
  3
PSVPSCALE
350
47A
  3
PUCSBASE
350
47D
  3
PUCSORGBACK
350
483
  3
PUCSORGBOTTOM
350
47F
  3
PUCSORGFRONT
350
482
  3
PUCSORGLEFT
350
480
  3
PUCSORGRIGHT
350
481
  3
PUCSORGTOP
350
47E
  3
PUCSORTHOREF
350
47B
  3
PUCSORTHOVIEW
350
47C
  3
STYLESHEET
350
471
  3
TSTACKALIGN
350
46E
  3
TSTACKSIZE
350
46F
  3
UCSBASE
350
486
  3
UCSORGBACK
350
48C
  3
UCSORGBOTTOM
350
488
  3
UCSORGFRONT
350
48B
  3
UCSORGLEFT
350
489
  3
UCSORGRIGHT
350
48A
  3
UCSORGTOP
350
487
  3
UCSORTHOREF
350
484
  3
UCSORTHOVIEW
350
485
  3
VERSIONGUID
350
479
  0
DICTIONARY
  5
33C
102
{ACAD_REACTORS
330
19
102
}
330
19
100
AcDbDictionary
  3
DIMASSOC
350
33D
  0
XRECORD
  5
48D
102
{ACAD_REACTORS
330
330
102
}
330
330
100
AcDbXrecord
340
A
  0
XRECORD
  5
48E
102
{ACAD_REACTORS
330
332
102
}
330
332
100
AcDbXrecord
340
B
  0
MLINESTYLE
  5
1C
102
{ACAD_REACTORS
330
1B
102
}
330
1B
100
AcDbMlineStyle
  2
STANDARD
 70
     0
  3

 62
     0
 51
90.00000000000019
 52
90.00000000000019
 71
     2
 49
0.5
 62
   256
  6
BYLAYER
 49
-0.5
 62
   256
  6
BYLAYER
  0
ACDBPLACEHOLDER
  5
2D1
102
{ACAD_REACTORS
330
2D0
102
}
330
2D0
100
AcDbPlaceHolder
280
     0
  0
XRECORD
  5
477
102
{ACAD_REACTORS
330
46D
102
}
330
46D
100
AcDbXrecord
 90
        0
  0
XRECORD
  5
478
102
{ACAD_REACTORS
330
46D
102
}
330
46D
100
AcDbXrecord
  1
{A04B74A6-563F-4DBB-AA73-FCE1D24CDEB9}
  0
XRECORD
  5
470
102
{ACAD_REACTORS
330
46D
102
}
330
46D
100
AcDbXrecord
  1

  0
XRECORD
  5
476
102
{ACAD_REACTORS
330
46D
102
}
330
46D
100
AcDbXrecord
 90
        0
  0
XRECORD
  5
472
102
{ACAD_REACTORS
330
46D
102
}
330
46D
100
AcDbXrecord
340
2D2
  0
XRECORD
  5
475
102
{ACAD_REACTORS
330
46D
102
}
330
46D
100
AcDbXrecord
 90
    14877
  0
XRECORD
  5
473
102
{ACAD_REACTORS
330
46D
102
}
330
46D
100
AcDbXrecord
340
2D3
  0
XRECORD
  5
474
102
{ACAD_REACTORS
330
46D
102
}
330
46D
100
AcDbXrecord
340
2D0
  0
XRECORD
  5
47A
102
{ACAD_REACTORS
330
46D
102
}
330
46D
100
AcDbXrecord
 40
0.0
  0
XRECORD
  5
47D
102
{ACAD_REACTORS
330
46D
102
}
330
46D
100
AcDbXrecord
340
0
  0
XRECORD
  5
483
102
{ACAD_REACTORS
330
46D
102
}
330
46D
100
AcDbXrecord
 10
0.0
 20
0.0
 30
0.0
  0
XRECORD
  5
47F
102
{ACAD_REACTORS
330
46D
102
}
330
46D
100
AcDbXrecord
 10
0.0
 20
0.0
 30
0.0
  0
XRECORD
  5
482
102
{ACAD_REACTORS
330
46D
102
}
330
46D
100
AcDbXrecord
 10
0.0
 20
0.0
 30
0.0
  0
XRECORD
  5
480
102
{ACAD_REACTORS
330
46D
102
}
330
46D
100
AcDbXrecord
 10
0.0
 20
0.0
 30
0.0
  0
XRECORD
  5
481
102
{ACAD_REACTORS
330
46D
102
}
330
46D
100
AcDbXrecord
 10
0.0
 20
0.0
 30
0.0
  0
XRECORD
  5
47E
102
{ACAD_REACTORS
330
46D
102
}
330
46D
100
AcDbXrecord
 10
0.0
 20
0.0
 30
0.0
  0
XRECORD
  5
47B
102
{ACAD_REACTORS
330
46D
102
}
330
46D
100
AcDbXrecord
340
0
  0
XRECORD
  5
47C
102
{ACAD_REACTORS
330
46D
102
}
330
46D
100
AcDbXrecord
 70
     0
  0
XRECORD
  5
471
102
{ACAD_REACTORS
330
46D
102
}
330
46D
100
AcDbXrecord
  1

  0
XRECORD
  5
46E
102
{ACAD_REACTORS
330
46D
102
}
330
46D
100
AcDbXrecord
 90
        1
  0
XRECORD
  5
46F
102
{ACAD_REACTORS
330
46D
102
}
330
46D
100
AcDbXrecord
 90
       70
  0
XRECORD
  5
486
102
{ACAD_REACTORS
330
46D
102
}
330
46D
100
AcDbXrecord
340
0
  0
XRECORD
  5
48C
102
{ACAD_REACTORS
330
46D
102
}
330
46D
100
AcDbXrecord
 10
0.0
 20
0.0
 30
0.0
  0
XRECORD
  5
488
102
{ACAD_REACTORS
330
46D
102
}
330
46D
100
AcDbXrecord
 10
0.0
 20
0.0
 30
0.0
  0
XRECORD
  5
48B
102
{ACAD_REACTORS
330
46D
102
}
330
46D
100
AcDbXrecord
 10
0.0
 20
0.0
 30
0.0
  0
XRECORD
  5
489
102
{ACAD_REACTORS
330
46D
102
}
330
46D
100
AcDbXrecord
 10
0.0
 20
0.0
 30
0.0
  0
XRECORD
  5
48A
102
{ACAD_REACTORS
330
46D
102
}
330
46D
100
AcDbXrecord
 10
0.0
 20
0.0
 30
0.0
  0
XRECORD
  5
487
102
{ACAD_REACTORS
330
46D
102
}
330
46D
100
AcDbXrecord
 10
0.0
 20
0.0
 30
0.0
  0
XRECORD
  5
484
102
{ACAD_REACTORS
330
46D
102
}
330
46D
100
AcDbXrecord
340
0
  0
XRECORD
  5
485
102
{ACAD_REACTORS
330
46D
102
}
330
46D
100
AcDbXrecord
 70
     0
  0
XRECORD
  5
479
102
{ACAD_REACTORS
330
46D
102
}
330
46D
100
AcDbXrecord
  1
{35E97794-CF2F-443F-843B-646A84A30E05}
  0
DICTIONARYVAR
  5
33D
102
{ACAD_REACTORS
330
33C
102
}
330
33C
100
DictionaryVariables
280
     0
  1
1
  0
ENDSEC
  0
EOF
